ISO-10303-21;
HEADER;
FILE_DESCRIPTION(('STEP AP214'),'1');
FILE_NAME('gebogener draht.STP','2022-04-07T05:54:35',(' '),(' '),'Spatial InterOp 3D',' ',' ');
FILE_SCHEMA(('AUTOMOTIVE_DESIGN { 1 0 10303 214 1 1 1 1 }'));
ENDSEC;
DATA;
#1=PRODUCT_DEFINITION_CONTEXT('',#15,'design');
#2=APPLICATION_PROTOCOL_DEFINITION('INTERNATIONAL STANDARD','automotive_design',1994,#15);
#3=PRODUCT_CATEGORY_RELATIONSHIP('NONE','NONE',#16,#17);
#4=SHAPE_DEFINITION_REPRESENTATION(#18,#19);
#5=PRODUCT_DEFINITION_CONTEXT('',#20,'design');
#6=APPLICATION_PROTOCOL_DEFINITION('INTERNATIONAL STANDARD','automotive_design',1994,#20);
#7=PRODUCT_CATEGORY_RELATIONSHIP('NONE','NONE',#21,#22);
#8=CONTEXT_DEPENDENT_SHAPE_REPRESENTATION(#23,#24);
#9=SHAPE_DEFINITION_REPRESENTATION(#25,#26);
#10=SHAPE_REPRESENTATION_RELATIONSHIP('NONE','NONE',#26,#27);
#11= (GEOMETRIC_REPRESENTATION_CONTEXT(3)GLOBAL_UNCERTAINTY_ASSIGNED_CONTEXT((#30))GLOBAL_UNIT_ASSIGNED_CONTEXT((#32,#33,#34))REPRESENTATION_CONTEXT('NONE','WORKSPACE'));
#15=APPLICATION_CONTEXT(' ');
#16=PRODUCT_CATEGORY('part','NONE');
#17=PRODUCT_RELATED_PRODUCT_CATEGORY('detail',' ',(#36));
#18=PRODUCT_DEFINITION_SHAPE('NONE','NONE',#37);
#19=SHAPE_REPRESENTATION('gebogener draht',(#38,#39),#40);
#20=APPLICATION_CONTEXT(' ');
#21=PRODUCT_CATEGORY('part','NONE');
#22=PRODUCT_RELATED_PRODUCT_CATEGORY('detail',' ',(#41));
#23=(REPRESENTATION_RELATIONSHIP('','',#26,#19)REPRESENTATION_RELATIONSHIP_WITH_TRANSFORMATION(#44)SHAPE_REPRESENTATION_RELATIONSHIP());
#24=PRODUCT_DEFINITION_SHAPE('NAUO-PROD-DEF','NAUO-PROD-DEF',#46);
#25=PRODUCT_DEFINITION_SHAPE('NONE','NONE',#47);
#26=SHAPE_REPRESENTATION('',(#38),#40);
#27=ADVANCED_BREP_SHAPE_REPRESENTATION('',(#48),#11);
#30=UNCERTAINTY_MEASURE_WITH_UNIT(LENGTH_MEASURE(1.0E-06),#32,'','');
#32= (CONVERSION_BASED_UNIT('MILLIMETRE',#51)LENGTH_UNIT()NAMED_UNIT(#54));
#33= (NAMED_UNIT(#56)PLANE_ANGLE_UNIT()SI_UNIT($,.RADIAN.));
#34= (NAMED_UNIT(#56)SOLID_ANGLE_UNIT()SI_UNIT($,.STERADIAN.));
#36=PRODUCT('gebogener draht','gebogener draht','PART--DESC',(#62));
#37=PRODUCT_DEFINITION('gebogener draht','gebogener draht',#63,#1);
#38=AXIS2_PLACEMENT_3D('',#64,#65,#66);
#39=AXIS2_PLACEMENT_3D('',#67,#68,#69);
#40= (GEOMETRIC_REPRESENTATION_CONTEXT(3)GLOBAL_UNCERTAINTY_ASSIGNED_CONTEXT((#72))GLOBAL_UNIT_ASSIGNED_CONTEXT((#74,#75,#76))REPRESENTATION_CONTEXT('NONE','WORKSPACE'));
#41=PRODUCT('ASSEM1','ASSEM1','PART-ASSEM1-DESC',(#78));
#44=ITEM_DEFINED_TRANSFORMATION('','',#38,#39);
#46=NEXT_ASSEMBLY_USAGE_OCCURRENCE('Sweep-K\X2\00F6\X0\rper','Sweep-K\X2\00F6\X0\rper','Sweep-K\X2\00F6\X0\rper',#37,#47,$);
#47=PRODUCT_DEFINITION('','NONE',#79,#5);
#48=MANIFOLD_SOLID_BREP('',#80);
#51=LENGTH_MEASURE_WITH_UNIT(LENGTH_MEASURE(1.0),#81);
#54=DIMENSIONAL_EXPONENTS(1.0,0.0,0.0,0.0,0.0,0.0,0.0);
#56=DIMENSIONAL_EXPONENTS(0.0,0.0,0.0,0.0,0.0,0.0,0.0);
#62=PRODUCT_CONTEXT('',#15,'mechanical');
#63=PRODUCT_DEFINITION_FORMATION_WITH_SPECIFIED_SOURCE(' ','NONE',#36,.NOT_KNOWN.);
#64=CARTESIAN_POINT('',(0.0,0.0,0.0));
#65=DIRECTION('',(0.0,0.0,1.0));
#66=DIRECTION('',(1.0,0.0,0.0));
#67=CARTESIAN_POINT('',(-377.688664000353,197.17649891801,-27.9775241196825));
#68=DIRECTION('',(0.0191192456952166,0.000241229070350371,0.999817181414973));
#69=DIRECTION('',(0.999498879748529,0.0252278383036261,-0.0191192456954317));
#72=UNCERTAINTY_MEASURE_WITH_UNIT(LENGTH_MEASURE(1.0E-06),#74,'','');
#74= (CONVERSION_BASED_UNIT('MILLIMETRE',#84)LENGTH_UNIT()NAMED_UNIT(#87));
#75= (NAMED_UNIT(#89)PLANE_ANGLE_UNIT()SI_UNIT($,.RADIAN.));
#76= (NAMED_UNIT(#89)SOLID_ANGLE_UNIT()SI_UNIT($,.STERADIAN.));
#78=PRODUCT_CONTEXT('',#20,'mechanical');
#79=PRODUCT_DEFINITION_FORMATION_WITH_SPECIFIED_SOURCE(' ','NONE',#41,.NOT_KNOWN.);
#80=CLOSED_SHELL('',(#95,#96,#97,#98,#99,#100,#101,#102,#103,#104,#105,#106));
#81= (NAMED_UNIT(#54)LENGTH_UNIT()SI_UNIT(.MILLI.,.METRE.));
#84=LENGTH_MEASURE_WITH_UNIT(LENGTH_MEASURE(1.0),#108);
#87=DIMENSIONAL_EXPONENTS(1.0,0.0,0.0,0.0,0.0,0.0,0.0);
#89=DIMENSIONAL_EXPONENTS(0.0,0.0,0.0,0.0,0.0,0.0,0.0);
#95=ADVANCED_FACE('',(#109),#110,.F.);
#96=ADVANCED_FACE('',(#111),#112,.F.);
#97=ADVANCED_FACE('',(#113),#114,.F.);
#98=ADVANCED_FACE('',(#115),#116,.F.);
#99=ADVANCED_FACE('',(#117),#118,.T.);
#100=ADVANCED_FACE('',(#119),#120,.T.);
#101=ADVANCED_FACE('',(#121,#122),#123,.T.);
#102=ADVANCED_FACE('',(#124,#125),#126,.T.);
#103=ADVANCED_FACE('',(#127,#128),#129,.T.);
#104=ADVANCED_FACE('',(#130,#131),#132,.T.);
#105=ADVANCED_FACE('',(#133,#134),#135,.T.);
#106=ADVANCED_FACE('',(#136,#137),#138,.T.);
#108= (NAMED_UNIT(#87)LENGTH_UNIT()SI_UNIT(.MILLI.,.METRE.));
#109=FACE_OUTER_BOUND('',#140,.T.);
#110=PLANE('',#141);
#111=FACE_OUTER_BOUND('',#142,.T.);
#112=PLANE('',#143);
#113=FACE_OUTER_BOUND('',#144,.T.);
#114=PLANE('',#145);
#115=FACE_OUTER_BOUND('',#146,.T.);
#116=PLANE('',#147);
#117=FACE_OUTER_BOUND('',#148,.T.);
#118=SURFACE_OF_REVOLUTION('',#149,#150);
#119=FACE_OUTER_BOUND('',#151,.T.);
#120=CYLINDRICAL_SURFACE('',#152,3.00000000000001);
#121=FACE_BOUND('',#153,.T.);
#122=FACE_BOUND('',#154,.T.);
#123=CYLINDRICAL_SURFACE('',#155,3.00000000000001);
#124=FACE_BOUND('',#156,.T.);
#125=FACE_BOUND('',#157,.T.);
#126=TOROIDAL_SURFACE('',#158,4.00000000000676,3.0);
#127=FACE_BOUND('',#159,.T.);
#128=FACE_BOUND('',#160,.T.);
#129=CYLINDRICAL_SURFACE('',#161,3.00000000000001);
#130=FACE_BOUND('',#162,.T.);
#131=FACE_BOUND('',#163,.T.);
#132=CYLINDRICAL_SURFACE('',#164,3.00000000000016);
#133=FACE_BOUND('',#165,.T.);
#134=FACE_BOUND('',#166,.T.);
#135=TOROIDAL_SURFACE('',#167,39.9799551902982,3.00000000000016);
#136=FACE_BOUND('',#168,.T.);
#137=FACE_BOUND('',#169,.T.);
#138=TOROIDAL_SURFACE('',#170,40.0200448097023,3.00000000000016);
#140=EDGE_LOOP('',(#171));
#141=AXIS2_PLACEMENT_3D('',#172,#173,#174);
#142=EDGE_LOOP('',(#175));
#143=AXIS2_PLACEMENT_3D('',#176,#177,#178);
#144=EDGE_LOOP('',(#179,#180));
#145=AXIS2_PLACEMENT_3D('',#181,#182,#183);
#146=EDGE_LOOP('',(#184,#185));
#147=AXIS2_PLACEMENT_3D('',#186,#187,#188);
#148=EDGE_LOOP('',(#189,#190,#191,#192,#193,#194));
#149=(B_SPLINE_CURVE(3,(#196,#197,#198,#199,#200,#201,#202,#203,#204,#205,#206,#207,#208,#209,#210,#211,#212),.UNSPECIFIED.,.F.,.F.)B_SPLINE_CURVE_WITH_KNOTS((4,1,3,1,3,1,3,1,4),(-5.91200070615537,-5.49778714378228,-5.08357358140919,-4.66936001903609,-4.255146456663,-3.8409328942899,-3.42671933191681,-3.01250576954371,-2.59829220717061),.UNSPECIFIED.)RATIONAL_B_SPLINE_CURVE((1.17157287525381,1.05719095841794,0.942809041582063,1.05719095841794,1.17157287525381,1.05719095841794,0.942809041582063,1.05719095841794,1.17157287525381,1.05719095841794,0.942809041582063,1.05719095841794,1.17157287525381,1.05719095841794,0.942809041582063,1.05719095841794,1.17157287525381))BOUNDED_CURVE()REPRESENTATION_ITEM('')GEOMETRIC_REPRESENTATION_ITEM()CURVE());
#150=AXIS1_PLACEMENT('',#219,#220);
#151=EDGE_LOOP('',(#221,#222,#223));
#152=AXIS2_PLACEMENT_3D('',#224,#225,#226);
#153=EDGE_LOOP('',(#227));
#154=EDGE_LOOP('',(#228));
#155=AXIS2_PLACEMENT_3D('',#229,#230,#231);
#156=EDGE_LOOP('',(#232));
#157=EDGE_LOOP('',(#233));
#158=AXIS2_PLACEMENT_3D('',#234,#235,#236);
#159=EDGE_LOOP('',(#237));
#160=EDGE_LOOP('',(#238));
#161=AXIS2_PLACEMENT_3D('',#239,#240,#241);
#162=EDGE_LOOP('',(#242));
#163=EDGE_LOOP('',(#243));
#164=AXIS2_PLACEMENT_3D('',#244,#245,#246);
#165=EDGE_LOOP('',(#247));
#166=EDGE_LOOP('',(#248));
#167=AXIS2_PLACEMENT_3D('',#249,#250,#251);
#168=EDGE_LOOP('',(#252));
#169=EDGE_LOOP('',(#253,#254));
#170=AXIS2_PLACEMENT_3D('',#255,#256,#257);
#171=ORIENTED_EDGE('',*,*,#258,.T.);
#172=CARTESIAN_POINT('',(-5545.61452489041,-5822.16901447925,3308.75398700597));
#173=DIRECTION('',(0.999498879727589,-0.025227838880772,0.0191192460285528));
#174=DIRECTION('',(0.0191192460288009,-0.000241229061722651,-0.999817181408596));
#175=ORIENTED_EDGE('',*,*,#259,.F.);
#176=CARTESIAN_POINT('',(-5619.47414070188,-5820.30476177694,3307.34113883283));
#177=DIRECTION('',(0.999498879727589,-0.025227838880772,0.0191192460285528));
#178=DIRECTION('',(0.0191192460288009,-0.00024122906172265,-0.999817181408596));
#179=ORIENTED_EDGE('',*,*,#260,.F.);
#180=ORIENTED_EDGE('',*,*,#261,.F.);
#181=CARTESIAN_POINT('',(-5533.3821585846,-5816.69253650393,3304.13458104507));
#182=DIRECTION('',(1.0,-4.8623776532919E-10,7.06263433153387E-10));
#183=DIRECTION('',(7.06380744610049E-10,0.000241305853562295,-0.999999970885742));
#184=ORIENTED_EDGE('',*,*,#262,.F.);
#185=ORIENTED_EDGE('',*,*,#263,.F.);
#186=CARTESIAN_POINT('',(-5533.3821585846,-5816.69253650393,3304.13458104507));
#187=DIRECTION('',(1.0,-4.8623776532919E-10,7.06263433153387E-10));
#188=DIRECTION('',(7.06380744610049E-10,0.000241305853562295,-0.999999970885742));
#189=ORIENTED_EDGE('',*,*,#261,.T.);
#190=ORIENTED_EDGE('',*,*,#264,.T.);
#191=ORIENTED_EDGE('',*,*,#265,.F.);
#192=ORIENTED_EDGE('',*,*,#266,.F.);
#193=ORIENTED_EDGE('',*,*,#265,.T.);
#194=ORIENTED_EDGE('',*,*,#267,.T.);
#196=CARTESIAN_POINT('',(-5529.07004423019,-5819.15116743559,3298.14010295488));
#197=CARTESIAN_POINT('',(-5529.76749004298,-5818.80016879978,3298.20655951618));
#198=CARTESIAN_POINT('',(-5531.32540623672,-5818.45176703772,3298.82445460443));
#199=CARTESIAN_POINT('',(-5532.233303327,-5819.11324052606,3300.11614214105));
#200=CARTESIAN_POINT('',(-5532.40765416134,-5819.5749267322,3300.72482499138));
#201=CARTESIAN_POINT('',(-5532.58200499569,-5820.03661293833,3301.33350784172));
#202=CARTESIAN_POINT('',(-5532.38390197506,-5821.25469530297,3302.51980946474));
#203=CARTESIAN_POINT('',(-5531.10246896981,-5822.33523278916,3302.86715538538));
#204=CARTESIAN_POINT('',(-5530.40502315701,-5822.68623142496,3302.80069882408));
#205=CARTESIAN_POINT('',(-5529.70757734421,-5823.03723006077,3302.73424226278));
#206=CARTESIAN_POINT('',(-5528.14966115048,-5823.38563182283,3302.11634717454));
#207=CARTESIAN_POINT('',(-5527.24176406019,-5822.72415833449,3300.82465963791));
#208=CARTESIAN_POINT('',(-5527.06741322585,-5822.26247212835,3300.21597678758));
#209=CARTESIAN_POINT('',(-5526.89306239151,-5821.80078592222,3299.60729393724));
#210=CARTESIAN_POINT('',(-5527.09116541214,-5820.58270355758,3298.42099231422));
#211=CARTESIAN_POINT('',(-5528.37259841739,-5819.5021660714,3298.07364639358));
#212=CARTESIAN_POINT('',(-5529.07004423019,-5819.15116743559,3298.14010295488));
#219=CARTESIAN_POINT('',(-5533.31391537675,-5817.69525823383,3299.2771191926));
#220=DIRECTION('',(0.0310986975328972,0.66994174582978,-0.741762042845483));
#221=ORIENTED_EDGE('',*,*,#263,.T.);
#222=ORIENTED_EDGE('',*,*,#267,.F.);
#223=ORIENTED_EDGE('',*,*,#264,.F.);
#224=CARTESIAN_POINT('',(-5533.38152408189,-5816.69254450948,3304.13458711219));
#225=DIRECTION('',(-0.999498879731691,0.0252278385921729,-0.0191192461949194));
#226=DIRECTION('',(0.031645522846805,0.810518680155001,-0.584857273190262));
#227=ORIENTED_EDGE('',*,*,#266,.T.);
#228=ORIENTED_EDGE('',*,*,#268,.F.);
#229=CARTESIAN_POINT('',(-5538.4945986512,-5835.71887970619,3286.73608808794));
#230=DIRECTION('',(0.397899275907099,0.672483422653202,0.624053052623927));
#231=DIRECTION('',(0.222496487804498,0.589177331563744,-0.776765978198124));
#232=ORIENTED_EDGE('',*,*,#268,.T.);
#233=ORIENTED_EDGE('',*,*,#269,.F.);
#234=CARTESIAN_POINT('',(-5542.16220612699,-5834.46066444002,3287.71871199743));
#235=DIRECTION('',(-0.0310986969683012,-0.669941745792454,0.741762042902865));
#236=DIRECTION('',(0.00590427203895328,0.741984914549532,0.670390577314907));
#237=ORIENTED_EDGE('',*,*,#269,.T.);
#238=ORIENTED_EDGE('',*,*,#258,.F.);
#239=CARTESIAN_POINT('',(-5545.54264210841,-5837.34387635521,3284.97293766504));
#240=DIRECTION('',(0.999498879748737,-0.0252278382941931,0.0191192456970082));
#241=DIRECTION('',(0.0291716716220053,0.499631938678564,-0.865746463710409));
#242=ORIENTED_EDGE('',*,*,#259,.T.);
#243=ORIENTED_EDGE('',*,*,#270,.F.);
#244=CARTESIAN_POINT('',(-5572.11051052267,-5824.09950848509,3309.74805116139));
#245=DIRECTION('',(-0.999498879741702,0.0252278383402291,-0.0191192460039854));
#246=DIRECTION('',(-0.0252278383401477,-0.999681698332634,-0.000241229070334594));
#247=ORIENTED_EDGE('',*,*,#270,.T.);
#248=ORIENTED_EDGE('',*,*,#271,.F.);
#249=CARTESIAN_POINT('',(-5570.84497638256,-5792.25217362141,3285.6121338919));
#250=DIRECTION('',(2.69190064336455E-10,-0.604003136471732,-0.796981939025164));
#251=DIRECTION('',(-1.0,0.0,-3.37761812602325E-10));
#252=ORIENTED_EDGE('',*,*,#271,.T.);
#253=ORIENTED_EDGE('',*,*,#262,.T.);
#254=ORIENTED_EDGE('',*,*,#260,.T.);
#255=CARTESIAN_POINT('',(-5533.38215861718,-5848.58778941622,3328.30681363187));
#256=DIRECTION('',(-2.69190064336455E-10,0.604003136471732,0.796981939025164));
#257=DIRECTION('',(1.0,-0.0,3.37761812602325E-10));
#258=EDGE_CURVE('',#272,#272,#273,.T.);
#259=EDGE_CURVE('',#274,#274,#275,.T.);
#260=EDGE_CURVE('',#276,#277,#278,.T.);
#261=EDGE_CURVE('',#277,#276,#279,.T.);
#262=EDGE_CURVE('',#277,#276,#280,.T.);
#263=EDGE_CURVE('',#276,#277,#281,.T.);
#264=EDGE_CURVE('',#276,#282,#283,.T.);
#265=EDGE_CURVE('',#284,#282,#285,.T.);
#266=EDGE_CURVE('',#284,#284,#286,.T.);
#267=EDGE_CURVE('',#282,#277,#287,.T.);
#268=EDGE_CURVE('',#288,#288,#289,.T.);
#269=EDGE_CURVE('',#290,#290,#291,.T.);
#270=EDGE_CURVE('',#292,#292,#293,.T.);
#271=EDGE_CURVE('',#294,#294,#295,.T.);
#272=VERTEX_POINT('',#296);
#273=CIRCLE('',#297,3.00000000000001);
#274=VERTEX_POINT('',#298);
#275=CIRCLE('',#299,3.00000000000016);
#276=VERTEX_POINT('',#300);
#277=VERTEX_POINT('',#301);
#278=CIRCLE('',#302,3.00000000000016);
#279=B_SPLINE_CURVE_WITH_KNOTS('',3,(#303,#304,#305,#306,#307,#308,#309,#310,#311,#312,#313,#314,#315,#316,#317,#318,#319,#320),.UNSPECIFIED.,.F.,.F.,(4,2,2,2,2,2,2,2,4),(-9.41715753398062,-8.22083216634275,-7.04805120060734,-5.87522437278516,-4.70262745613637,-3.53152754237395,-2.36325284679872,-1.17079893067786,-0.0),.UNSPECIFIED.);
#280=CIRCLE('',#321,3.00000000000016);
#281=ELLIPSE('',#322,3.00150411446983,3.00000000000001);
#282=VERTEX_POINT('',#323);
#283=CIRCLE('',#324,3.00000000000001);
#284=VERTEX_POINT('',#325);
#285=CIRCLE('',#326,4.62849001696995);
#286=CIRCLE('',#327,3.00000000000001);
#287=CIRCLE('',#328,3.00000000000001);
#288=VERTEX_POINT('',#329);
#289=CIRCLE('',#330,3.00000000000001);
#290=VERTEX_POINT('',#331);
#291=CIRCLE('',#332,3.00000000000001);
#292=VERTEX_POINT('',#333);
#293=CIRCLE('',#334,3.00000000000016);
#294=VERTEX_POINT('',#335);
#295=CIRCLE('',#336,3.00000000000016);
#296=CARTESIAN_POINT('',(-5545.45512709353,-5835.84498053917,3282.37569827391));
#297=AXIS2_PLACEMENT_3D('',#337,#338,#339);
#298=CARTESIAN_POINT('',(-5619.66258613609,-5825.49853656841,3310.33933691399));
#299=AXIS2_PLACEMENT_3D('',#340,#341,#342);
#300=CARTESIAN_POINT('',(-5533.38215858381,-5818.52048081964,3301.75579572928));
#301=CARTESIAN_POINT('',(-5533.38215858543,-5814.89654288991,3306.53758061612));
#302=AXIS2_PLACEMENT_3D('',#343,#344,#345);
#303=CARTESIAN_POINT('',(-5533.38215858542,-5814.89654289067,3306.53758061499));
#304=CARTESIAN_POINT('',(-5533.38215858575,-5815.21598112879,3306.77632932128));
#305=CARTESIAN_POINT('',(-5533.38215858605,-5815.57981957858,3306.94904294967));
#306=CARTESIAN_POINT('',(-5533.38215858656,-5816.34606933843,3307.14027696463));
#307=CARTESIAN_POINT('',(-5533.38215858676,-5816.74025392455,3307.15993654496));
#308=CARTESIAN_POINT('',(-5533.38215858706,-5817.51397692699,3307.0470232324));
#309=CARTESIAN_POINT('',(-5533.38215858715,-5817.88611786309,3306.91552377371));
#310=CARTESIAN_POINT('',(-5533.38215858719,-5818.55894754237,3306.5172819927));
#311=CARTESIAN_POINT('',(-5533.38215858715,-5818.85322253596,3306.25437029176));
#312=CARTESIAN_POINT('',(-5533.38215858694,-5819.32406757492,3305.63092093323));
#313=CARTESIAN_POINT('',(-5533.38215858677,-5819.4963028569,3305.2764447267));
#314=CARTESIAN_POINT('',(-5533.38215858634,-5819.69497422488,3304.52236165007));
#315=CARTESIAN_POINT('',(-5533.38215858607,-5819.71987233995,3304.13002717281));
#316=CARTESIAN_POINT('',(-5533.38215858547,-5819.61701438235,3303.34982840736));
#317=CARTESIAN_POINT('',(-5533.38215858514,-5819.48714634314,3302.97016791874));
#318=CARTESIAN_POINT('',(-5533.38215858447,-5819.09046189873,3302.28946082338));
#319=CARTESIAN_POINT('',(-5533.38215858413,-5818.82993487199,3301.9935897206));
#320=CARTESIAN_POINT('',(-5533.38215858381,-5818.52048082034,3301.75579572822));
#321=AXIS2_PLACEMENT_3D('',#346,#347,#348);
#322=AXIS2_PLACEMENT_3D('',#349,#350,#351);
#323=CARTESIAN_POINT('',(-5533.28658751228,-5814.26098846431,3302.38001528741));
#324=AXIS2_PLACEMENT_3D('',#352,#353,#354);
#325=CARTESIAN_POINT('',(-5529.07004423018,-5819.15116743558,3298.14010295488));
#326=AXIS2_PLACEMENT_3D('',#355,#356,#357);
#327=AXIS2_PLACEMENT_3D('',#358,#359,#360);
#328=AXIS2_PLACEMENT_3D('',#361,#362,#363);
#329=CARTESIAN_POINT('',(-5537.82710918778,-5833.9513477115,3284.40579015333));
#330=AXIS2_PLACEMENT_3D('',#364,#365,#366);
#331=CARTESIAN_POINT('',(-5542.09830820023,-5835.92970828219,3282.43991029703));
#332=AXIS2_PLACEMENT_3D('',#367,#368,#369);
#333=CARTESIAN_POINT('',(-5572.01557395508,-5821.6679524446,3307.9934793418));
#334=AXIS2_PLACEMENT_3D('',#370,#371,#372);
#335=CARTESIAN_POINT('',(-5550.71848435227,-5822.56033614715,3308.49335480133));
#336=AXIS2_PLACEMENT_3D('',#373,#374,#375);
#337=CARTESIAN_POINT('',(-5545.54264210831,-5837.34387635521,3284.97293766504));
#338=DIRECTION('',(-0.999498879748529,0.025227838303789,-0.0191192456952168));
#339=DIRECTION('',(0.0291716716252533,0.499631938678482,-0.865746463710346));
#340=CARTESIAN_POINT('',(-5619.56836341899,-5822.90164917268,3308.84023787342));
#341=DIRECTION('',(0.999498879741705,-0.0252278383401645,0.0191192460039364));
#342=DIRECTION('',(-0.025227838340083,-0.999681698332635,-0.000241229070333357));
#343=CARTESIAN_POINT('',(-5533.3821585846,-5816.69253650391,3304.13458104507));
#344=DIRECTION('',(-1.0,4.86237846540144E-10,-7.06263492199001E-10));
#345=DIRECTION('',(-4.86237846540144E-10,-1.0,0.0));
#346=CARTESIAN_POINT('',(-5533.3821585846,-5816.69253650391,3304.13458104507));
#347=DIRECTION('',(-1.0,4.86237846540144E-10,-7.06263492199001E-10));
#348=DIRECTION('',(-4.86237846540144E-10,-1.0,0.0));
#349=CARTESIAN_POINT('',(-5533.3821585846,-5816.69252849432,3304.1345749749));
#350=DIRECTION('',(1.0,-4.8623776532919E-10,7.06263433153387E-10));
#351=DIRECTION('',(8.14108045839221E-10,0.79698193902525,-0.604003136471619));
#352=CARTESIAN_POINT('',(-5533.38152408189,-5816.69254450948,3304.13458711219));
#353=DIRECTION('',(0.999498879722759,-0.0252278387897018,0.0191192464012338));
#354=DIRECTION('',(0.0316455231277121,0.81051868014791,-0.584857273184888));
#355=CARTESIAN_POINT('',(-5533.31391537674,-5817.69525823383,3299.27711919259));
#356=DIRECTION('',(-0.0310986975328972,-0.66994174582978,0.741762042845483));
#357=DIRECTION('',(-0.999498879731688,0.0252278385922159,-0.0191192461949939));
#358=CARTESIAN_POINT('',(-5529.7375336936,-5820.91869943028,3300.47040088948));
#359=DIRECTION('',(-0.397899275914695,-0.672483422650583,-0.624053052621906));
#360=DIRECTION('',(0.222496487803815,0.58917733156259,-0.776765978199195));
#361=CARTESIAN_POINT('',(-5533.38152408189,-5816.69254450948,3304.13458711219));
#362=DIRECTION('',(0.999498879722759,-0.0252278387897018,0.0191192464012338));
#363=DIRECTION('',(0.0316455231277121,0.81051868014791,-0.584857273184888));
#364=CARTESIAN_POINT('',(-5538.4945986512,-5835.71887970619,3286.73608808794));
#365=DIRECTION('',(-0.397899275914694,-0.672483422650583,-0.624053052621906));
#366=DIRECTION('',(0.222496487803815,0.58917733156259,-0.776765978199195));
#367=CARTESIAN_POINT('',(-5542.18582321511,-5837.42860409822,3285.03714968816));
#368=DIRECTION('',(-0.999498879748529,0.025227838303789,-0.0191192456952168));
#369=DIRECTION('',(0.0291716716252533,0.499631938678482,-0.865746463710346));
#370=CARTESIAN_POINT('',(-5572.11051052267,-5824.09950848509,3309.74805116139));
#371=DIRECTION('',(0.999498879741705,-0.0252278383401645,0.0191192460039364));
#372=DIRECTION('',(-0.025227838340083,-0.999681698332635,-0.000241229070333357));
#373=CARTESIAN_POINT('',(-5552.12295418804,-5820.40586606009,3306.94877617775));
#374=DIRECTION('',(0.883577359823924,0.373214864443658,-0.282845742702425));
#375=DIRECTION('',(0.373214864462587,-0.926050642771697,-0.0560434828173532));
ENDSEC;
END-ISO-10303-21;
