  0
SECTION
  2
HEADER
  9
$ACADVER
  1
AC1004
  9
$INSBASE
 10
0.0
 20
0.0
  9
$EXTMIN
 10
-81.239999999292
 20
-33.859999999404
  9
$EXTMAX
 10
89.655999999493
 20
114.780000000261
  9
$LIMMIN
 10
-81.239999999292
 20
-33.859999999404
  9
$LIMMAX
 10
89.655999999493
 20
114.780000000261
  9
$VIEWCTR
 10
6.591288
 20
4.579184
  9
$VIEWSIZE
 40
9.158369
  9
$SNAPMODE
 70
           0
  9
$SNAPUNIT
 10
1.0
 20
1.0
  9
$SNAPBASE
 10
0.0
 20
0.0
  9
$SNAPANG
 50
0.0
  9
$SNAPSTYLE
 70
           0
  9
$SNAPISOPAIR
 70
           0
  9
$GRIDMODE
 70
           0
  9
$GRIDUNIT
 10
0.0
 20
0.0
  9
$ORTHOMODE
 70
           0
  9
$REGENMODE
 70
           1
  9
$FILLMODE
 70
           1
  9
$QTEXTMODE
 70
           0
  9
$DRAGMODE
 70
           2
  9
$LTSCALE
 40
5.0
  9
$OSMODE
 70
           0
  9
$ATTMODE
 70
           1
  9
$TEXTSIZE
 40
0.2
  9
$TRACEWID
 40
0.05
  9
$TEXTSTYLE
  7
TXT
  9
$CLAYER
  8
0
  9
$CELTYPE
  6
CONTINUOUS
  9
$CECOLOR
 62
         256
  9
$DIMSCALE
 40
1.0
  9
$DIMASZ
 40
3.5
  9
$DIMEXO
 40
0.0625
  9
$DIMDLI
 40
0.38
  9
$DIMRND
 40
0.0
  9
$DIMDLE
 40
0.0
  9
$DIMEXE
 40
0.18
  9
$DIMTP
 40
0.0
  9
$DIMTM
 40
0.0
  9
$DIMTXT
 40
3.5
  9
$DIMCEN
 40
0.09
  9
$DIMTSZ
 40
0.0
  9
$DIMTOL
 70
           0
  9
$DIMLIM
 70
           0
  9
$DIMTIH
 70
           1
  9
$DIMTOH
 70
           1
  9
$DIMSE1
 70
           0
  9
$DIMSE2
 70
           0
  9
$DIMTAD
 70
           0
  9
$DIMZIN
 70
           0
  9
$DIMBLK
  1

  9
$DIMASO
 70
           1
  9
$DIMSHO
 70
           1
  9
$DIMPOST
  1

  9
$DIMAPOST
  1

  9
$DIMALT
 70
           0
  9
$DIMALTD
 70
           2
  9
$DIMALTF
 40
25.4
  9
$DIMLFAC
 40
1.0
  9
$LUNITS
 70
           2
  9
$LUPREC
 70
           3
  9
$AXISMODE
 70
           0
  9
$AXISUNIT
 10
0.0
 20
0.0
  9
$SKETCHINC
 40
0.1
  9
$FILLETRAD
 40
0.0
  9
$AUNITS
 70
           0
  9
$AUPREC
 70
           3
  9
$MENU
  1
acad
  9
$ELEVATION
 40
0.0
  9
$THICKNESS
 40
0.0
  9
$VIEWDIR
 10
0.0
 20
0.0
 30
1.0
  9
$LIMCHECK
 70
           0
  9
$BLIPMODE
 70
           1
  9
$CHAMFERA
 40
0.0
  9
$CHAMFERB
 40
0.0
  9
$FASTZOOM
 70
           1
  9
$SKPOLY
 70
           0
  9
$TDCREATE
 40
0.000000000
  9
$TDUPDATE
 40
0.000000000
  9
$TDINDWG
 40
0.0000000000
  9
$TDUSRTIMER
 40
0.0000000000
  9
$USRTIMER
 70
           1
  9
$ANGBASE
 50
0.0
  9
$ANGDIR
 70
           0
  9
$PDMODE
 70
           2
  9
$PDSIZE
 40
0.5
  9
$PLINEWID
 40
0.0
  9
$COORDS
 70
           0
  9
$SPLFRAME
 70
           0
  9
$SPLINESEGS
 70
           8
  9
$ATTDIA
 70
           0
  9
$ATTREQ
 70
           1
  9
$USERI1
 70
           0
  9
$USERI2
 70
           0
  9
$USERI3
 70
           0
  9
$USERI4
 70
           0
  9
$USERI5
 70
           0
  9
$USERR1
 40
0.0
  9
$USERR2
 40
0.0
  9
$USERR3
 40
0.0
  9
$USERR4
 40
0.0
  9
$USERR5
 40
0.0
  0
ENDSEC
  0
SECTION
  2
TABLES
  0
TABLE
  2
LTYPE
 70
           1
  0
LTYPE
  2
CONTINUOUS
 70
           0
  3
Solid line
 72
          65
 73
           0
 40
0.0
  0
ENDTAB
  0
TABLE
  2
LAYER
 70
           9
  0
LAYER
  2
0
 70
           0
 62
           7
  6
CONTINUOUS
  0
LAYER
  2
GRE_FLST
 70
           0
 62
           7
  6
CONTINUOUS
  0
LAYER
  2
GEB_HAUPT
 70
           0
 62
           7
  6
CONTINUOUS
  0
LAYER
  2
GEB_HNUM
 70
           0
 62
           7
  6
CONTINUOUS
  0
LAYER
  2
FLST_1K_NR
 70
           0
 62
           7
  6
CONTINUOUS
  0
LAYER
  2
PKT_G
 70
           0
 62
           7
  6
CONTINUOUS
  0
LAYER
  2
PKT_D
 70
           0
 62
           7
  6
CONTINUOUS
  0
LAYER
  2
PKT_G_OD
 70
           0
 62
           7
  6
CONTINUOUS
  0
LAYER
  2
PKT_NUMMER
 70
           0
 62
           7
  6
CONTINUOUS
  0
ENDTAB
  0
TABLE
  2
STYLE
 70
           1
  0
STYLE
  2
TXT
 70
           0
 40
3.5
 41
1.0
 50
0.0
 71
           0
 42
3.5
  3
TXT
  4

  0
ENDTAB
  0
TABLE
  2
VIEW
 70
           0
  0
ENDTAB
  0
ENDSEC
  0
SECTION
  2
BLOCKS
  0
BLOCK
  8
0
  2
ELIPPSE
 70
          64
 10
0.0
 20
0.0
  0
CIRCLE
  8
0
  6
BYBLOCK
 62
           0
 10
0.0
 20
0.0
 40
1.0
  0
ENDBLK
  8
0
  6
BYBLOCK
 62
           0
  0
BLOCK
  8
0
  2
SYM_OD014_1
 70
          64
 10
0.0
 20
0.0
  0
CIRCLE
  8
PKT_G_OD
  6
CONTINUOUS
 62
           0
 10
0.0
 20
0.0
 40
0.610000000335
  0
LINE
  8
PKT_G_OD
  6
CONTINUOUS
 62
           0
 10
-0.429999999702
 20
-0.429999999702
 11
-0.849999999627
 21
-0.849999999627
  0
LINE
  8
PKT_G_OD
  6
CONTINUOUS
 62
           0
 10
0.429999999702
 20
-0.429999999702
 11
0.849999999627
 21
-0.849999999627
  0
LINE
  8
PKT_G_OD
  6
CONTINUOUS
 62
           0
 10
0.429999999702
 20
0.429999999702
 11
0.849999999627
 21
0.849999999627
  0
LINE
  8
PKT_G_OD
  6
CONTINUOUS
 62
           0
 10
-0.429999999702
 20
0.429999999702
 11
-0.849999999627
 21
0.849999999627
  0
ENDBLK
  8
0
  6
BYBLOCK
 62
           0
  0
BLOCK
  8
0
  2
SYM019_2
 70
          64
 10
0.0
 20
0.0
  0
CIRCLE
  8
PKT_G
  6
CONTINUOUS
 62
           0
 10
0.0
 20
0.0
 40
0.089999999851
  0
ENDBLK
  8
0
  6
BYBLOCK
 62
           0
  0
BLOCK
  8
0
  2
SYM019_3
 70
          64
 10
0.0
 20
0.0
  0
CIRCLE
  8
PKT_G
  6
CONTINUOUS
 62
           0
 10
0.0
 20
0.0
 40
0.089999999851
  0
ENDBLK
  8
0
  6
BYBLOCK
 62
           0
  0
BLOCK
  8
0
  2
SYM019_4
 70
          64
 10
0.0
 20
0.0
  0
CIRCLE
  8
PKT_G
  6
CONTINUOUS
 62
           0
 10
0.0
 20
0.0
 40
0.089999999851
  0
ENDBLK
  8
0
  6
BYBLOCK
 62
           0
  0
BLOCK
  8
0
  2
SYM019_5
 70
          64
 10
0.0
 20
0.0
  0
CIRCLE
  8
PKT_G
  6
CONTINUOUS
 62
           0
 10
0.0
 20
0.0
 40
0.089999999851
  0
ENDBLK
  8
0
  6
BYBLOCK
 62
           0
  0
BLOCK
  8
0
  2
SYM019_6
 70
          64
 10
0.0
 20
0.0
  0
CIRCLE
  8
PKT_G
  6
CONTINUOUS
 62
           0
 10
0.0
 20
0.0
 40
0.089999999851
  0
ENDBLK
  8
0
  6
BYBLOCK
 62
           0
  0
BLOCK
  8
0
  2
SYM019_7
 70
          64
 10
0.0
 20
0.0
  0
CIRCLE
  8
PKT_G
  6
CONTINUOUS
 62
           0
 10
0.0
 20
0.0
 40
0.089999999851
  0
ENDBLK
  8
0
  6
BYBLOCK
 62
           0
  0
BLOCK
  8
0
  2
SYM019_8
 70
          64
 10
0.0
 20
0.0
  0
CIRCLE
  8
PKT_G
  6
CONTINUOUS
 62
           0
 10
0.0
 20
0.0
 40
0.089999999851
  0
ENDBLK
  8
0
  6
BYBLOCK
 62
           0
  0
BLOCK
  8
0
  2
SYM019_9
 70
          64
 10
0.0
 20
0.0
  0
CIRCLE
  8
PKT_G
  6
CONTINUOUS
 62
           0
 10
0.0
 20
0.0
 40
0.089999999851
  0
ENDBLK
  8
0
  6
BYBLOCK
 62
           0
  0
BLOCK
  8
0
  2
SYM019_10
 70
          64
 10
0.0
 20
0.0
  0
CIRCLE
  8
PKT_G
  6
CONTINUOUS
 62
           0
 10
0.0
 20
0.0
 40
0.089999999851
  0
ENDBLK
  8
0
  6
BYBLOCK
 62
           0
  0
BLOCK
  8
0
  2
SYM019_11
 70
          64
 10
0.0
 20
0.0
  0
CIRCLE
  8
PKT_G
  6
CONTINUOUS
 62
           0
 10
0.0
 20
0.0
 40
0.089999999851
  0
ENDBLK
  8
0
  6
BYBLOCK
 62
           0
  0
BLOCK
  8
0
  2
SYM019_12
 70
          64
 10
0.0
 20
0.0
  0
CIRCLE
  8
PKT_G
  6
CONTINUOUS
 62
           0
 10
0.0
 20
0.0
 40
0.089999999851
  0
ENDBLK
  8
0
  6
BYBLOCK
 62
           0
  0
BLOCK
  8
0
  2
SYM019_13
 70
          64
 10
0.0
 20
0.0
  0
CIRCLE
  8
PKT_G
  6
CONTINUOUS
 62
           0
 10
0.0
 20
0.0
 40
0.089999999851
  0
ENDBLK
  8
0
  6
BYBLOCK
 62
           0
  0
BLOCK
  8
0
  2
SYM019_14
 70
          64
 10
0.0
 20
0.0
  0
CIRCLE
  8
PKT_G
  6
CONTINUOUS
 62
           0
 10
0.0
 20
0.0
 40
0.089999999851
  0
ENDBLK
  8
0
  6
BYBLOCK
 62
           0
  0
BLOCK
  8
0
  2
SYM019_15
 70
          64
 10
0.0
 20
0.0
  0
CIRCLE
  8
PKT_G
  6
CONTINUOUS
 62
           0
 10
0.0
 20
0.0
 40
0.089999999851
  0
ENDBLK
  8
0
  6
BYBLOCK
 62
           0
  0
BLOCK
  8
0
  2
SYM019_16
 70
          64
 10
0.0
 20
0.0
  0
CIRCLE
  8
PKT_G
  6
CONTINUOUS
 62
           0
 10
0.0
 20
0.0
 40
0.089999999851
  0
ENDBLK
  8
0
  6
BYBLOCK
 62
           0
  0
BLOCK
  8
0
  2
SYM_OD012_17
 70
          64
 10
0.0
 20
0.0
  0
CIRCLE
  8
PKT_G_OD
  6
CONTINUOUS
 62
           0
 10
0.0
 20
0.0
 40
0.610000000335
  0
LINE
  8
PKT_G_OD
  6
CONTINUOUS
 62
           0
 10
0.0
 20
0.610000000335
 11
0.0
 21
1.549999999814
  0
LINE
  8
PKT_G_OD
  6
CONTINUOUS
 62
           0
 10
-0.610000000335
 20
1.549999999814
 11
0.610000000335
 21
1.549999999814
  0
ENDBLK
  8
0
  6
BYBLOCK
 62
           0
  0
BLOCK
  8
0
  2
SYM_OD014_18
 70
          64
 10
0.0
 20
0.0
  0
CIRCLE
  8
PKT_G_OD
  6
CONTINUOUS
 62
           0
 10
0.0
 20
0.0
 40
0.610000000335
  0
LINE
  8
PKT_G_OD
  6
CONTINUOUS
 62
           0
 10
-0.429999999702
 20
-0.429999999702
 11
-0.849999999627
 21
-0.849999999627
  0
LINE
  8
PKT_G_OD
  6
CONTINUOUS
 62
           0
 10
0.429999999702
 20
-0.429999999702
 11
0.849999999627
 21
-0.849999999627
  0
LINE
  8
PKT_G_OD
  6
CONTINUOUS
 62
           0
 10
0.429999999702
 20
0.429999999702
 11
0.849999999627
 21
0.849999999627
  0
LINE
  8
PKT_G_OD
  6
CONTINUOUS
 62
           0
 10
-0.429999999702
 20
0.429999999702
 11
-0.849999999627
 21
0.849999999627
  0
ENDBLK
  8
0
  6
BYBLOCK
 62
           0
  0
BLOCK
  8
0
  2
SYM_OD012_19
 70
          64
 10
0.0
 20
0.0
  0
CIRCLE
  8
PKT_G_OD
  6
CONTINUOUS
 62
           0
 10
0.0
 20
0.0
 40
0.610000000335
  0
LINE
  8
PKT_G_OD
  6
CONTINUOUS
 62
           0
 10
0.0
 20
0.610000000335
 11
0.0
 21
1.549999999814
  0
LINE
  8
PKT_G_OD
  6
CONTINUOUS
 62
           0
 10
-0.610000000335
 20
1.549999999814
 11
0.610000000335
 21
1.549999999814
  0
ENDBLK
  8
0
  6
BYBLOCK
 62
           0
  0
BLOCK
  8
0
  2
SYM_OD012_20
 70
          64
 10
0.0
 20
0.0
  0
CIRCLE
  8
PKT_G_OD
  6
CONTINUOUS
 62
           0
 10
0.0
 20
0.0
 40
0.610000000335
  0
LINE
  8
PKT_G_OD
  6
CONTINUOUS
 62
           0
 10
0.0
 20
0.610000000335
 11
0.0
 21
1.549999999814
  0
LINE
  8
PKT_G_OD
  6
CONTINUOUS
 62
           0
 10
-0.610000000335
 20
1.549999999814
 11
0.610000000335
 21
1.549999999814
  0
ENDBLK
  8
0
  6
BYBLOCK
 62
           0
  0
BLOCK
  8
0
  2
SYM_OD014_21
 70
          64
 10
0.0
 20
0.0
  0
CIRCLE
  8
PKT_G_OD
  6
CONTINUOUS
 62
           0
 10
0.0
 20
0.0
 40
0.610000000335
  0
LINE
  8
PKT_G_OD
  6
CONTINUOUS
 62
           0
 10
-0.429999999702
 20
-0.429999999702
 11
-0.849999999627
 21
-0.849999999627
  0
LINE
  8
PKT_G_OD
  6
CONTINUOUS
 62
           0
 10
0.429999999702
 20
-0.429999999702
 11
0.849999999627
 21
-0.849999999627
  0
LINE
  8
PKT_G_OD
  6
CONTINUOUS
 62
           0
 10
0.429999999702
 20
0.429999999702
 11
0.849999999627
 21
0.849999999627
  0
LINE
  8
PKT_G_OD
  6
CONTINUOUS
 62
           0
 10
-0.429999999702
 20
0.429999999702
 11
-0.849999999627
 21
0.849999999627
  0
ENDBLK
  8
0
  6
BYBLOCK
 62
           0
  0
BLOCK
  8
0
  2
SYM_OD014_22
 70
          64
 10
0.0
 20
0.0
  0
CIRCLE
  8
PKT_G_OD
  6
CONTINUOUS
 62
           0
 10
0.0
 20
0.0
 40
0.610000000335
  0
LINE
  8
PKT_G_OD
  6
CONTINUOUS
 62
           0
 10
-0.429999999702
 20
-0.429999999702
 11
-0.849999999627
 21
-0.849999999627
  0
LINE
  8
PKT_G_OD
  6
CONTINUOUS
 62
           0
 10
0.429999999702
 20
-0.429999999702
 11
0.849999999627
 21
-0.849999999627
  0
LINE
  8
PKT_G_OD
  6
CONTINUOUS
 62
           0
 10
0.429999999702
 20
0.429999999702
 11
0.849999999627
 21
0.849999999627
  0
LINE
  8
PKT_G_OD
  6
CONTINUOUS
 62
           0
 10
-0.429999999702
 20
0.429999999702
 11
-0.849999999627
 21
0.849999999627
  0
ENDBLK
  8
0
  6
BYBLOCK
 62
           0
  0
BLOCK
  8
0
  2
SYM_OD014_23
 70
          64
 10
0.0
 20
0.0
  0
CIRCLE
  8
PKT_G_OD
  6
CONTINUOUS
 62
           0
 10
0.0
 20
0.0
 40
0.610000000335
  0
LINE
  8
PKT_G_OD
  6
CONTINUOUS
 62
           0
 10
-0.429999999702
 20
-0.429999999702
 11
-0.849999999627
 21
-0.849999999627
  0
LINE
  8
PKT_G_OD
  6
CONTINUOUS
 62
           0
 10
0.429999999702
 20
-0.429999999702
 11
0.849999999627
 21
-0.849999999627
  0
LINE
  8
PKT_G_OD
  6
CONTINUOUS
 62
           0
 10
0.429999999702
 20
0.429999999702
 11
0.849999999627
 21
0.849999999627
  0
LINE
  8
PKT_G_OD
  6
CONTINUOUS
 62
           0
 10
-0.429999999702
 20
0.429999999702
 11
-0.849999999627
 21
0.849999999627
  0
ENDBLK
  8
0
  6
BYBLOCK
 62
           0
  0
BLOCK
  8
0
  2
SYM_OD014_24
 70
          64
 10
0.0
 20
0.0
  0
CIRCLE
  8
PKT_G_OD
  6
CONTINUOUS
 62
           0
 10
0.0
 20
0.0
 40
0.610000000335
  0
LINE
  8
PKT_G_OD
  6
CONTINUOUS
 62
           0
 10
-0.429999999702
 20
-0.429999999702
 11
-0.849999999627
 21
-0.849999999627
  0
LINE
  8
PKT_G_OD
  6
CONTINUOUS
 62
           0
 10
0.429999999702
 20
-0.429999999702
 11
0.849999999627
 21
-0.849999999627
  0
LINE
  8
PKT_G_OD
  6
CONTINUOUS
 62
           0
 10
0.429999999702
 20
0.429999999702
 11
0.849999999627
 21
0.849999999627
  0
LINE
  8
PKT_G_OD
  6
CONTINUOUS
 62
           0
 10
-0.429999999702
 20
0.429999999702
 11
-0.849999999627
 21
0.849999999627
  0
ENDBLK
  8
0
  6
BYBLOCK
 62
           0
  0
BLOCK
  8
0
  2
SYM_OD014_25
 70
          64
 10
0.0
 20
0.0
  0
CIRCLE
  8
PKT_G_OD
  6
CONTINUOUS
 62
           0
 10
0.0
 20
0.0
 40
0.610000000335
  0
LINE
  8
PKT_G_OD
  6
CONTINUOUS
 62
           0
 10
-0.429999999702
 20
-0.429999999702
 11
-0.849999999627
 21
-0.849999999627
  0
LINE
  8
PKT_G_OD
  6
CONTINUOUS
 62
           0
 10
0.429999999702
 20
-0.429999999702
 11
0.849999999627
 21
-0.849999999627
  0
LINE
  8
PKT_G_OD
  6
CONTINUOUS
 62
           0
 10
0.429999999702
 20
0.429999999702
 11
0.849999999627
 21
0.849999999627
  0
LINE
  8
PKT_G_OD
  6
CONTINUOUS
 62
           0
 10
-0.429999999702
 20
0.429999999702
 11
-0.849999999627
 21
0.849999999627
  0
ENDBLK
  8
0
  6
BYBLOCK
 62
           0
  0
BLOCK
  8
0
  2
SYM_OD014_26
 70
          64
 10
0.0
 20
0.0
  0
CIRCLE
  8
PKT_G_OD
  6
CONTINUOUS
 62
           0
 10
0.0
 20
0.0
 40
0.610000000335
  0
LINE
  8
PKT_G_OD
  6
CONTINUOUS
 62
           0
 10
-0.429999999702
 20
-0.429999999702
 11
-0.849999999627
 21
-0.849999999627
  0
LINE
  8
PKT_G_OD
  6
CONTINUOUS
 62
           0
 10
0.429999999702
 20
-0.429999999702
 11
0.849999999627
 21
-0.849999999627
  0
LINE
  8
PKT_G_OD
  6
CONTINUOUS
 62
           0
 10
0.429999999702
 20
0.429999999702
 11
0.849999999627
 21
0.849999999627
  0
LINE
  8
PKT_G_OD
  6
CONTINUOUS
 62
           0
 10
-0.429999999702
 20
0.429999999702
 11
-0.849999999627
 21
0.849999999627
  0
ENDBLK
  8
0
  6
BYBLOCK
 62
           0
  0
BLOCK
  8
0
  2
SYM_OD014_27
 70
          64
 10
0.0
 20
0.0
  0
CIRCLE
  8
PKT_G_OD
  6
CONTINUOUS
 62
           0
 10
0.0
 20
0.0
 40
0.610000000335
  0
LINE
  8
PKT_G_OD
  6
CONTINUOUS
 62
           0
 10
-0.429999999702
 20
-0.429999999702
 11
-0.849999999627
 21
-0.849999999627
  0
LINE
  8
PKT_G_OD
  6
CONTINUOUS
 62
           0
 10
0.429999999702
 20
-0.429999999702
 11
0.849999999627
 21
-0.849999999627
  0
LINE
  8
PKT_G_OD
  6
CONTINUOUS
 62
           0
 10
0.429999999702
 20
0.429999999702
 11
0.849999999627
 21
0.849999999627
  0
LINE
  8
PKT_G_OD
  6
CONTINUOUS
 62
           0
 10
-0.429999999702
 20
0.429999999702
 11
-0.849999999627
 21
0.849999999627
  0
ENDBLK
  8
0
  6
BYBLOCK
 62
           0
  0
BLOCK
  8
0
  2
SYM010_28
 70
          64
 10
0.0
 20
0.0
  0
LINE
  8
PKT_G
  6
CONTINUOUS
 62
           0
 10
-0.830000000075
 20
-0.830000000075
 11
-0.830000000075
 21
0.830000000075
  0
LINE
  8
PKT_G
  6
CONTINUOUS
 62
           0
 10
-0.830000000075
 20
0.830000000075
 11
0.830000000075
 21
0.830000000075
  0
LINE
  8
PKT_G
  6
CONTINUOUS
 62
           0
 10
0.830000000075
 20
0.830000000075
 11
0.830000000075
 21
-0.830000000075
  0
LINE
  8
PKT_G
  6
CONTINUOUS
 62
           0
 10
0.830000000075
 20
-0.830000000075
 11
-0.830000000075
 21
-0.830000000075
  0
ENDBLK
  8
0
  6
BYBLOCK
 62
           0
  0
BLOCK
  8
0
  2
SYM_OD014_29
 70
          64
 10
0.0
 20
0.0
  0
CIRCLE
  8
PKT_G_OD
  6
CONTINUOUS
 62
           0
 10
0.0
 20
0.0
 40
0.610000000335
  0
LINE
  8
PKT_G_OD
  6
CONTINUOUS
 62
           0
 10
-0.429999999702
 20
-0.429999999702
 11
-0.849999999627
 21
-0.849999999627
  0
LINE
  8
PKT_G_OD
  6
CONTINUOUS
 62
           0
 10
0.429999999702
 20
-0.429999999702
 11
0.849999999627
 21
-0.849999999627
  0
LINE
  8
PKT_G_OD
  6
CONTINUOUS
 62
           0
 10
0.429999999702
 20
0.429999999702
 11
0.849999999627
 21
0.849999999627
  0
LINE
  8
PKT_G_OD
  6
CONTINUOUS
 62
           0
 10
-0.429999999702
 20
0.429999999702
 11
-0.849999999627
 21
0.849999999627
  0
ENDBLK
  8
0
  6
BYBLOCK
 62
           0
  0
BLOCK
  8
0
  2
SYM010_30
 70
          64
 10
0.0
 20
0.0
  0
LINE
  8
PKT_G
  6
CONTINUOUS
 62
           0
 10
-0.830000000075
 20
-0.830000000075
 11
-0.830000000075
 21
0.830000000075
  0
LINE
  8
PKT_G
  6
CONTINUOUS
 62
           0
 10
-0.830000000075
 20
0.830000000075
 11
0.830000000075
 21
0.830000000075
  0
LINE
  8
PKT_G
  6
CONTINUOUS
 62
           0
 10
0.830000000075
 20
0.830000000075
 11
0.830000000075
 21
-0.830000000075
  0
LINE
  8
PKT_G
  6
CONTINUOUS
 62
           0
 10
0.830000000075
 20
-0.830000000075
 11
-0.830000000075
 21
-0.830000000075
  0
ENDBLK
  8
0
  6
BYBLOCK
 62
           0
  0
BLOCK
  8
0
  2
SYM_OD014_31
 70
          64
 10
0.0
 20
0.0
  0
CIRCLE
  8
PKT_G_OD
  6
CONTINUOUS
 62
           0
 10
0.0
 20
0.0
 40
0.610000000335
  0
LINE
  8
PKT_G_OD
  6
CONTINUOUS
 62
           0
 10
-0.429999999702
 20
-0.429999999702
 11
-0.849999999627
 21
-0.849999999627
  0
LINE
  8
PKT_G_OD
  6
CONTINUOUS
 62
           0
 10
0.429999999702
 20
-0.429999999702
 11
0.849999999627
 21
-0.849999999627
  0
LINE
  8
PKT_G_OD
  6
CONTINUOUS
 62
           0
 10
0.429999999702
 20
0.429999999702
 11
0.849999999627
 21
0.849999999627
  0
LINE
  8
PKT_G_OD
  6
CONTINUOUS
 62
           0
 10
-0.429999999702
 20
0.429999999702
 11
-0.849999999627
 21
0.849999999627
  0
ENDBLK
  8
0
  6
BYBLOCK
 62
           0
  0
BLOCK
  8
0
  2
SYM010_32
 70
          64
 10
0.0
 20
0.0
  0
LINE
  8
PKT_G
  6
CONTINUOUS
 62
           0
 10
-0.830000000075
 20
-0.830000000075
 11
-0.830000000075
 21
0.830000000075
  0
LINE
  8
PKT_G
  6
CONTINUOUS
 62
           0
 10
-0.830000000075
 20
0.830000000075
 11
0.830000000075
 21
0.830000000075
  0
LINE
  8
PKT_G
  6
CONTINUOUS
 62
           0
 10
0.830000000075
 20
0.830000000075
 11
0.830000000075
 21
-0.830000000075
  0
LINE
  8
PKT_G
  6
CONTINUOUS
 62
           0
 10
0.830000000075
 20
-0.830000000075
 11
-0.830000000075
 21
-0.830000000075
  0
ENDBLK
  8
0
  6
BYBLOCK
 62
           0
  0
BLOCK
  8
0
  2
SYM010_33
 70
          64
 10
0.0
 20
0.0
  0
LINE
  8
PKT_G
  6
CONTINUOUS
 62
           0
 10
-0.830000000075
 20
-0.830000000075
 11
-0.830000000075
 21
0.830000000075
  0
LINE
  8
PKT_G
  6
CONTINUOUS
 62
           0
 10
-0.830000000075
 20
0.830000000075
 11
0.830000000075
 21
0.830000000075
  0
LINE
  8
PKT_G
  6
CONTINUOUS
 62
           0
 10
0.830000000075
 20
0.830000000075
 11
0.830000000075
 21
-0.830000000075
  0
LINE
  8
PKT_G
  6
CONTINUOUS
 62
           0
 10
0.830000000075
 20
-0.830000000075
 11
-0.830000000075
 21
-0.830000000075
  0
ENDBLK
  8
0
  6
BYBLOCK
 62
           0
  0
BLOCK
  8
0
  2
SYM010_34
 70
          64
 10
0.0
 20
0.0
  0
LINE
  8
PKT_G
  6
CONTINUOUS
 62
           0
 10
-0.830000000075
 20
-0.830000000075
 11
-0.830000000075
 21
0.830000000075
  0
LINE
  8
PKT_G
  6
CONTINUOUS
 62
           0
 10
-0.830000000075
 20
0.830000000075
 11
0.830000000075
 21
0.830000000075
  0
LINE
  8
PKT_G
  6
CONTINUOUS
 62
           0
 10
0.830000000075
 20
0.830000000075
 11
0.830000000075
 21
-0.830000000075
  0
LINE
  8
PKT_G
  6
CONTINUOUS
 62
           0
 10
0.830000000075
 20
-0.830000000075
 11
-0.830000000075
 21
-0.830000000075
  0
ENDBLK
  8
0
  6
BYBLOCK
 62
           0
  0
BLOCK
  8
0
  2
SYM010_35
 70
          64
 10
0.0
 20
0.0
  0
LINE
  8
PKT_G
  6
CONTINUOUS
 62
           0
 10
-0.830000000075
 20
-0.830000000075
 11
-0.830000000075
 21
0.830000000075
  0
LINE
  8
PKT_G
  6
CONTINUOUS
 62
           0
 10
-0.830000000075
 20
0.830000000075
 11
0.830000000075
 21
0.830000000075
  0
LINE
  8
PKT_G
  6
CONTINUOUS
 62
           0
 10
0.830000000075
 20
0.830000000075
 11
0.830000000075
 21
-0.830000000075
  0
LINE
  8
PKT_G
  6
CONTINUOUS
 62
           0
 10
0.830000000075
 20
-0.830000000075
 11
-0.830000000075
 21
-0.830000000075
  0
ENDBLK
  8
0
  6
BYBLOCK
 62
           0
  0
BLOCK
  8
0
  2
SYM_OD014_36
 70
          64
 10
0.0
 20
0.0
  0
CIRCLE
  8
PKT_G_OD
  6
CONTINUOUS
 62
           0
 10
0.0
 20
0.0
 40
0.610000000335
  0
LINE
  8
PKT_G_OD
  6
CONTINUOUS
 62
           0
 10
-0.429999999702
 20
-0.429999999702
 11
-0.849999999627
 21
-0.849999999627
  0
LINE
  8
PKT_G_OD
  6
CONTINUOUS
 62
           0
 10
0.429999999702
 20
-0.429999999702
 11
0.849999999627
 21
-0.849999999627
  0
LINE
  8
PKT_G_OD
  6
CONTINUOUS
 62
           0
 10
0.429999999702
 20
0.429999999702
 11
0.849999999627
 21
0.849999999627
  0
LINE
  8
PKT_G_OD
  6
CONTINUOUS
 62
           0
 10
-0.429999999702
 20
0.429999999702
 11
-0.849999999627
 21
0.849999999627
  0
ENDBLK
  8
0
  6
BYBLOCK
 62
           0
  0
BLOCK
  8
0
  2
SYM_OD014_37
 70
          64
 10
0.0
 20
0.0
  0
CIRCLE
  8
PKT_G_OD
  6
CONTINUOUS
 62
           0
 10
0.0
 20
0.0
 40
0.610000000335
  0
LINE
  8
PKT_G_OD
  6
CONTINUOUS
 62
           0
 10
-0.429999999702
 20
-0.429999999702
 11
-0.849999999627
 21
-0.849999999627
  0
LINE
  8
PKT_G_OD
  6
CONTINUOUS
 62
           0
 10
0.429999999702
 20
-0.429999999702
 11
0.849999999627
 21
-0.849999999627
  0
LINE
  8
PKT_G_OD
  6
CONTINUOUS
 62
           0
 10
0.429999999702
 20
0.429999999702
 11
0.849999999627
 21
0.849999999627
  0
LINE
  8
PKT_G_OD
  6
CONTINUOUS
 62
           0
 10
-0.429999999702
 20
0.429999999702
 11
-0.849999999627
 21
0.849999999627
  0
ENDBLK
  8
0
  6
BYBLOCK
 62
           0
  0
BLOCK
  8
0
  2
SYM010_38
 70
          64
 10
0.0
 20
0.0
  0
LINE
  8
PKT_G
  6
CONTINUOUS
 62
           0
 10
-0.830000000075
 20
-0.830000000075
 11
-0.830000000075
 21
0.830000000075
  0
LINE
  8
PKT_G
  6
CONTINUOUS
 62
           0
 10
-0.830000000075
 20
0.830000000075
 11
0.830000000075
 21
0.830000000075
  0
LINE
  8
PKT_G
  6
CONTINUOUS
 62
           0
 10
0.830000000075
 20
0.830000000075
 11
0.830000000075
 21
-0.830000000075
  0
LINE
  8
PKT_G
  6
CONTINUOUS
 62
           0
 10
0.830000000075
 20
-0.830000000075
 11
-0.830000000075
 21
-0.830000000075
  0
ENDBLK
  8
0
  6
BYBLOCK
 62
           0
  0
BLOCK
  8
0
  2
SYM010_39
 70
          64
 10
0.0
 20
0.0
  0
LINE
  8
PKT_G
  6
CONTINUOUS
 62
           0
 10
-0.830000000075
 20
-0.830000000075
 11
-0.830000000075
 21
0.830000000075
  0
LINE
  8
PKT_G
  6
CONTINUOUS
 62
           0
 10
-0.830000000075
 20
0.830000000075
 11
0.830000000075
 21
0.830000000075
  0
LINE
  8
PKT_G
  6
CONTINUOUS
 62
           0
 10
0.830000000075
 20
0.830000000075
 11
0.830000000075
 21
-0.830000000075
  0
LINE
  8
PKT_G
  6
CONTINUOUS
 62
           0
 10
0.830000000075
 20
-0.830000000075
 11
-0.830000000075
 21
-0.830000000075
  0
ENDBLK
  8
0
  6
BYBLOCK
 62
           0
  0
BLOCK
  8
0
  2
SYM010_40
 70
          64
 10
0.0
 20
0.0
  0
LINE
  8
PKT_G
  6
CONTINUOUS
 62
           0
 10
-0.830000000075
 20
-0.830000000075
 11
-0.830000000075
 21
0.830000000075
  0
LINE
  8
PKT_G
  6
CONTINUOUS
 62
           0
 10
-0.830000000075
 20
0.830000000075
 11
0.830000000075
 21
0.830000000075
  0
LINE
  8
PKT_G
  6
CONTINUOUS
 62
           0
 10
0.830000000075
 20
0.830000000075
 11
0.830000000075
 21
-0.830000000075
  0
LINE
  8
PKT_G
  6
CONTINUOUS
 62
           0
 10
0.830000000075
 20
-0.830000000075
 11
-0.830000000075
 21
-0.830000000075
  0
ENDBLK
  8
0
  6
BYBLOCK
 62
           0
  0
BLOCK
  8
0
  2
SYM010_41
 70
          64
 10
0.0
 20
0.0
  0
LINE
  8
PKT_G
  6
CONTINUOUS
 62
           0
 10
-0.830000000075
 20
-0.830000000075
 11
-0.830000000075
 21
0.830000000075
  0
LINE
  8
PKT_G
  6
CONTINUOUS
 62
           0
 10
-0.830000000075
 20
0.830000000075
 11
0.830000000075
 21
0.830000000075
  0
LINE
  8
PKT_G
  6
CONTINUOUS
 62
           0
 10
0.830000000075
 20
0.830000000075
 11
0.830000000075
 21
-0.830000000075
  0
LINE
  8
PKT_G
  6
CONTINUOUS
 62
           0
 10
0.830000000075
 20
-0.830000000075
 11
-0.830000000075
 21
-0.830000000075
  0
ENDBLK
  8
0
  6
BYBLOCK
 62
           0
  0
BLOCK
  8
0
  2
SYM010_42
 70
          64
 10
0.0
 20
0.0
  0
LINE
  8
PKT_G
  6
CONTINUOUS
 62
           0
 10
-0.830000000075
 20
-0.830000000075
 11
-0.830000000075
 21
0.830000000075
  0
LINE
  8
PKT_G
  6
CONTINUOUS
 62
           0
 10
-0.830000000075
 20
0.830000000075
 11
0.830000000075
 21
0.830000000075
  0
LINE
  8
PKT_G
  6
CONTINUOUS
 62
           0
 10
0.830000000075
 20
0.830000000075
 11
0.830000000075
 21
-0.830000000075
  0
LINE
  8
PKT_G
  6
CONTINUOUS
 62
           0
 10
0.830000000075
 20
-0.830000000075
 11
-0.830000000075
 21
-0.830000000075
  0
ENDBLK
  8
0
  6
BYBLOCK
 62
           0
  0
BLOCK
  8
0
  2
SYM_OD013_43
 70
          64
 10
0.0
 20
0.0
  0
CIRCLE
  8
PKT_G_OD
  6
CONTINUOUS
 62
           0
 10
0.0
 20
0.0
 40
0.610000000335
  0
LINE
  8
PKT_G_OD
  6
CONTINUOUS
 62
           0
 10
0.0
 20
0.610000000335
 11
0.0
 21
0.299999999814
  0
LINE
  8
PKT_G_OD
  6
CONTINUOUS
 62
           0
 10
0.610000000335
 20
0.0
 11
0.299999999814
 21
0.0
  0
LINE
  8
PKT_G_OD
  6
CONTINUOUS
 62
           0
 10
0.0
 20
-0.610000000335
 11
0.0
 21
-0.299999999814
  0
LINE
  8
PKT_G_OD
  6
CONTINUOUS
 62
           0
 10
-0.610000000335
 20
0.0
 11
-0.299999999814
 21
0.0
  0
ENDBLK
  8
0
  6
BYBLOCK
 62
           0
  0
BLOCK
  8
0
  2
D_SYM019_44
 70
          64
 10
0.0
 20
0.0
  0
CIRCLE
  8
PKT_D
  6
CONTINUOUS
 62
           0
 10
0.0
 20
0.0
 40
0.089999999851
  0
ENDBLK
  8
0
  6
BYBLOCK
 62
           0
  0
BLOCK
  8
0
  2
D_SYM019_45
 70
          64
 10
0.0
 20
0.0
  0
CIRCLE
  8
PKT_D
  6
CONTINUOUS
 62
           0
 10
0.0
 20
0.0
 40
0.089999999851
  0
ENDBLK
  8
0
  6
BYBLOCK
 62
           0
  0
BLOCK
  8
0
  2
D_SYM019_46
 70
          64
 10
0.0
 20
0.0
  0
CIRCLE
  8
PKT_D
  6
CONTINUOUS
 62
           0
 10
0.0
 20
0.0
 40
0.089999999851
  0
ENDBLK
  8
0
  6
BYBLOCK
 62
           0
  0
BLOCK
  8
0
  2
D_SYM019_47
 70
          64
 10
0.0
 20
0.0
  0
CIRCLE
  8
PKT_D
  6
CONTINUOUS
 62
           0
 10
0.0
 20
0.0
 40
0.089999999851
  0
ENDBLK
  8
0
  6
BYBLOCK
 62
           0
  0
BLOCK
  8
0
  2
D_SYM019_48
 70
          64
 10
0.0
 20
0.0
  0
CIRCLE
  8
PKT_D
  6
CONTINUOUS
 62
           0
 10
0.0
 20
0.0
 40
0.089999999851
  0
ENDBLK
  8
0
  6
BYBLOCK
 62
           0
  0
BLOCK
  8
0
  2
D_SYM019_49
 70
          64
 10
0.0
 20
0.0
  0
CIRCLE
  8
PKT_D
  6
CONTINUOUS
 62
           0
 10
0.0
 20
0.0
 40
0.089999999851
  0
ENDBLK
  8
0
  6
BYBLOCK
 62
           0
  0
BLOCK
  8
0
  2
D_SYM019_50
 70
          64
 10
0.0
 20
0.0
  0
CIRCLE
  8
PKT_D
  6
CONTINUOUS
 62
           0
 10
0.0
 20
0.0
 40
0.089999999851
  0
ENDBLK
  8
0
  6
BYBLOCK
 62
           0
  0
BLOCK
  8
0
  2
D_SYM019_51
 70
          64
 10
0.0
 20
0.0
  0
CIRCLE
  8
PKT_D
  6
CONTINUOUS
 62
           0
 10
0.0
 20
0.0
 40
0.089999999851
  0
ENDBLK
  8
0
  6
BYBLOCK
 62
           0
  0
BLOCK
  8
0
  2
D_SYM019_52
 70
          64
 10
0.0
 20
0.0
  0
CIRCLE
  8
PKT_D
  6
CONTINUOUS
 62
           0
 10
0.0
 20
0.0
 40
0.089999999851
  0
ENDBLK
  8
0
  6
BYBLOCK
 62
           0
  0
BLOCK
  8
0
  2
SYM010_53
 70
          64
 10
0.0
 20
0.0
  0
LINE
  8
PKT_G
  6
CONTINUOUS
 62
           0
 10
-0.830000000075
 20
-0.830000000075
 11
-0.830000000075
 21
0.830000000075
  0
LINE
  8
PKT_G
  6
CONTINUOUS
 62
           0
 10
-0.830000000075
 20
0.830000000075
 11
0.830000000075
 21
0.830000000075
  0
LINE
  8
PKT_G
  6
CONTINUOUS
 62
           0
 10
0.830000000075
 20
0.830000000075
 11
0.830000000075
 21
-0.830000000075
  0
LINE
  8
PKT_G
  6
CONTINUOUS
 62
           0
 10
0.830000000075
 20
-0.830000000075
 11
-0.830000000075
 21
-0.830000000075
  0
ENDBLK
  8
0
  6
BYBLOCK
 62
           0
  0
BLOCK
  8
0
  2
SYM_OD014_54
 70
          64
 10
0.0
 20
0.0
  0
CIRCLE
  8
PKT_G_OD
  6
CONTINUOUS
 62
           0
 10
0.0
 20
0.0
 40
0.610000000335
  0
LINE
  8
PKT_G_OD
  6
CONTINUOUS
 62
           0
 10
-0.429999999702
 20
-0.429999999702
 11
-0.849999999627
 21
-0.849999999627
  0
LINE
  8
PKT_G_OD
  6
CONTINUOUS
 62
           0
 10
0.429999999702
 20
-0.429999999702
 11
0.849999999627
 21
-0.849999999627
  0
LINE
  8
PKT_G_OD
  6
CONTINUOUS
 62
           0
 10
0.429999999702
 20
0.429999999702
 11
0.849999999627
 21
0.849999999627
  0
LINE
  8
PKT_G_OD
  6
CONTINUOUS
 62
           0
 10
-0.429999999702
 20
0.429999999702
 11
-0.849999999627
 21
0.849999999627
  0
ENDBLK
  8
0
  6
BYBLOCK
 62
           0
  0
BLOCK
  8
0
  2
D_SYM019_55
 70
          64
 10
0.0
 20
0.0
  0
CIRCLE
  8
PKT_D
  6
CONTINUOUS
 62
           0
 10
0.0
 20
0.0
 40
0.089999999851
  0
ENDBLK
  8
0
  6
BYBLOCK
 62
           0
  0
BLOCK
  8
0
  2
D_SYM019_56
 70
          64
 10
0.0
 20
0.0
  0
CIRCLE
  8
PKT_D
  6
CONTINUOUS
 62
           0
 10
0.0
 20
0.0
 40
0.089999999851
  0
ENDBLK
  8
0
  6
BYBLOCK
 62
           0
  0
BLOCK
  8
0
  2
D_SYM019_57
 70
          64
 10
0.0
 20
0.0
  0
CIRCLE
  8
PKT_D
  6
CONTINUOUS
 62
           0
 10
0.0
 20
0.0
 40
0.089999999851
  0
ENDBLK
  8
0
  6
BYBLOCK
 62
           0
  0
BLOCK
  8
0
  2
D_SYM019_58
 70
          64
 10
0.0
 20
0.0
  0
CIRCLE
  8
PKT_D
  6
CONTINUOUS
 62
           0
 10
0.0
 20
0.0
 40
0.089999999851
  0
ENDBLK
  8
0
  6
BYBLOCK
 62
           0
  0
BLOCK
  8
0
  2
SYM019_59
 70
          64
 10
0.0
 20
0.0
  0
CIRCLE
  8
PKT_G
  6
CONTINUOUS
 62
           0
 10
0.0
 20
0.0
 40
0.089999999851
  0
ENDBLK
  8
0
  6
BYBLOCK
 62
           0
  0
BLOCK
  8
0
  2
SYM019_60
 70
          64
 10
0.0
 20
0.0
  0
CIRCLE
  8
PKT_G
  6
CONTINUOUS
 62
           0
 10
0.0
 20
0.0
 40
0.089999999851
  0
ENDBLK
  8
0
  6
BYBLOCK
 62
           0
  0
BLOCK
  8
0
  2
D_SYM019_61
 70
          64
 10
0.0
 20
0.0
  0
CIRCLE
  8
PKT_D
  6
CONTINUOUS
 62
           0
 10
0.0
 20
0.0
 40
0.089999999851
  0
ENDBLK
  8
0
  6
BYBLOCK
 62
           0
  0
BLOCK
  8
0
  2
D_SYM019_62
 70
          64
 10
0.0
 20
0.0
  0
CIRCLE
  8
PKT_D
  6
CONTINUOUS
 62
           0
 10
0.0
 20
0.0
 40
0.089999999851
  0
ENDBLK
  8
0
  6
BYBLOCK
 62
           0
  0
BLOCK
  8
0
  2
SYM019_63
 70
          64
 10
0.0
 20
0.0
  0
CIRCLE
  8
PKT_G
  6
CONTINUOUS
 62
           0
 10
0.0
 20
0.0
 40
0.089999999851
  0
ENDBLK
  8
0
  6
BYBLOCK
 62
           0
  0
BLOCK
  8
0
  2
SYM019_64
 70
          64
 10
0.0
 20
0.0
  0
CIRCLE
  8
PKT_G
  6
CONTINUOUS
 62
           0
 10
0.0
 20
0.0
 40
0.089999999851
  0
ENDBLK
  8
0
  6
BYBLOCK
 62
           0
  0
BLOCK
  8
0
  2
SYM019_65
 70
          64
 10
0.0
 20
0.0
  0
CIRCLE
  8
PKT_G
  6
CONTINUOUS
 62
           0
 10
0.0
 20
0.0
 40
0.089999999851
  0
ENDBLK
  8
0
  6
BYBLOCK
 62
           0
  0
BLOCK
  8
0
  2
D_SYM019_66
 70
          64
 10
0.0
 20
0.0
  0
CIRCLE
  8
PKT_D
  6
CONTINUOUS
 62
           0
 10
0.0
 20
0.0
 40
0.089999999851
  0
ENDBLK
  8
0
  6
BYBLOCK
 62
           0
  0
BLOCK
  8
0
  2
SYM019_67
 70
          64
 10
0.0
 20
0.0
  0
CIRCLE
  8
PKT_G
  6
CONTINUOUS
 62
           0
 10
0.0
 20
0.0
 40
0.089999999851
  0
ENDBLK
  8
0
  6
BYBLOCK
 62
           0
  0
BLOCK
  8
0
  2
D_SYM019_68
 70
          64
 10
0.0
 20
0.0
  0
CIRCLE
  8
PKT_D
  6
CONTINUOUS
 62
           0
 10
0.0
 20
0.0
 40
0.089999999851
  0
ENDBLK
  8
0
  6
BYBLOCK
 62
           0
  0
BLOCK
  8
0
  2
D_SYM019_69
 70
          64
 10
0.0
 20
0.0
  0
CIRCLE
  8
PKT_D
  6
CONTINUOUS
 62
           0
 10
0.0
 20
0.0
 40
0.089999999851
  0
ENDBLK
  8
0
  6
BYBLOCK
 62
           0
  0
BLOCK
  8
0
  2
D_SYM019_70
 70
          64
 10
0.0
 20
0.0
  0
CIRCLE
  8
PKT_D
  6
CONTINUOUS
 62
           0
 10
0.0
 20
0.0
 40
0.089999999851
  0
ENDBLK
  8
0
  6
BYBLOCK
 62
           0
  0
BLOCK
  8
0
  2
D_SYM019_71
 70
          64
 10
0.0
 20
0.0
  0
CIRCLE
  8
PKT_D
  6
CONTINUOUS
 62
           0
 10
0.0
 20
0.0
 40
0.089999999851
  0
ENDBLK
  8
0
  6
BYBLOCK
 62
           0
  0
BLOCK
  8
0
  2
SYM010_72
 70
          64
 10
0.0
 20
0.0
  0
LINE
  8
PKT_G
  6
CONTINUOUS
 62
           0
 10
-0.830000000075
 20
-0.830000000075
 11
-0.830000000075
 21
0.830000000075
  0
LINE
  8
PKT_G
  6
CONTINUOUS
 62
           0
 10
-0.830000000075
 20
0.830000000075
 11
0.830000000075
 21
0.830000000075
  0
LINE
  8
PKT_G
  6
CONTINUOUS
 62
           0
 10
0.830000000075
 20
0.830000000075
 11
0.830000000075
 21
-0.830000000075
  0
LINE
  8
PKT_G
  6
CONTINUOUS
 62
           0
 10
0.830000000075
 20
-0.830000000075
 11
-0.830000000075
 21
-0.830000000075
  0
ENDBLK
  8
0
  6
BYBLOCK
 62
           0
  0
BLOCK
  8
0
  2
SYM003_73
 70
          64
 10
0.0
 20
0.0
  0
CIRCLE
  8
PKT_G
  6
CONTINUOUS
 62
           0
 10
0.0
 20
0.0
 40
0.910000000149
  0
ENDBLK
  8
0
  6
BYBLOCK
 62
           0
  0
BLOCK
  8
0
  2
SYM003_74
 70
          64
 10
0.0
 20
0.0
  0
CIRCLE
  8
PKT_G
  6
CONTINUOUS
 62
           0
 10
0.0
 20
0.0
 40
0.910000000149
  0
ENDBLK
  8
0
  6
BYBLOCK
 62
           0
  0
BLOCK
  8
0
  2
SYM003_75
 70
          64
 10
0.0
 20
0.0
  0
CIRCLE
  8
PKT_G
  6
CONTINUOUS
 62
           0
 10
0.0
 20
0.0
 40
0.910000000149
  0
ENDBLK
  8
0
  6
BYBLOCK
 62
           0
  0
BLOCK
  8
0
  2
SYM_OD014_76
 70
          64
 10
0.0
 20
0.0
  0
CIRCLE
  8
PKT_G_OD
  6
CONTINUOUS
 62
           0
 10
0.0
 20
0.0
 40
0.610000000335
  0
LINE
  8
PKT_G_OD
  6
CONTINUOUS
 62
           0
 10
-0.429999999702
 20
-0.429999999702
 11
-0.849999999627
 21
-0.849999999627
  0
LINE
  8
PKT_G_OD
  6
CONTINUOUS
 62
           0
 10
0.429999999702
 20
-0.429999999702
 11
0.849999999627
 21
-0.849999999627
  0
LINE
  8
PKT_G_OD
  6
CONTINUOUS
 62
           0
 10
0.429999999702
 20
0.429999999702
 11
0.849999999627
 21
0.849999999627
  0
LINE
  8
PKT_G_OD
  6
CONTINUOUS
 62
           0
 10
-0.429999999702
 20
0.429999999702
 11
-0.849999999627
 21
0.849999999627
  0
ENDBLK
  8
0
  6
BYBLOCK
 62
           0
  0
BLOCK
  8
0
  2
PKT_NR_SYM_0_77
 70
          64
 10
0.0
 20
0.0
  0
CIRCLE
  8
PKT_NUMMER
  6
CONTINUOUS
 62
           0
 10
0.0
 20
0.0
 40
0.110000000335
  0
TEXT
  8
PKT_NUMMER
  6
CONTINUOUS
 62
           0
 10
1.0
 20
0.999999999942
 40
1.79999999993
  1
401124115583(8)
 41
0.660000000021
  7
TXT
  0
ENDBLK
  8
0
  6
BYBLOCK
 62
           0
  0
BLOCK
  8
0
  2
PKT_NR_SYM_1_78
 70
          64
 10
0.0
 20
0.0
  0
CIRCLE
  8
PKT_NUMMER
  6
CONTINUOUS
 62
           0
 10
0.0
 20
0.0
 40
0.110000000335
  0
TEXT
  8
PKT_NUMMER
  6
CONTINUOUS
 62
           0
 10
1.0
 20
0.999999999942
 40
1.79999999993
  1
401124063271(8)
 41
0.660000000021
  7
TXT
  0
ENDBLK
  8
0
  6
BYBLOCK
 62
           0
  0
BLOCK
  8
0
  2
PKT_NR_SYM_2_79
 70
          64
 10
0.0
 20
0.0
  0
CIRCLE
  8
PKT_NUMMER
  6
CONTINUOUS
 62
           0
 10
0.0
 20
0.0
 40
0.110000000335
  0
TEXT
  8
PKT_NUMMER
  6
CONTINUOUS
 62
           0
 10
1.0
 20
0.999999999942
 40
1.79999999993
  1
401124063264(8)
 41
0.660000000021
  7
TXT
  0
ENDBLK
  8
0
  6
BYBLOCK
 62
           0
  0
BLOCK
  8
0
  2
PKT_NR_SYM_3_80
 70
          64
 10
0.0
 20
0.0
  0
CIRCLE
  8
PKT_NUMMER
  6
CONTINUOUS
 62
           0
 10
0.0
 20
0.0
 40
0.110000000335
  0
TEXT
  8
PKT_NUMMER
  6
CONTINUOUS
 62
           0
 10
1.0
 20
0.999999999942
 40
1.79999999993
  1
401124063258(8)
 41
0.660000000021
  7
TXT
  0
ENDBLK
  8
0
  6
BYBLOCK
 62
           0
  0
BLOCK
  8
0
  2
PKT_NR_SYM_4_81
 70
          64
 10
0.0
 20
0.0
  0
CIRCLE
  8
PKT_NUMMER
  6
CONTINUOUS
 62
           0
 10
0.0
 20
0.0
 40
0.110000000335
  0
TEXT
  8
PKT_NUMMER
  6
CONTINUOUS
 62
           0
 10
1.0
 20
0.999999999942
 40
1.79999999993
  1
401124063257(8)
 41
0.660000000021
  7
TXT
  0
ENDBLK
  8
0
  6
BYBLOCK
 62
           0
  0
BLOCK
  8
0
  2
PKT_NR_SYM_5_82
 70
          64
 10
0.0
 20
0.0
  0
CIRCLE
  8
PKT_NUMMER
  6
CONTINUOUS
 62
           0
 10
0.0
 20
0.0
 40
0.110000000335
  0
TEXT
  8
PKT_NUMMER
  6
CONTINUOUS
 62
           0
 10
1.0
 20
0.999999999942
 40
1.79999999993
  1
401124063256(8)
 41
0.660000000021
  7
TXT
  0
ENDBLK
  8
0
  6
BYBLOCK
 62
           0
  0
BLOCK
  8
0
  2
PKT_NR_SYM_6_83
 70
          64
 10
0.0
 20
0.0
  0
CIRCLE
  8
PKT_NUMMER
  6
CONTINUOUS
 62
           0
 10
0.0
 20
0.0
 40
0.110000000335
  0
TEXT
  8
PKT_NUMMER
  6
CONTINUOUS
 62
           0
 10
1.0
 20
0.999999999942
 40
1.79999999993
  1
401124063255(8)
 41
0.660000000021
  7
TXT
  0
ENDBLK
  8
0
  6
BYBLOCK
 62
           0
  0
BLOCK
  8
0
  2
PKT_NR_SYM_7_84
 70
          64
 10
0.0
 20
0.0
  0
CIRCLE
  8
PKT_NUMMER
  6
CONTINUOUS
 62
           0
 10
0.0
 20
0.0
 40
0.110000000335
  0
TEXT
  8
PKT_NUMMER
  6
CONTINUOUS
 62
           0
 10
1.0
 20
0.999999999942
 40
1.79999999993
  1
401124067130(8)
 41
0.660000000021
  7
TXT
  0
ENDBLK
  8
0
  6
BYBLOCK
 62
           0
  0
BLOCK
  8
0
  2
PKT_NR_SYM_8_85
 70
          64
 10
0.0
 20
0.0
  0
CIRCLE
  8
PKT_NUMMER
  6
CONTINUOUS
 62
           0
 10
0.0
 20
0.0
 40
0.110000000335
  0
TEXT
  8
PKT_NUMMER
  6
CONTINUOUS
 62
           0
 10
1.0
 20
0.999999999942
 40
1.79999999993
  1
401124067129(8)
 41
0.660000000021
  7
TXT
  0
ENDBLK
  8
0
  6
BYBLOCK
 62
           0
  0
BLOCK
  8
0
  2
PKT_NR_SYM_9_86
 70
          64
 10
0.0
 20
0.0
  0
CIRCLE
  8
PKT_NUMMER
  6
CONTINUOUS
 62
           0
 10
0.0
 20
0.0
 40
0.110000000335
  0
TEXT
  8
PKT_NUMMER
  6
CONTINUOUS
 62
           0
 10
1.0
 20
0.999999999942
 40
1.79999999993
  1
401124067128(8)
 41
0.660000000021
  7
TXT
  0
ENDBLK
  8
0
  6
BYBLOCK
 62
           0
  0
BLOCK
  8
0
  2
PKT_NR_SYM_10_87
 70
          64
 10
0.0
 20
0.0
  0
CIRCLE
  8
PKT_NUMMER
  6
CONTINUOUS
 62
           0
 10
0.0
 20
0.0
 40
0.110000000335
  0
TEXT
  8
PKT_NUMMER
  6
CONTINUOUS
 62
           0
 10
1.0
 20
0.999999999942
 40
1.79999999993
  1
401124067127(8)
 41
0.660000000021
  7
TXT
  0
ENDBLK
  8
0
  6
BYBLOCK
 62
           0
  0
BLOCK
  8
0
  2
PKT_NR_SYM_11_88
 70
          64
 10
0.0
 20
0.0
  0
CIRCLE
  8
PKT_NUMMER
  6
CONTINUOUS
 62
           0
 10
0.0
 20
0.0
 40
0.110000000335
  0
TEXT
  8
PKT_NUMMER
  6
CONTINUOUS
 62
           0
 10
1.0
 20
0.999999999942
 40
1.79999999993
  1
401124066863(8)
 41
0.660000000021
  7
TXT
  0
ENDBLK
  8
0
  6
BYBLOCK
 62
           0
  0
BLOCK
  8
0
  2
PKT_NR_SYM_12_89
 70
          64
 10
0.0
 20
0.0
  0
CIRCLE
  8
PKT_NUMMER
  6
CONTINUOUS
 62
           0
 10
0.0
 20
0.0
 40
0.110000000335
  0
TEXT
  8
PKT_NUMMER
  6
CONTINUOUS
 62
           0
 10
1.0
 20
0.999999999942
 40
1.79999999993
  1
401124066862(8)
 41
0.660000000021
  7
TXT
  0
ENDBLK
  8
0
  6
BYBLOCK
 62
           0
  0
BLOCK
  8
0
  2
PKT_NR_SYM_13_90
 70
          64
 10
0.0
 20
0.0
  0
CIRCLE
  8
PKT_NUMMER
  6
CONTINUOUS
 62
           0
 10
0.0
 20
0.0
 40
0.110000000335
  0
TEXT
  8
PKT_NUMMER
  6
CONTINUOUS
 62
           0
 10
1.0
 20
0.999999999942
 40
1.79999999993
  1
401124066473(8)
 41
0.660000000021
  7
TXT
  0
ENDBLK
  8
0
  6
BYBLOCK
 62
           0
  0
BLOCK
  8
0
  2
PKT_NR_SYM_14_91
 70
          64
 10
0.0
 20
0.0
  0
CIRCLE
  8
PKT_NUMMER
  6
CONTINUOUS
 62
           0
 10
0.0
 20
0.0
 40
0.110000000335
  0
TEXT
  8
PKT_NUMMER
  6
CONTINUOUS
 62
           0
 10
1.0
 20
0.999999999942
 40
1.79999999993
  1
401124066472(8)
 41
0.660000000021
  7
TXT
  0
ENDBLK
  8
0
  6
BYBLOCK
 62
           0
  0
BLOCK
  8
0
  2
PKT_NR_SYM_15_92
 70
          64
 10
0.0
 20
0.0
  0
CIRCLE
  8
PKT_NUMMER
  6
CONTINUOUS
 62
           0
 10
0.0
 20
0.0
 40
0.110000000335
  0
TEXT
  8
PKT_NUMMER
  6
CONTINUOUS
 62
           0
 10
1.0
 20
0.999999999942
 40
1.79999999993
  1
401124066471(8)
 41
0.660000000021
  7
TXT
  0
ENDBLK
  8
0
  6
BYBLOCK
 62
           0
  0
BLOCK
  8
0
  2
PKT_NR_SYM_16_93
 70
          64
 10
0.0
 20
0.0
  0
CIRCLE
  8
PKT_NUMMER
  6
CONTINUOUS
 62
           0
 10
0.0
 20
0.0
 40
0.110000000335
  0
TEXT
  8
PKT_NUMMER
  6
CONTINUOUS
 62
           0
 10
1.0
 20
0.999999999942
 40
1.79999999993
  1
401124060029(8)
 41
0.660000000021
  7
TXT
  0
ENDBLK
  8
0
  6
BYBLOCK
 62
           0
  0
BLOCK
  8
0
  2
PKT_NR_SYM_17_94
 70
          64
 10
0.0
 20
0.0
  0
CIRCLE
  8
PKT_NUMMER
  6
CONTINUOUS
 62
           0
 10
0.0
 20
0.0
 40
0.110000000335
  0
TEXT
  8
PKT_NUMMER
  6
CONTINUOUS
 62
           0
 10
1.0
 20
0.999999999942
 40
1.79999999993
  1
401124060028(8)
 41
0.660000000021
  7
TXT
  0
ENDBLK
  8
0
  6
BYBLOCK
 62
           0
  0
BLOCK
  8
0
  2
PKT_NR_SYM_18_95
 70
          64
 10
0.0
 20
0.0
  0
CIRCLE
  8
PKT_NUMMER
  6
CONTINUOUS
 62
           0
 10
0.0
 20
0.0
 40
0.110000000335
  0
TEXT
  8
PKT_NUMMER
  6
CONTINUOUS
 62
           0
 10
1.0
 20
0.999999999942
 40
1.79999999993
  1
401124060027(8)
 41
0.660000000021
  7
TXT
  0
ENDBLK
  8
0
  6
BYBLOCK
 62
           0
  0
BLOCK
  8
0
  2
PKT_NR_SYM_19_96
 70
          64
 10
0.0
 20
0.0
  0
CIRCLE
  8
PKT_NUMMER
  6
CONTINUOUS
 62
           0
 10
0.0
 20
0.0
 40
0.110000000335
  0
TEXT
  8
PKT_NUMMER
  6
CONTINUOUS
 62
           0
 10
1.0
 20
0.999999999942
 40
1.79999999993
  1
401124060024(8)
 41
0.660000000021
  7
TXT
  0
ENDBLK
  8
0
  6
BYBLOCK
 62
           0
  0
BLOCK
  8
0
  2
PKT_NR_SYM_20_97
 70
          64
 10
0.0
 20
0.0
  0
CIRCLE
  8
PKT_NUMMER
  6
CONTINUOUS
 62
           0
 10
0.0
 20
0.0
 40
0.110000000335
  0
TEXT
  8
PKT_NUMMER
  6
CONTINUOUS
 62
           0
 10
1.0
 20
0.999999999942
 40
1.79999999993
  1
401124060018(8)
 41
0.660000000021
  7
TXT
  0
ENDBLK
  8
0
  6
BYBLOCK
 62
           0
  0
BLOCK
  8
0
  2
PKT_NR_SYM_21_98
 70
          64
 10
0.0
 20
0.0
  0
CIRCLE
  8
PKT_NUMMER
  6
CONTINUOUS
 62
           0
 10
0.0
 20
0.0
 40
0.110000000335
  0
TEXT
  8
PKT_NUMMER
  6
CONTINUOUS
 62
           0
 10
1.0
 20
0.999999999942
 40
1.79999999993
  1
401124060017(8)
 41
0.660000000021
  7
TXT
  0
ENDBLK
  8
0
  6
BYBLOCK
 62
           0
  0
BLOCK
  8
0
  2
PKT_NR_SYM_22_99
 70
          64
 10
0.0
 20
0.0
  0
CIRCLE
  8
PKT_NUMMER
  6
CONTINUOUS
 62
           0
 10
0.0
 20
0.0
 40
0.110000000335
  0
TEXT
  8
PKT_NUMMER
  6
CONTINUOUS
 62
           0
 10
1.0
 20
0.999999999942
 40
1.79999999993
  1
401124060016(8)
 41
0.660000000021
  7
TXT
  0
ENDBLK
  8
0
  6
BYBLOCK
 62
           0
  0
BLOCK
  8
0
  2
PKT_NR_SYM_23_100
 70
          64
 10
0.0
 20
0.0
  0
CIRCLE
  8
PKT_NUMMER
  6
CONTINUOUS
 62
           0
 10
0.0
 20
0.0
 40
0.110000000335
  0
TEXT
  8
PKT_NUMMER
  6
CONTINUOUS
 62
           0
 10
1.0
 20
0.999999999942
 40
1.79999999993
  1
401124060015(8)
 41
0.660000000021
  7
TXT
  0
ENDBLK
  8
0
  6
BYBLOCK
 62
           0
  0
BLOCK
  8
0
  2
PKT_NR_SYM_24_101
 70
          64
 10
0.0
 20
0.0
  0
CIRCLE
  8
PKT_NUMMER
  6
CONTINUOUS
 62
           0
 10
0.0
 20
0.0
 40
0.110000000335
  0
TEXT
  8
PKT_NUMMER
  6
CONTINUOUS
 62
           0
 10
1.0
 20
0.999999999942
 40
1.79999999993
  1
401124060014(8)
 41
0.660000000021
  7
TXT
  0
ENDBLK
  8
0
  6
BYBLOCK
 62
           0
  0
BLOCK
  8
0
  2
PKT_NR_SYM_25_102
 70
          64
 10
0.0
 20
0.0
  0
CIRCLE
  8
PKT_NUMMER
  6
CONTINUOUS
 62
           0
 10
0.0
 20
0.0
 40
0.110000000335
  0
TEXT
  8
PKT_NUMMER
  6
CONTINUOUS
 62
           0
 10
1.0
 20
0.999999999942
 40
1.79999999993
  1
401124060013(8)
 41
0.660000000021
  7
TXT
  0
ENDBLK
  8
0
  6
BYBLOCK
 62
           0
  0
BLOCK
  8
0
  2
PKT_NR_SYM_26_103
 70
          64
 10
0.0
 20
0.0
  0
CIRCLE
  8
PKT_NUMMER
  6
CONTINUOUS
 62
           0
 10
0.0
 20
0.0
 40
0.110000000335
  0
TEXT
  8
PKT_NUMMER
  6
CONTINUOUS
 62
           0
 10
1.0
 20
0.999999999942
 40
1.79999999993
  1
401124060012(8)
 41
0.660000000021
  7
TXT
  0
ENDBLK
  8
0
  6
BYBLOCK
 62
           0
  0
BLOCK
  8
0
  2
PKT_NR_SYM_27_104
 70
          64
 10
0.0
 20
0.0
  0
CIRCLE
  8
PKT_NUMMER
  6
CONTINUOUS
 62
           0
 10
0.0
 20
0.0
 40
0.110000000335
  0
TEXT
  8
PKT_NUMMER
  6
CONTINUOUS
 62
           0
 10
1.0
 20
0.999999999942
 40
1.79999999993
  1
401124060011(8)
 41
0.660000000021
  7
TXT
  0
ENDBLK
  8
0
  6
BYBLOCK
 62
           0
  0
BLOCK
  8
0
  2
PKT_NR_SYM_28_105
 70
          64
 10
0.0
 20
0.0
  0
CIRCLE
  8
PKT_NUMMER
  6
CONTINUOUS
 62
           0
 10
0.0
 20
0.0
 40
0.110000000335
  0
TEXT
  8
PKT_NUMMER
  6
CONTINUOUS
 62
           0
 10
1.0
 20
0.999999999942
 40
1.79999999993
  1
401124060010(8)
 41
0.660000000021
  7
TXT
  0
ENDBLK
  8
0
  6
BYBLOCK
 62
           0
  0
BLOCK
  8
0
  2
PKT_NR_SYM_29_106
 70
          64
 10
0.0
 20
0.0
  0
CIRCLE
  8
PKT_NUMMER
  6
CONTINUOUS
 62
           0
 10
0.0
 20
0.0
 40
0.110000000335
  0
TEXT
  8
PKT_NUMMER
  6
CONTINUOUS
 62
           0
 10
1.0
 20
0.999999999942
 40
1.79999999993
  1
401124063259(8)
 41
0.660000000021
  7
TXT
  0
ENDBLK
  8
0
  6
BYBLOCK
 62
           0
  0
BLOCK
  8
0
  2
PKT_NR_SYM_30_107
 70
          64
 10
0.0
 20
0.0
  0
CIRCLE
  8
PKT_NUMMER
  6
CONTINUOUS
 62
           0
 10
0.0
 20
0.0
 40
0.110000000335
  0
TEXT
  8
PKT_NUMMER
  6
CONTINUOUS
 62
           0
 10
1.0
 20
0.999999999942
 40
1.79999999993
  1
401124063145(8)
 41
0.660000000021
  7
TXT
  0
ENDBLK
  8
0
  6
BYBLOCK
 62
           0
  0
BLOCK
  8
0
  2
PKT_NR_SYM_31_108
 70
          64
 10
0.0
 20
0.0
  0
CIRCLE
  8
PKT_NUMMER
  6
CONTINUOUS
 62
           0
 10
0.0
 20
0.0
 40
0.110000000335
  0
TEXT
  8
PKT_NUMMER
  6
CONTINUOUS
 62
           0
 10
1.0
 20
0.999999999942
 40
1.79999999993
  1
401124063144(8)
 41
0.660000000021
  7
TXT
  0
ENDBLK
  8
0
  6
BYBLOCK
 62
           0
  0
BLOCK
  8
0
  2
PKT_NR_SYM_32_109
 70
          64
 10
0.0
 20
0.0
  0
CIRCLE
  8
PKT_NUMMER
  6
CONTINUOUS
 62
           0
 10
0.0
 20
0.0
 40
0.110000000335
  0
TEXT
  8
PKT_NUMMER
  6
CONTINUOUS
 62
           0
 10
1.0
 20
0.999999999942
 40
1.79999999993
  1
401124063141(8)
 41
0.660000000021
  7
TXT
  0
ENDBLK
  8
0
  6
BYBLOCK
 62
           0
  0
BLOCK
  8
0
  2
PKT_NR_SYM_33_110
 70
          64
 10
0.0
 20
0.0
  0
CIRCLE
  8
PKT_NUMMER
  6
CONTINUOUS
 62
           0
 10
0.0
 20
0.0
 40
0.110000000335
  0
TEXT
  8
PKT_NUMMER
  6
CONTINUOUS
 62
           0
 10
1.0
 20
0.999999999942
 40
1.79999999993
  1
401124063139(8)
 41
0.660000000021
  7
TXT
  0
ENDBLK
  8
0
  6
BYBLOCK
 62
           0
  0
BLOCK
  8
0
  2
PKT_NR_SYM_34_111
 70
          64
 10
0.0
 20
0.0
  0
CIRCLE
  8
PKT_NUMMER
  6
CONTINUOUS
 62
           0
 10
0.0
 20
0.0
 40
0.110000000335
  0
TEXT
  8
PKT_NUMMER
  6
CONTINUOUS
 62
           0
 10
1.0
 20
0.999999999942
 40
1.79999999993
  1
401124066474(8)
 41
0.660000000021
  7
TXT
  0
ENDBLK
  8
0
  6
BYBLOCK
 62
           0
  0
BLOCK
  8
0
  2
PKT_NR_SYM_35_112
 70
          64
 10
0.0
 20
0.0
  0
CIRCLE
  8
PKT_NUMMER
  6
CONTINUOUS
 62
           0
 10
0.0
 20
0.0
 40
0.110000000335
  0
TEXT
  8
PKT_NUMMER
  6
CONTINUOUS
 62
           0
 10
1.0
 20
0.999999999942
 40
1.79999999993
  1
401124066465(8)
 41
0.660000000021
  7
TXT
  0
ENDBLK
  8
0
  6
BYBLOCK
 62
           0
  0
BLOCK
  8
0
  2
PKT_NR_SYM_36_113
 70
          64
 10
0.0
 20
0.0
  0
CIRCLE
  8
PKT_NUMMER
  6
CONTINUOUS
 62
           0
 10
0.0
 20
0.0
 40
0.110000000335
  0
TEXT
  8
PKT_NUMMER
  6
CONTINUOUS
 62
           0
 10
1.0
 20
0.999999999942
 40
1.79999999993
  1
401124066464(8)
 41
0.660000000021
  7
TXT
  0
ENDBLK
  8
0
  6
BYBLOCK
 62
           0
  0
BLOCK
  8
0
  2
PKT_NR_SYM_37_114
 70
          64
 10
0.0
 20
0.0
  0
CIRCLE
  8
PKT_NUMMER
  6
CONTINUOUS
 62
           0
 10
0.0
 20
0.0
 40
0.110000000335
  0
TEXT
  8
PKT_NUMMER
  6
CONTINUOUS
 62
           0
 10
1.0
 20
0.999999999942
 40
1.79999999993
  1
401124066475(8)
 41
0.660000000021
  7
TXT
  0
ENDBLK
  8
0
  6
BYBLOCK
 62
           0
  0
BLOCK
  8
0
  2
PKT_NR_SYM_38_115
 70
          64
 10
0.0
 20
0.0
  0
CIRCLE
  8
PKT_NUMMER
  6
CONTINUOUS
 62
           0
 10
0.0
 20
0.0
 40
0.110000000335
  0
TEXT
  8
PKT_NUMMER
  6
CONTINUOUS
 62
           0
 10
1.0
 20
0.999999999942
 40
1.79999999993
  1
401124065969(8)
 41
0.660000000021
  7
TXT
  0
ENDBLK
  8
0
  6
BYBLOCK
 62
           0
  0
BLOCK
  8
0
  2
PKT_NR_SYM_39_116
 70
          64
 10
0.0
 20
0.0
  0
CIRCLE
  8
PKT_NUMMER
  6
CONTINUOUS
 62
           0
 10
0.0
 20
0.0
 40
0.110000000335
  0
TEXT
  8
PKT_NUMMER
  6
CONTINUOUS
 62
           0
 10
1.0
 20
0.999999999942
 40
1.79999999993
  1
401124065968(8)
 41
0.660000000021
  7
TXT
  0
ENDBLK
  8
0
  6
BYBLOCK
 62
           0
  0
BLOCK
  8
0
  2
PKT_NR_SYM_40_117
 70
          64
 10
0.0
 20
0.0
  0
CIRCLE
  8
PKT_NUMMER
  6
CONTINUOUS
 62
           0
 10
0.0
 20
0.0
 40
0.110000000335
  0
TEXT
  8
PKT_NUMMER
  6
CONTINUOUS
 62
           0
 10
1.0
 20
0.999999999942
 40
1.79999999993
  1
401124065967(8)
 41
0.660000000021
  7
TXT
  0
ENDBLK
  8
0
  6
BYBLOCK
 62
           0
  0
BLOCK
  8
0
  2
PKT_NR_SYM_41_118
 70
          64
 10
0.0
 20
0.0
  0
CIRCLE
  8
PKT_NUMMER
  6
CONTINUOUS
 62
           0
 10
0.0
 20
0.0
 40
0.110000000335
  0
TEXT
  8
PKT_NUMMER
  6
CONTINUOUS
 62
           0
 10
1.0
 20
0.999999999942
 40
1.79999999993
  1
401124065966(8)
 41
0.660000000021
  7
TXT
  0
ENDBLK
  8
0
  6
BYBLOCK
 62
           0
  0
BLOCK
  8
0
  2
PKT_NR_SYM_42_119
 70
          64
 10
0.0
 20
0.0
  0
CIRCLE
  8
PKT_NUMMER
  6
CONTINUOUS
 62
           0
 10
0.0
 20
0.0
 40
0.110000000335
  0
TEXT
  8
PKT_NUMMER
  6
CONTINUOUS
 62
           0
 10
1.0
 20
0.999999999942
 40
1.79999999993
  1
401124066469(8)
 41
0.660000000021
  7
TXT
  0
ENDBLK
  8
0
  6
BYBLOCK
 62
           0
  0
BLOCK
  8
0
  2
PKT_NR_SYM_43_120
 70
          64
 10
0.0
 20
0.0
  0
CIRCLE
  8
PKT_NUMMER
  6
CONTINUOUS
 62
           0
 10
0.0
 20
0.0
 40
0.110000000335
  0
TEXT
  8
PKT_NUMMER
  6
CONTINUOUS
 62
           0
 10
1.0
 20
0.999999999942
 40
1.79999999993
  1
401124060066(5)
 41
0.660000000021
  7
TXT
  0
ENDBLK
  8
0
  6
BYBLOCK
 62
           0
  0
BLOCK
  8
0
  2
PKT_NR_SYM_44_121
 70
          64
 10
0.0
 20
0.0
  0
CIRCLE
  8
PKT_NUMMER
  6
CONTINUOUS
 62
           0
 10
0.0
 20
0.0
 40
0.110000000335
  0
TEXT
  8
PKT_NUMMER
  6
CONTINUOUS
 62
           0
 10
1.0
 20
0.999999999942
 40
1.79999999993
  1
401124060065(5)
 41
0.660000000021
  7
TXT
  0
ENDBLK
  8
0
  6
BYBLOCK
 62
           0
  0
BLOCK
  8
0
  2
PKT_NR_SYM_45_122
 70
          64
 10
0.0
 20
0.0
  0
CIRCLE
  8
PKT_NUMMER
  6
CONTINUOUS
 62
           0
 10
0.0
 20
0.0
 40
0.110000000335
  0
TEXT
  8
PKT_NUMMER
  6
CONTINUOUS
 62
           0
 10
1.0
 20
0.999999999942
 40
1.79999999993
  1
401124060064(5)
 41
0.660000000021
  7
TXT
  0
ENDBLK
  8
0
  6
BYBLOCK
 62
           0
  0
BLOCK
  8
0
  2
PKT_NR_SYM_46_123
 70
          64
 10
0.0
 20
0.0
  0
CIRCLE
  8
PKT_NUMMER
  6
CONTINUOUS
 62
           0
 10
0.0
 20
0.0
 40
0.110000000335
  0
TEXT
  8
PKT_NUMMER
  6
CONTINUOUS
 62
           0
 10
1.0
 20
0.999999999942
 40
1.79999999993
  1
401124060063(5)
 41
0.660000000021
  7
TXT
  0
ENDBLK
  8
0
  6
BYBLOCK
 62
           0
  0
BLOCK
  8
0
  2
PKT_NR_SYM_47_124
 70
          64
 10
0.0
 20
0.0
  0
CIRCLE
  8
PKT_NUMMER
  6
CONTINUOUS
 62
           0
 10
0.0
 20
0.0
 40
0.110000000335
  0
TEXT
  8
PKT_NUMMER
  6
CONTINUOUS
 62
           0
 10
1.0
 20
0.999999999942
 40
1.79999999993
  1
401124060062(5)
 41
0.660000000021
  7
TXT
  0
ENDBLK
  8
0
  6
BYBLOCK
 62
           0
  0
BLOCK
  8
0
  2
PKT_NR_SYM_48_125
 70
          64
 10
0.0
 20
0.0
  0
CIRCLE
  8
PKT_NUMMER
  6
CONTINUOUS
 62
           0
 10
0.0
 20
0.0
 40
0.110000000335
  0
TEXT
  8
PKT_NUMMER
  6
CONTINUOUS
 62
           0
 10
1.0
 20
0.999999999942
 40
1.79999999993
  1
401124060061(5)
 41
0.660000000021
  7
TXT
  0
ENDBLK
  8
0
  6
BYBLOCK
 62
           0
  0
BLOCK
  8
0
  2
PKT_NR_SYM_49_126
 70
          64
 10
0.0
 20
0.0
  0
CIRCLE
  8
PKT_NUMMER
  6
CONTINUOUS
 62
           0
 10
0.0
 20
0.0
 40
0.110000000335
  0
TEXT
  8
PKT_NUMMER
  6
CONTINUOUS
 62
           0
 10
1.0
 20
0.999999999942
 40
1.79999999993
  1
401124060060(5)
 41
0.660000000021
  7
TXT
  0
ENDBLK
  8
0
  6
BYBLOCK
 62
           0
  0
BLOCK
  8
0
  2
PKT_NR_SYM_50_127
 70
          64
 10
0.0
 20
0.0
  0
CIRCLE
  8
PKT_NUMMER
  6
CONTINUOUS
 62
           0
 10
0.0
 20
0.0
 40
0.110000000335
  0
TEXT
  8
PKT_NUMMER
  6
CONTINUOUS
 62
           0
 10
1.0
 20
0.999999999942
 40
1.79999999993
  1
401124060059(5)
 41
0.660000000021
  7
TXT
  0
ENDBLK
  8
0
  6
BYBLOCK
 62
           0
  0
BLOCK
  8
0
  2
PKT_NR_SYM_51_128
 70
          64
 10
0.0
 20
0.0
  0
CIRCLE
  8
PKT_NUMMER
  6
CONTINUOUS
 62
           0
 10
0.0
 20
0.0
 40
0.110000000335
  0
TEXT
  8
PKT_NUMMER
  6
CONTINUOUS
 62
           0
 10
1.0
 20
0.999999999942
 40
1.79999999993
  1
401124060058(5)
 41
0.660000000021
  7
TXT
  0
ENDBLK
  8
0
  6
BYBLOCK
 62
           0
  0
BLOCK
  8
0
  2
PKT_NR_SYM_52_129
 70
          64
 10
0.0
 20
0.0
  0
CIRCLE
  8
PKT_NUMMER
  6
CONTINUOUS
 62
           0
 10
0.0
 20
0.0
 40
0.110000000335
  0
TEXT
  8
PKT_NUMMER
  6
CONTINUOUS
 62
           0
 10
1.0
 20
0.999999999942
 40
1.79999999993
  1
401124060118(8)
 41
0.660000000021
  7
TXT
  0
ENDBLK
  8
0
  6
BYBLOCK
 62
           0
  0
BLOCK
  8
0
  2
PKT_NR_SYM_53_130
 70
          64
 10
0.0
 20
0.0
  0
CIRCLE
  8
PKT_NUMMER
  6
CONTINUOUS
 62
           0
 10
0.0
 20
0.0
 40
0.110000000335
  0
TEXT
  8
PKT_NUMMER
  6
CONTINUOUS
 62
           0
 10
1.0
 20
0.999999999942
 40
1.79999999993
  1
401124060117(8)
 41
0.660000000021
  7
TXT
  0
ENDBLK
  8
0
  6
BYBLOCK
 62
           0
  0
BLOCK
  8
0
  2
PKT_NR_SYM_54_131
 70
          64
 10
0.0
 20
0.0
  0
CIRCLE
  8
PKT_NUMMER
  6
CONTINUOUS
 62
           0
 10
0.0
 20
0.0
 40
0.110000000335
  0
TEXT
  8
PKT_NUMMER
  6
CONTINUOUS
 62
           0
 10
1.0
 20
0.999999999942
 40
1.79999999993
  1
401124060035(5)
 41
0.660000000021
  7
TXT
  0
ENDBLK
  8
0
  6
BYBLOCK
 62
           0
  0
BLOCK
  8
0
  2
PKT_NR_SYM_55_132
 70
          64
 10
0.0
 20
0.0
  0
CIRCLE
  8
PKT_NUMMER
  6
CONTINUOUS
 62
           0
 10
0.0
 20
0.0
 40
0.110000000335
  0
TEXT
  8
PKT_NUMMER
  6
CONTINUOUS
 62
           0
 10
1.0
 20
0.999999999942
 40
1.79999999993
  1
401124060036(5)
 41
0.660000000021
  7
TXT
  0
ENDBLK
  8
0
  6
BYBLOCK
 62
           0
  0
BLOCK
  8
0
  2
PKT_NR_SYM_56_133
 70
          64
 10
0.0
 20
0.0
  0
CIRCLE
  8
PKT_NUMMER
  6
CONTINUOUS
 62
           0
 10
0.0
 20
0.0
 40
0.110000000335
  0
TEXT
  8
PKT_NUMMER
  6
CONTINUOUS
 62
           0
 10
1.0
 20
0.999999999942
 40
1.79999999993
  1
401124060037(5)
 41
0.660000000021
  7
TXT
  0
ENDBLK
  8
0
  6
BYBLOCK
 62
           0
  0
BLOCK
  8
0
  2
PKT_NR_SYM_57_134
 70
          64
 10
0.0
 20
0.0
  0
CIRCLE
  8
PKT_NUMMER
  6
CONTINUOUS
 62
           0
 10
0.0
 20
0.0
 40
0.110000000335
  0
TEXT
  8
PKT_NUMMER
  6
CONTINUOUS
 62
           0
 10
1.0
 20
0.999999999942
 40
1.79999999993
  1
401124060038(5)
 41
0.660000000021
  7
TXT
  0
ENDBLK
  8
0
  6
BYBLOCK
 62
           0
  0
BLOCK
  8
0
  2
PKT_NR_SYM_58_135
 70
          64
 10
0.0
 20
0.0
  0
CIRCLE
  8
PKT_NUMMER
  6
CONTINUOUS
 62
           0
 10
0.0
 20
0.0
 40
0.110000000335
  0
TEXT
  8
PKT_NUMMER
  6
CONTINUOUS
 62
           0
 10
1.0
 20
0.999999999942
 40
1.79999999993
  1
401124060145(8)
 41
0.660000000021
  7
TXT
  0
ENDBLK
  8
0
  6
BYBLOCK
 62
           0
  0
BLOCK
  8
0
  2
PKT_NR_SYM_59_136
 70
          64
 10
0.0
 20
0.0
  0
CIRCLE
  8
PKT_NUMMER
  6
CONTINUOUS
 62
           0
 10
0.0
 20
0.0
 40
0.110000000335
  0
TEXT
  8
PKT_NUMMER
  6
CONTINUOUS
 62
           0
 10
1.0
 20
0.999999999942
 40
1.79999999993
  1
401124060144(8)
 41
0.660000000021
  7
TXT
  0
ENDBLK
  8
0
  6
BYBLOCK
 62
           0
  0
BLOCK
  8
0
  2
PKT_NR_SYM_60_137
 70
          64
 10
0.0
 20
0.0
  0
CIRCLE
  8
PKT_NUMMER
  6
CONTINUOUS
 62
           0
 10
0.0
 20
0.0
 40
0.110000000335
  0
TEXT
  8
PKT_NUMMER
  6
CONTINUOUS
 62
           0
 10
1.0
 20
0.999999999942
 40
1.79999999993
  1
401124060094(5)
 41
0.660000000021
  7
TXT
  0
ENDBLK
  8
0
  6
BYBLOCK
 62
           0
  0
BLOCK
  8
0
  2
PKT_NR_SYM_61_138
 70
          64
 10
0.0
 20
0.0
  0
CIRCLE
  8
PKT_NUMMER
  6
CONTINUOUS
 62
           0
 10
0.0
 20
0.0
 40
0.110000000335
  0
TEXT
  8
PKT_NUMMER
  6
CONTINUOUS
 62
           0
 10
1.0
 20
0.999999999942
 40
1.79999999993
  1
401124060093(5)
 41
0.660000000021
  7
TXT
  0
ENDBLK
  8
0
  6
BYBLOCK
 62
           0
  0
BLOCK
  8
0
  2
PKT_NR_SYM_62_139
 70
          64
 10
0.0
 20
0.0
  0
CIRCLE
  8
PKT_NUMMER
  6
CONTINUOUS
 62
           0
 10
0.0
 20
0.0
 40
0.110000000335
  0
TEXT
  8
PKT_NUMMER
  6
CONTINUOUS
 62
           0
 10
1.0
 20
0.999999999942
 40
1.79999999993
  1
401124060268(8)
 41
0.660000000021
  7
TXT
  0
ENDBLK
  8
0
  6
BYBLOCK
 62
           0
  0
BLOCK
  8
0
  2
PKT_NR_SYM_63_140
 70
          64
 10
0.0
 20
0.0
  0
CIRCLE
  8
PKT_NUMMER
  6
CONTINUOUS
 62
           0
 10
0.0
 20
0.0
 40
0.110000000335
  0
TEXT
  8
PKT_NUMMER
  6
CONTINUOUS
 62
           0
 10
1.0
 20
0.999999999942
 40
1.79999999993
  1
401124060265(8)
 41
0.660000000021
  7
TXT
  0
ENDBLK
  8
0
  6
BYBLOCK
 62
           0
  0
BLOCK
  8
0
  2
PKT_NR_SYM_64_141
 70
          64
 10
0.0
 20
0.0
  0
CIRCLE
  8
PKT_NUMMER
  6
CONTINUOUS
 62
           0
 10
0.0
 20
0.0
 40
0.110000000335
  0
TEXT
  8
PKT_NUMMER
  6
CONTINUOUS
 62
           0
 10
1.0
 20
0.999999999942
 40
1.79999999993
  1
401124060264(8)
 41
0.660000000021
  7
TXT
  0
ENDBLK
  8
0
  6
BYBLOCK
 62
           0
  0
BLOCK
  8
0
  2
PKT_NR_SYM_65_142
 70
          64
 10
0.0
 20
0.0
  0
CIRCLE
  8
PKT_NUMMER
  6
CONTINUOUS
 62
           0
 10
0.0
 20
0.0
 40
0.110000000335
  0
TEXT
  8
PKT_NUMMER
  6
CONTINUOUS
 62
           0
 10
1.0
 20
0.999999999942
 40
1.79999999993
  1
401124060188(5)
 41
0.660000000021
  7
TXT
  0
ENDBLK
  8
0
  6
BYBLOCK
 62
           0
  0
BLOCK
  8
0
  2
PKT_NR_SYM_66_143
 70
          64
 10
0.0
 20
0.0
  0
CIRCLE
  8
PKT_NUMMER
  6
CONTINUOUS
 62
           0
 10
0.0
 20
0.0
 40
0.110000000335
  0
TEXT
  8
PKT_NUMMER
  6
CONTINUOUS
 62
           0
 10
1.0
 20
0.999999999942
 40
1.79999999993
  1
401124060167(8)
 41
0.660000000021
  7
TXT
  0
ENDBLK
  8
0
  6
BYBLOCK
 62
           0
  0
BLOCK
  8
0
  2
PKT_NR_SYM_67_144
 70
          64
 10
0.0
 20
0.0
  0
CIRCLE
  8
PKT_NUMMER
  6
CONTINUOUS
 62
           0
 10
0.0
 20
0.0
 40
0.110000000335
  0
TEXT
  8
PKT_NUMMER
  6
CONTINUOUS
 62
           0
 10
1.0
 20
0.999999999942
 40
1.79999999993
  1
401124060049(5)
 41
0.660000000021
  7
TXT
  0
ENDBLK
  8
0
  6
BYBLOCK
 62
           0
  0
BLOCK
  8
0
  2
PKT_NR_SYM_68_145
 70
          64
 10
0.0
 20
0.0
  0
CIRCLE
  8
PKT_NUMMER
  6
CONTINUOUS
 62
           0
 10
0.0
 20
0.0
 40
0.110000000335
  0
TEXT
  8
PKT_NUMMER
  6
CONTINUOUS
 62
           0
 10
1.0
 20
0.999999999942
 40
1.79999999993
  1
401124060048(5)
 41
0.660000000021
  7
TXT
  0
ENDBLK
  8
0
  6
BYBLOCK
 62
           0
  0
BLOCK
  8
0
  2
PKT_NR_SYM_69_146
 70
          64
 10
0.0
 20
0.0
  0
CIRCLE
  8
PKT_NUMMER
  6
CONTINUOUS
 62
           0
 10
0.0
 20
0.0
 40
0.110000000335
  0
TEXT
  8
PKT_NUMMER
  6
CONTINUOUS
 62
           0
 10
1.0
 20
0.999999999942
 40
1.79999999993
  1
401124060047(5)
 41
0.660000000021
  7
TXT
  0
ENDBLK
  8
0
  6
BYBLOCK
 62
           0
  0
BLOCK
  8
0
  2
PKT_NR_SYM_70_147
 70
          64
 10
0.0
 20
0.0
  0
CIRCLE
  8
PKT_NUMMER
  6
CONTINUOUS
 62
           0
 10
0.0
 20
0.0
 40
0.110000000335
  0
TEXT
  8
PKT_NUMMER
  6
CONTINUOUS
 62
           0
 10
1.0
 20
0.999999999942
 40
1.79999999993
  1
401124060057(5)
 41
0.660000000021
  7
TXT
  0
ENDBLK
  8
0
  6
BYBLOCK
 62
           0
  0
BLOCK
  8
0
  2
PKT_NR_SYM_71_148
 70
          64
 10
0.0
 20
0.0
  0
CIRCLE
  8
PKT_NUMMER
  6
CONTINUOUS
 62
           0
 10
0.0
 20
0.0
 40
0.110000000335
  0
TEXT
  8
PKT_NUMMER
  6
CONTINUOUS
 62
           0
 10
1.0
 20
0.999999999942
 40
1.79999999993
  1
401124060172(8)
 41
0.660000000021
  7
TXT
  0
ENDBLK
  8
0
  6
BYBLOCK
 62
           0
  0
BLOCK
  8
0
  2
PKT_NR_SYM_72_149
 70
          64
 10
0.0
 20
0.0
  0
CIRCLE
  8
PKT_NUMMER
  6
CONTINUOUS
 62
           0
 10
0.0
 20
0.0
 40
0.110000000335
  0
TEXT
  8
PKT_NUMMER
  6
CONTINUOUS
 62
           0
 10
1.0
 20
0.999999999942
 40
1.79999999993
  1
401124060171(8)
 41
0.660000000021
  7
TXT
  0
ENDBLK
  8
0
  6
BYBLOCK
 62
           0
  0
BLOCK
  8
0
  2
PKT_NR_SYM_73_150
 70
          64
 10
0.0
 20
0.0
  0
CIRCLE
  8
PKT_NUMMER
  6
CONTINUOUS
 62
           0
 10
0.0
 20
0.0
 40
0.110000000335
  0
TEXT
  8
PKT_NUMMER
  6
CONTINUOUS
 62
           0
 10
1.0
 20
0.999999999942
 40
1.79999999993
  1
401124060170(8)
 41
0.660000000021
  7
TXT
  0
ENDBLK
  8
0
  6
BYBLOCK
 62
           0
  0
BLOCK
  8
0
  2
PKT_NR_SYM_74_151
 70
          64
 10
0.0
 20
0.0
  0
CIRCLE
  8
PKT_NUMMER
  6
CONTINUOUS
 62
           0
 10
0.0
 20
0.0
 40
0.110000000335
  0
TEXT
  8
PKT_NUMMER
  6
CONTINUOUS
 62
           0
 10
1.0
 20
0.999999999942
 40
1.79999999993
  1
401124060169(8)
 41
0.660000000021
  7
TXT
  0
ENDBLK
  8
0
  6
BYBLOCK
 62
           0
  0
BLOCK
  8
0
  2
PKT_NR_SYM_75_152
 70
          64
 10
0.0
 20
0.0
  0
CIRCLE
  8
PKT_NUMMER
  6
CONTINUOUS
 62
           0
 10
0.0
 20
0.0
 40
0.110000000335
  0
TEXT
  8
PKT_NUMMER
  6
CONTINUOUS
 62
           0
 10
1.0
 20
0.999999999942
 40
1.79999999993
  1
401124060168(8)
 41
0.660000000021
  7
TXT
  0
ENDBLK
  8
0
  6
BYBLOCK
 62
           0
  0
ENDSEC
  0
SECTION
  2
ENTITIES
  0
INSERT
  8
0
  6
CONTINUOUS
 62
           0
  2
SYM_OD014_1
 10
-80.389999999665
 20
-33.009999999776
  0
INSERT
  8
0
  6
CONTINUOUS
 62
           0
  2
SYM019_2
 10
58.030000000261
 20
20.929999999702
  0
INSERT
  8
0
  6
CONTINUOUS
 62
           0
  2
SYM019_3
 10
31.549999999814
 20
22.419999999925
  0
INSERT
  8
0
  6
CONTINUOUS
 62
           0
  2
SYM019_4
 10
59.650000000373
 20
50.370000000112
  0
INSERT
  8
0
  6
CONTINUOUS
 62
           0
  2
SYM019_5
 10
33.219999999739
 20
51.830000000075
  0
INSERT
  8
0
  6
CONTINUOUS
 62
           0
  2
SYM019_6
 10
21.110000000335
 20
45.030000000261
  0
INSERT
  8
0
  6
CONTINUOUS
 62
           0
  2
SYM019_7
 10
-9.219999999739
 20
46.660000000149
  0
INSERT
  8
0
  6
CONTINUOUS
 62
           0
  2
SYM019_8
 10
-58.360000000335
 20
15.799999999814
  0
INSERT
  8
0
  6
CONTINUOUS
 62
           0
  2
SYM019_9
 10
-57.950000000186
 20
23.299999999814
  0
INSERT
  8
0
  6
CONTINUOUS
 62
           0
  2
SYM019_10
 10
-70.349999999627
 20
16.459999999963
  0
INSERT
  8
0
  6
CONTINUOUS
 62
           0
  2
SYM019_11
 10
-69.94000000041
 20
23.959999999963
  0
INSERT
  8
0
  6
CONTINUOUS
 62
           0
  2
SYM019_12
 10
-56.919999999925
 20
23.719999999739
  0
INSERT
  8
0
  6
CONTINUOUS
 62
           0
  2
SYM019_13
 10
-57.490000000224
 20
12.660000000149
  0
INSERT
  8
0
  6
CONTINUOUS
 62
           0
  2
SYM019_14
 10
-66.849999999627
 20
36.610000000335
  0
INSERT
  8
0
  6
CONTINUOUS
 62
           0
  2
SYM019_15
 10
-40.55999999959
 20
53.450000000186
  0
INSERT
  8
0
  6
CONTINUOUS
 62
           0
  2
SYM019_16
 10
-65.730000000447
 20
54.959999999963
  0
INSERT
  8
0
  6
CONTINUOUS
 62
           0
  2
SYM_OD012_17
 10
25.660000000149
 20
54.849999999627
  0
INSERT
  8
0
  6
CONTINUOUS
 62
           0
  2
SYM_OD014_18
 10
18.719999999739
 20
60.240000000224
  0
INSERT
  8
0
  6
CONTINUOUS
 62
           0
  2
SYM_OD012_19
 10
20.950000000186
 20
55.110000000335
  0
INSERT
  8
0
  6
CONTINUOUS
 62
           0
  2
SYM_OD012_20
 10
35.660000000149
 20
54.290000000037
  0
INSERT
  8
0
  6
CONTINUOUS
 62
           0
  2
SYM_OD014_21
 10
-73.410000000149
 20
65.099999999627
  0
INSERT
  8
0
  6
CONTINUOUS
 62
           0
  2
SYM_OD014_22
 10
-75.129999999888
 20
64.450000000186
  0
INSERT
  8
0
  6
CONTINUOUS
 62
           0
  2
SYM_OD014_23
 10
-76.80999999959
 20
63.259999999776
  0
INSERT
  8
0
  6
CONTINUOUS
 62
           0
  2
SYM_OD014_24
 10
-78.160000000149
 20
61.639999999665
  0
INSERT
  8
0
  6
CONTINUOUS
 62
           0
  2
SYM_OD014_25
 10
-71.679999999702
 20
65.230000000447
  0
INSERT
  8
0
  6
CONTINUOUS
 62
           0
  2
SYM_OD014_26
 10
25.929999999702
 20
59.839999999851
  0
INSERT
  8
0
  6
CONTINUOUS
 62
           0
  2
SYM_OD014_27
 10
36.179999999702
 20
62.339999999851
  0
INSERT
  8
0
  6
CONTINUOUS
 62
           0
  2
SYM010_28
 10
36.370000000112
 20
65.290000000037
  0
INSERT
  8
0
  6
CONTINUOUS
 62
           0
  2
SYM_OD014_29
 10
35.980000000447
 20
59.280000000261
  0
INSERT
  8
0
  6
CONTINUOUS
 62
           0
  2
SYM010_30
 10
71.099999999627
 20
110.450000000186
  0
INSERT
  8
0
  6
CONTINUOUS
 62
           0
  2
SYM_OD014_31
 10
-16.0
 20
62.179999999702
  0
INSERT
  8
0
  6
CONTINUOUS
 62
           0
  2
SYM010_32
 10
-18.030000000261
 20
25.110000000335
  0
INSERT
  8
0
  6
CONTINUOUS
 62
           0
  2
SYM010_33
 10
23.900000000373
 20
22.820000000298
  0
INSERT
  8
0
  6
CONTINUOUS
 62
           0
  2
SYM010_34
 10
68.370000000112
 20
60.580000000075
  0
INSERT
  8
0
  6
CONTINUOUS
 62
           0
  2
SYM010_35
 10
66.179999999702
 20
20.509999999776
  0
INSERT
  8
0
  6
CONTINUOUS
 62
           0
  2
SYM_OD014_36
 10
-77.009999999776
 20
28.339999999851
  0
INSERT
  8
0
  6
CONTINUOUS
 62
           0
  2
SYM_OD014_37
 10
-77.209999999963
 20
48.849999999627
  0
INSERT
  8
0
  6
CONTINUOUS
 62
           0
  2
SYM010_38
 10
-76.610000000335
 20
-7.650000000373
  0
INSERT
  8
0
  6
CONTINUOUS
 62
           0
  2
SYM010_39
 10
40.660000000149
 20
-14.099999999627
  0
INSERT
  8
0
  6
CONTINUOUS
 62
           0
  2
SYM010_40
 10
50.790000000037
 20
9.490000000224
  0
INSERT
  8
0
  6
CONTINUOUS
 62
           0
  2
SYM010_41
 10
64.360000000335
 20
-0.120000000112
  0
INSERT
  8
0
  6
CONTINUOUS
 62
           0
  2
SYM010_42
 10
65.330000000075
 20
10.860000000335
  0
INSERT
  8
0
  6
CONTINUOUS
 62
           0
  2
SYM_OD013_43
 10
-78.599999999627
 20
-7.540000000037
  0
INSERT
  8
0
  6
CONTINUOUS
 62
           0
  2
D_SYM019_44
 10
-63.450000000186
 20
36.400000000373
  0
INSERT
  8
0
  6
CONTINUOUS
 62
           0
  2
D_SYM019_45
 10
-63.75
 20
31.410000000149
  0
INSERT
  8
0
  6
CONTINUOUS
 62
           0
  2
D_SYM019_46
 10
-41.969999999739
 20
30.099999999627
  0
INSERT
  8
0
  6
CONTINUOUS
 62
           0
  2
D_SYM019_47
 10
-4.709999999963
 20
36.110000000335
  0
INSERT
  8
0
  6
CONTINUOUS
 62
           0
  2
D_SYM019_48
 10
-9.759999999776
 20
36.379999999888
  0
INSERT
  8
0
  6
CONTINUOUS
 62
           0
  2
D_SYM019_49
 10
-5.120000000112
 20
28.410000000149
  0
INSERT
  8
0
  6
CONTINUOUS
 62
           0
  2
D_SYM019_50
 10
9.639999999665
 20
27.599999999627
  0
INSERT
  8
0
  6
CONTINUOUS
 62
           0
  2
D_SYM019_51
 10
20.120000000112
 20
27.030000000261
  0
INSERT
  8
0
  6
CONTINUOUS
 62
           0
  2
D_SYM019_52
 10
10.610000000335
 20
45.589999999851
  0
INSERT
  8
0
  6
CONTINUOUS
 62
           0
  2
SYM010_53
 10
53.25
 20
111.44000000041
  0
INSERT
  8
0
  6
CONTINUOUS
 62
           0
  2
SYM_OD014_54
 10
50.519999999553
 20
61.570000000298
  0
INSERT
  8
0
  6
CONTINUOUS
 62
           0
  2
D_SYM019_55
 10
-29.5
 20
12.990000000224
  0
INSERT
  8
0
  6
CONTINUOUS
 62
           0
  2
D_SYM019_56
 10
-56.910000000149
 20
14.290000000037
  0
INSERT
  8
0
  6
CONTINUOUS
 62
           0
  2
D_SYM019_57
 10
-56.990000000224
 20
12.639999999665
  0
INSERT
  8
0
  6
CONTINUOUS
 62
           0
  2
D_SYM019_58
 10
-29.070000000298
 20
22.400000000373
  0
INSERT
  8
0
  6
CONTINUOUS
 62
           0
  2
SYM019_59
 10
-23.540000000037
 20
28.950000000186
  0
INSERT
  8
0
  6
CONTINUOUS
 62
           0
  2
SYM019_60
 10
-22.129999999888
 20
52.400000000373
  0
INSERT
  8
0
  6
CONTINUOUS
 62
           0
  2
D_SYM019_61
 10
-41.969999999739
 20
30.049999999814
  0
INSERT
  8
0
  6
CONTINUOUS
 62
           0
  2
D_SYM019_62
 10
-40.55999999959
 20
53.5
  0
INSERT
  8
0
  6
CONTINUOUS
 62
           0
  2
SYM019_63
 10
21.639999999665
 20
54.480000000447
  0
INSERT
  8
0
  6
CONTINUOUS
 62
           0
  2
SYM019_64
 10
13.900000000373
 20
54.900000000373
  0
INSERT
  8
0
  6
CONTINUOUS
 62
           0
  2
SYM019_65
 10
13.469999999739
 20
46.849999999627
  0
INSERT
  8
0
  6
CONTINUOUS
 62
           0
  2
D_SYM019_66
 10
21.209999999963
 20
46.429999999702
  0
INSERT
  8
0
  6
CONTINUOUS
 62
           0
  2
SYM019_67
 10
13.919999999925
 20
23.370000000112
  0
INSERT
  8
0
  6
CONTINUOUS
 62
           0
  2
D_SYM019_68
 10
13.179999999702
 20
26.080000000075
  0
INSERT
  8
0
  6
CONTINUOUS
 62
           0
  2
D_SYM019_69
 10
16.160000000149
 20
25.929999999702
  0
INSERT
  8
0
  6
CONTINUOUS
 62
           0
  2
D_SYM019_70
 10
12.990000000224
 20
22.290000000037
  0
INSERT
  8
0
  6
CONTINUOUS
 62
           0
  2
D_SYM019_71
 10
15.969999999739
 20
22.139999999665
  0
INSERT
  8
0
  6
CONTINUOUS
 62
           0
  2
SYM010_72
 10
13.80999999959
 20
21.370000000112
  0
INSERT
  8
0
  6
CONTINUOUS
 62
           0
  2
SYM003_73
 10
28.150000000373
 20
-5.620000000112
  0
INSERT
  8
0
  6
CONTINUOUS
 62
           0
  2
SYM003_74
 10
27.269999999553
 20
12.599999999627
  0
INSERT
  8
0
  6
CONTINUOUS
 62
           0
  2
SYM003_75
 10
13.200000000186
 20
10.240000000224
  0
INSERT
  8
0
  6
CONTINUOUS
 62
           0
  2
SYM_OD014_76
 10
11.950000000186
 20
-12.519999999553
  0
INSERT
  8
0
  6
CONTINUOUS
 62
           0
  2
PKT_NR_SYM_0_77
 10
-80.389999999665
 20
-33.009999999776
  0
INSERT
  8
0
  6
CONTINUOUS
 62
           0
  2
PKT_NR_SYM_1_78
 10
58.030000000261
 20
20.929999999702
  0
INSERT
  8
0
  6
CONTINUOUS
 62
           0
  2
PKT_NR_SYM_2_79
 10
31.549999999814
 20
22.419999999925
  0
INSERT
  8
0
  6
CONTINUOUS
 62
           0
  2
PKT_NR_SYM_3_80
 10
59.650000000373
 20
50.370000000112
  0
INSERT
  8
0
  6
CONTINUOUS
 62
           0
  2
PKT_NR_SYM_4_81
 10
33.219999999739
 20
51.830000000075
  0
INSERT
  8
0
  6
CONTINUOUS
 62
           0
  2
PKT_NR_SYM_5_82
 10
21.110000000335
 20
45.030000000261
  0
INSERT
  8
0
  6
CONTINUOUS
 62
           0
  2
PKT_NR_SYM_6_83
 10
-9.219999999739
 20
46.660000000149
  0
INSERT
  8
0
  6
CONTINUOUS
 62
           0
  2
PKT_NR_SYM_7_84
 10
-58.360000000335
 20
15.799999999814
  0
INSERT
  8
0
  6
CONTINUOUS
 62
           0
  2
PKT_NR_SYM_8_85
 10
-57.950000000186
 20
23.299999999814
  0
INSERT
  8
0
  6
CONTINUOUS
 62
           0
  2
PKT_NR_SYM_9_86
 10
-70.349999999627
 20
16.459999999963
  0
INSERT
  8
0
  6
CONTINUOUS
 62
           0
  2
PKT_NR_SYM_10_87
 10
-69.94000000041
 20
23.959999999963
  0
INSERT
  8
0
  6
CONTINUOUS
 62
           0
  2
PKT_NR_SYM_11_88
 10
-56.919999999925
 20
23.719999999739
  0
INSERT
  8
0
  6
CONTINUOUS
 62
           0
  2
PKT_NR_SYM_12_89
 10
-57.490000000224
 20
12.660000000149
  0
INSERT
  8
0
  6
CONTINUOUS
 62
           0
  2
PKT_NR_SYM_13_90
 10
-66.849999999627
 20
36.610000000335
  0
INSERT
  8
0
  6
CONTINUOUS
 62
           0
  2
PKT_NR_SYM_14_91
 10
-40.55999999959
 20
53.450000000186
  0
INSERT
  8
0
  6
CONTINUOUS
 62
           0
  2
PKT_NR_SYM_15_92
 10
-65.730000000447
 20
54.959999999963
  0
INSERT
  8
0
  6
CONTINUOUS
 62
           0
  2
PKT_NR_SYM_16_93
 10
25.660000000149
 20
54.849999999627
  0
INSERT
  8
0
  6
CONTINUOUS
 62
           0
  2
PKT_NR_SYM_17_94
 10
18.719999999739
 20
60.240000000224
  0
INSERT
  8
0
  6
CONTINUOUS
 62
           0
  2
PKT_NR_SYM_18_95
 10
20.950000000186
 20
55.110000000335
  0
INSERT
  8
0
  6
CONTINUOUS
 62
           0
  2
PKT_NR_SYM_19_96
 10
35.660000000149
 20
54.290000000037
  0
INSERT
  8
0
  6
CONTINUOUS
 62
           0
  2
PKT_NR_SYM_20_97
 10
-73.410000000149
 20
65.099999999627
  0
INSERT
  8
0
  6
CONTINUOUS
 62
           0
  2
PKT_NR_SYM_21_98
 10
-75.129999999888
 20
64.450000000186
  0
INSERT
  8
0
  6
CONTINUOUS
 62
           0
  2
PKT_NR_SYM_22_99
 10
-76.80999999959
 20
63.259999999776
  0
INSERT
  8
0
  6
CONTINUOUS
 62
           0
  2
PKT_NR_SYM_23_100
 10
-78.160000000149
 20
61.639999999665
  0
INSERT
  8
0
  6
CONTINUOUS
 62
           0
  2
PKT_NR_SYM_24_101
 10
-71.679999999702
 20
65.230000000447
  0
INSERT
  8
0
  6
CONTINUOUS
 62
           0
  2
PKT_NR_SYM_25_102
 10
25.929999999702
 20
59.839999999851
  0
INSERT
  8
0
  6
CONTINUOUS
 62
           0
  2
PKT_NR_SYM_26_103
 10
36.179999999702
 20
62.339999999851
  0
INSERT
  8
0
  6
CONTINUOUS
 62
           0
  2
PKT_NR_SYM_27_104
 10
36.370000000112
 20
65.290000000037
  0
INSERT
  8
0
  6
CONTINUOUS
 62
           0
  2
PKT_NR_SYM_28_105
 10
35.980000000447
 20
59.280000000261
  0
INSERT
  8
0
  6
CONTINUOUS
 62
           0
  2
PKT_NR_SYM_29_106
 10
71.099999999627
 20
110.450000000186
  0
INSERT
  8
0
  6
CONTINUOUS
 62
           0
  2
PKT_NR_SYM_30_107
 10
-16.0
 20
62.179999999702
  0
INSERT
  8
0
  6
CONTINUOUS
 62
           0
  2
PKT_NR_SYM_31_108
 10
-18.030000000261
 20
25.110000000335
  0
INSERT
  8
0
  6
CONTINUOUS
 62
           0
  2
PKT_NR_SYM_32_109
 10
23.900000000373
 20
22.820000000298
  0
INSERT
  8
0
  6
CONTINUOUS
 62
           0
  2
PKT_NR_SYM_33_110
 10
68.370000000112
 20
60.580000000075
  0
INSERT
  8
0
  6
CONTINUOUS
 62
           0
  2
PKT_NR_SYM_34_111
 10
66.179999999702
 20
20.509999999776
  0
INSERT
  8
0
  6
CONTINUOUS
 62
           0
  2
PKT_NR_SYM_35_112
 10
-77.009999999776
 20
28.339999999851
  0
INSERT
  8
0
  6
CONTINUOUS
 62
           0
  2
PKT_NR_SYM_36_113
 10
-77.209999999963
 20
48.849999999627
  0
INSERT
  8
0
  6
CONTINUOUS
 62
           0
  2
PKT_NR_SYM_37_114
 10
-76.610000000335
 20
-7.650000000373
  0
INSERT
  8
0
  6
CONTINUOUS
 62
           0
  2
PKT_NR_SYM_38_115
 10
40.660000000149
 20
-14.099999999627
  0
INSERT
  8
0
  6
CONTINUOUS
 62
           0
  2
PKT_NR_SYM_39_116
 10
50.790000000037
 20
9.490000000224
  0
INSERT
  8
0
  6
CONTINUOUS
 62
           0
  2
PKT_NR_SYM_40_117
 10
64.360000000335
 20
-0.120000000112
  0
INSERT
  8
0
  6
CONTINUOUS
 62
           0
  2
PKT_NR_SYM_41_118
 10
65.330000000075
 20
10.860000000335
  0
INSERT
  8
0
  6
CONTINUOUS
 62
           0
  2
PKT_NR_SYM_42_119
 10
-78.599999999627
 20
-7.540000000037
  0
INSERT
  8
0
  6
CONTINUOUS
 62
           0
  2
PKT_NR_SYM_43_120
 10
-63.450000000186
 20
36.400000000373
  0
INSERT
  8
0
  6
CONTINUOUS
 62
           0
  2
PKT_NR_SYM_44_121
 10
-63.75
 20
31.410000000149
  0
INSERT
  8
0
  6
CONTINUOUS
 62
           0
  2
PKT_NR_SYM_45_122
 10
-41.969999999739
 20
30.099999999627
  0
INSERT
  8
0
  6
CONTINUOUS
 62
           0
  2
PKT_NR_SYM_46_123
 10
-4.709999999963
 20
36.110000000335
  0
INSERT
  8
0
  6
CONTINUOUS
 62
           0
  2
PKT_NR_SYM_47_124
 10
-9.759999999776
 20
36.379999999888
  0
INSERT
  8
0
  6
CONTINUOUS
 62
           0
  2
PKT_NR_SYM_48_125
 10
-5.120000000112
 20
28.410000000149
  0
INSERT
  8
0
  6
CONTINUOUS
 62
           0
  2
PKT_NR_SYM_49_126
 10
9.639999999665
 20
27.599999999627
  0
INSERT
  8
0
  6
CONTINUOUS
 62
           0
  2
PKT_NR_SYM_50_127
 10
20.120000000112
 20
27.030000000261
  0
INSERT
  8
0
  6
CONTINUOUS
 62
           0
  2
PKT_NR_SYM_51_128
 10
10.610000000335
 20
45.589999999851
  0
INSERT
  8
0
  6
CONTINUOUS
 62
           0
  2
PKT_NR_SYM_52_129
 10
53.25
 20
111.44000000041
  0
INSERT
  8
0
  6
CONTINUOUS
 62
           0
  2
PKT_NR_SYM_53_130
 10
50.519999999553
 20
61.570000000298
  0
INSERT
  8
0
  6
CONTINUOUS
 62
           0
  2
PKT_NR_SYM_54_131
 10
-29.5
 20
12.990000000224
  0
INSERT
  8
0
  6
CONTINUOUS
 62
           0
  2
PKT_NR_SYM_55_132
 10
-56.910000000149
 20
14.290000000037
  0
INSERT
  8
0
  6
CONTINUOUS
 62
           0
  2
PKT_NR_SYM_56_133
 10
-56.990000000224
 20
12.639999999665
  0
INSERT
  8
0
  6
CONTINUOUS
 62
           0
  2
PKT_NR_SYM_57_134
 10
-29.070000000298
 20
22.400000000373
  0
INSERT
  8
0
  6
CONTINUOUS
 62
           0
  2
PKT_NR_SYM_58_135
 10
-23.540000000037
 20
28.950000000186
  0
INSERT
  8
0
  6
CONTINUOUS
 62
           0
  2
PKT_NR_SYM_59_136
 10
-22.129999999888
 20
52.400000000373
  0
INSERT
  8
0
  6
CONTINUOUS
 62
           0
  2
PKT_NR_SYM_60_137
 10
-41.969999999739
 20
30.049999999814
  0
INSERT
  8
0
  6
CONTINUOUS
 62
           0
  2
PKT_NR_SYM_61_138
 10
-40.55999999959
 20
53.5
  0
INSERT
  8
0
  6
CONTINUOUS
 62
           0
  2
PKT_NR_SYM_62_139
 10
21.639999999665
 20
54.480000000447
  0
INSERT
  8
0
  6
CONTINUOUS
 62
           0
  2
PKT_NR_SYM_63_140
 10
13.900000000373
 20
54.900000000373
  0
INSERT
  8
0
  6
CONTINUOUS
 62
           0
  2
PKT_NR_SYM_64_141
 10
13.469999999739
 20
46.849999999627
  0
INSERT
  8
0
  6
CONTINUOUS
 62
           0
  2
PKT_NR_SYM_65_142
 10
21.209999999963
 20
46.429999999702
  0
INSERT
  8
0
  6
CONTINUOUS
 62
           0
  2
PKT_NR_SYM_66_143
 10
13.919999999925
 20
23.370000000112
  0
INSERT
  8
0
  6
CONTINUOUS
 62
           0
  2
PKT_NR_SYM_67_144
 10
13.179999999702
 20
26.080000000075
  0
INSERT
  8
0
  6
CONTINUOUS
 62
           0
  2
PKT_NR_SYM_68_145
 10
16.160000000149
 20
25.929999999702
  0
INSERT
  8
0
  6
CONTINUOUS
 62
           0
  2
PKT_NR_SYM_69_146
 10
12.990000000224
 20
22.290000000037
  0
INSERT
  8
0
  6
CONTINUOUS
 62
           0
  2
PKT_NR_SYM_70_147
 10
15.969999999739
 20
22.139999999665
  0
INSERT
  8
0
  6
CONTINUOUS
 62
           0
  2
PKT_NR_SYM_71_148
 10
13.80999999959
 20
21.370000000112
  0
INSERT
  8
0
  6
CONTINUOUS
 62
           0
  2
PKT_NR_SYM_72_149
 10
28.150000000373
 20
-5.620000000112
  0
INSERT
  8
0
  6
CONTINUOUS
 62
           0
  2
PKT_NR_SYM_73_150
 10
27.269999999553
 20
12.599999999627
  0
INSERT
  8
0
  6
CONTINUOUS
 62
           0
  2
PKT_NR_SYM_74_151
 10
13.200000000186
 20
10.240000000224
  0
INSERT
  8
0
  6
CONTINUOUS
 62
           0
  2
PKT_NR_SYM_75_152
 10
11.950000000186
 20
-12.519999999553
  0
LINE
  8
GRE_FLST
  6
CONTINUOUS
 62
           0
 10
-80.389999999665
 20
-33.009999999776
 11
-78.599999999627
 21
-7.540000000037
  0
LINE
  8
GRE_FLST
  6
CONTINUOUS
 62
           0
 10
-77.209999999963
 20
48.849999999627
 11
-77.009999999776
 21
28.339999999851
  0
LINE
  8
GRE_FLST
  6
CONTINUOUS
 62
           0
 10
-78.160000000149
 20
61.639999999665
 11
-77.209999999963
 21
48.849999999627
  0
LINE
  8
GRE_FLST
  6
CONTINUOUS
 62
           0
 10
-78.160000000149
 20
61.639999999665
 11
-76.80999999959
 21
63.259999999776
  0
LINE
  8
GRE_FLST
  6
CONTINUOUS
 62
           0
 10
-76.80999999959
 20
63.259999999776
 11
-75.129999999888
 21
64.450000000186
  0
LINE
  8
GRE_FLST
  6
CONTINUOUS
 62
           0
 10
-75.129999999888
 20
64.450000000186
 11
-73.410000000149
 21
65.099999999627
  0
LINE
  8
GRE_FLST
  6
CONTINUOUS
 62
           0
 10
-71.679999999702
 20
65.230000000447
 11
-73.410000000149
 21
65.099999999627
  0
LINE
  8
GRE_FLST
  6
CONTINUOUS
 62
           0
 10
68.370000000112
 20
60.580000000075
 11
71.099999999627
 21
110.450000000186
  0
LINE
  8
GRE_FLST
  6
CONTINUOUS
 62
           0
 10
36.370000000112
 20
65.290000000037
 11
36.179999999702
 21
62.339999999851
  0
LINE
  8
GRE_FLST
  6
CONTINUOUS
 62
           0
 10
18.719999999739
 20
60.240000000224
 11
-16.0
 21
62.179999999702
  0
LINE
  8
GRE_FLST
  6
CONTINUOUS
 62
           0
 10
20.950000000186
 20
55.110000000335
 11
18.719999999739
 21
60.240000000224
  0
LINE
  8
GRE_FLST
  6
CONTINUOUS
 62
           0
 10
20.950000000186
 20
55.110000000335
 11
25.660000000149
 21
54.849999999627
  0
LINE
  8
GRE_FLST
  6
CONTINUOUS
 62
           0
 10
25.660000000149
 20
54.849999999627
 11
23.900000000373
 21
22.820000000298
  0
LINE
  8
GRE_FLST
  6
CONTINUOUS
 62
           0
 10
-18.030000000261
 20
25.110000000335
 11
-16.0
 21
62.179999999702
  0
LINE
  8
GRE_FLST
  6
CONTINUOUS
 62
           0
 10
68.370000000112
 20
60.580000000075
 11
66.179999999702
 21
20.509999999776
  0
LINE
  8
GRE_FLST
  6
CONTINUOUS
 62
           0
 10
23.900000000373
 20
22.820000000298
 11
66.179999999702
 21
20.509999999776
  0
LINE
  8
GRE_FLST
  6
CONTINUOUS
 62
           0
 10
35.660000000149
 20
54.290000000037
 11
25.660000000149
 21
54.849999999627
  0
LINE
  8
GRE_FLST
  6
CONTINUOUS
 62
           0
 10
35.980000000447
 20
59.280000000261
 11
35.660000000149
 21
54.290000000037
  0
LINE
  8
GRE_FLST
  6
CONTINUOUS
 62
           0
 10
35.980000000447
 20
59.280000000261
 11
36.179999999702
 21
62.339999999851
  0
LINE
  8
GRE_FLST
  6
CONTINUOUS
 62
           0
 10
35.980000000447
 20
59.280000000261
 11
25.929999999702
 21
59.839999999851
  0
LINE
  8
GRE_FLST
  6
CONTINUOUS
 62
           0
 10
25.929999999702
 20
59.839999999851
 11
25.660000000149
 21
54.849999999627
  0
LINE
  8
GRE_FLST
  6
CONTINUOUS
 62
           0
 10
-71.679999999702
 20
65.230000000447
 11
-16.0
 21
62.179999999702
  0
LINE
  8
GRE_FLST
  6
CONTINUOUS
 62
           0
 10
-78.599999999627
 20
-7.540000000037
 11
-76.610000000335
 21
-7.650000000373
  0
LINE
  8
GRE_FLST
  6
CONTINUOUS
 62
           0
 10
50.790000000037
 20
9.490000000224
 11
40.660000000149
 21
-14.099999999627
  0
LINE
  8
GRE_FLST
  6
CONTINUOUS
 62
           0
 10
65.330000000075
 20
10.860000000335
 11
50.790000000037
 21
9.490000000224
  0
LINE
  8
GRE_FLST
  6
CONTINUOUS
 62
           0
 10
65.330000000075
 20
10.860000000335
 11
64.360000000335
 21
-0.120000000112
  0
LINE
  8
GRE_FLST
  6
CONTINUOUS
 62
           0
 10
50.519999999553
 20
61.570000000298
 11
68.370000000112
 21
60.580000000075
  0
LINE
  8
GRE_FLST
  6
CONTINUOUS
 62
           0
 10
50.519999999553
 20
61.570000000298
 11
53.25
 21
111.44000000041
  0
LINE
  8
GRE_FLST
  6
CONTINUOUS
 62
           0
 10
36.179999999702
 20
62.339999999851
 11
50.519999999553
 21
61.570000000298
  0
LINE
  8
GRE_FLST
  6
CONTINUOUS
 62
           0
 10
65.330000000075
 20
10.860000000335
 11
66.179999999702
 21
20.509999999776
  0
LINE
  8
GRE_FLST
  6
CONTINUOUS
 62
           0
 10
-78.599999999627
 20
-7.540000000037
 11
-77.009999999776
 21
28.339999999851
  0
LINE
  8
GRE_FLST
  6
CONTINUOUS
 62
           0
 10
-77.009999999776
 20
28.339999999851
 11
-18.030000000261
 21
25.110000000335
  0
LINE
  8
GRE_FLST
  6
CONTINUOUS
 62
           0
 10
-18.030000000261
 20
25.110000000335
 11
13.919999999925
 21
23.370000000112
  0
LINE
  8
GRE_FLST
  6
CONTINUOUS
 62
           0
 10
13.919999999925
 20
23.370000000112
 11
23.900000000373
 21
22.820000000298
  0
LINE
  8
GRE_FLST
  6
CONTINUOUS
 62
           0
 10
-76.610000000335
 20
-7.650000000373
 11
11.950000000186
 21
-12.519999999553
  0
LINE
  8
GRE_FLST
  6
CONTINUOUS
 62
           0
 10
11.950000000186
 20
-12.519999999553
 11
40.660000000149
 21
-14.099999999627
  0
LINE
  8
GRE_FLST
  6
CONTINUOUS
 62
           0
 10
11.950000000186
 20
-12.519999999553
 11
13.80999999959
 21
21.370000000112
  0
LINE
  8
GRE_FLST
  6
CONTINUOUS
 62
           0
 10
13.80999999959
 20
21.370000000112
 11
13.919999999925
 21
23.370000000112
  0
LINE
  8
GEB_HAUPT
  6
CONTINUOUS
 62
           0
 10
10.610000000335
 20
45.589999999851
 11
21.110000000335
 21
45.030000000261
  0
LINE
  8
GEB_HAUPT
  6
CONTINUOUS
 62
           0
 10
21.110000000335
 20
45.030000000261
 11
20.120000000112
 21
27.030000000261
  0
LINE
  8
GEB_HAUPT
  6
CONTINUOUS
 62
           0
 10
20.120000000112
 20
27.030000000261
 11
9.639999999665
 21
27.599999999627
  0
LINE
  8
GEB_HAUPT
  6
CONTINUOUS
 62
           0
 10
9.639999999665
 20
27.599999999627
 11
10.610000000335
 21
45.589999999851
  0
LINE
  8
GEB_HAUPT
  6
CONTINUOUS
 62
           0
 10
-65.730000000447
 20
54.959999999963
 11
-40.55999999959
 21
53.450000000186
  0
LINE
  8
GEB_HAUPT
  6
CONTINUOUS
 62
           0
 10
-40.55999999959
 20
53.450000000186
 11
-40.55999999959
 21
53.5
  0
LINE
  8
GEB_HAUPT
  6
CONTINUOUS
 62
           0
 10
-40.55999999959
 20
53.5
 11
-22.129999999888
 21
52.400000000373
  0
LINE
  8
GEB_HAUPT
  6
CONTINUOUS
 62
           0
 10
-22.129999999888
 20
52.400000000373
 11
-23.540000000037
 21
28.950000000186
  0
LINE
  8
GEB_HAUPT
  6
CONTINUOUS
 62
           0
 10
-23.540000000037
 20
28.950000000186
 11
-41.969999999739
 21
30.049999999814
  0
LINE
  8
GEB_HAUPT
  6
CONTINUOUS
 62
           0
 10
-41.969999999739
 20
30.049999999814
 11
-41.969999999739
 21
30.099999999627
  0
LINE
  8
GEB_HAUPT
  6
CONTINUOUS
 62
           0
 10
-41.969999999739
 20
30.099999999627
 11
-63.75
 21
31.410000000149
  0
LINE
  8
GEB_HAUPT
  6
CONTINUOUS
 62
           0
 10
-63.75
 20
31.410000000149
 11
-63.450000000186
 21
36.400000000373
  0
LINE
  8
GEB_HAUPT
  6
CONTINUOUS
 62
           0
 10
-63.450000000186
 20
36.400000000373
 11
-66.849999999627
 21
36.610000000335
  0
LINE
  8
GEB_HAUPT
  6
CONTINUOUS
 62
           0
 10
-66.849999999627
 20
36.610000000335
 11
-65.730000000447
 21
54.959999999963
  0
LINE
  8
GEB_HAUPT
  6
CONTINUOUS
 62
           0
 10
-69.94000000041
 20
23.959999999963
 11
-57.950000000186
 21
23.299999999814
  0
LINE
  8
GEB_HAUPT
  6
CONTINUOUS
 62
           0
 10
-57.950000000186
 20
23.299999999814
 11
-58.360000000335
 21
15.799999999814
  0
LINE
  8
GEB_HAUPT
  6
CONTINUOUS
 62
           0
 10
-58.360000000335
 20
15.799999999814
 11
-70.349999999627
 21
16.459999999963
  0
LINE
  8
GEB_HAUPT
  6
CONTINUOUS
 62
           0
 10
-70.349999999627
 20
16.459999999963
 11
-69.94000000041
 21
23.959999999963
  0
LINE
  8
GEB_HAUPT
  6
CONTINUOUS
 62
           0
 10
31.549999999814
 20
22.419999999925
 11
33.219999999739
 21
51.830000000075
  0
LINE
  8
GEB_HAUPT
  6
CONTINUOUS
 62
           0
 10
33.219999999739
 20
51.830000000075
 11
59.650000000373
 21
50.370000000112
  0
LINE
  8
GEB_HAUPT
  6
CONTINUOUS
 62
           0
 10
59.650000000373
 20
50.370000000112
 11
58.030000000261
 21
20.929999999702
  0
LINE
  8
GEB_HAUPT
  6
CONTINUOUS
 62
           0
 10
58.030000000261
 20
20.929999999702
 11
31.549999999814
 21
22.419999999925
  0
LINE
  8
GEB_HAUPT
  6
CONTINUOUS
 62
           0
 10
-9.759999999776
 20
36.379999999888
 11
-9.219999999739
 21
46.660000000149
  0
LINE
  8
GEB_HAUPT
  6
CONTINUOUS
 62
           0
 10
-9.219999999739
 20
46.660000000149
 11
10.610000000335
 21
45.589999999851
  0
LINE
  8
GEB_HAUPT
  6
CONTINUOUS
 62
           0
 10
10.610000000335
 20
45.589999999851
 11
9.639999999665
 21
27.599999999627
  0
LINE
  8
GEB_HAUPT
  6
CONTINUOUS
 62
           0
 10
9.639999999665
 20
27.599999999627
 11
-5.120000000112
 21
28.410000000149
  0
LINE
  8
GEB_HAUPT
  6
CONTINUOUS
 62
           0
 10
-5.120000000112
 20
28.410000000149
 11
-4.709999999963
 21
36.110000000335
  0
LINE
  8
GEB_HAUPT
  6
CONTINUOUS
 62
           0
 10
-4.709999999963
 20
36.110000000335
 11
-9.759999999776
 21
36.379999999888
  0
LINE
  8
GEB_HAUPT
  6
CONTINUOUS
 62
           0
 10
12.990000000224
 20
22.290000000037
 11
13.179999999702
 21
26.080000000075
  0
LINE
  8
GEB_HAUPT
  6
CONTINUOUS
 62
           0
 10
13.179999999702
 20
26.080000000075
 11
16.160000000149
 21
25.929999999702
  0
LINE
  8
GEB_HAUPT
  6
CONTINUOUS
 62
           0
 10
16.160000000149
 20
25.929999999702
 11
15.969999999739
 21
22.139999999665
  0
LINE
  8
GEB_HAUPT
  6
CONTINUOUS
 62
           0
 10
15.969999999739
 20
22.139999999665
 11
12.990000000224
 21
22.290000000037
  0
LINE
  8
GEB_HAUPT
  6
CONTINUOUS
 62
           0
 10
13.469999999739
 20
46.849999999627
 11
13.900000000373
 21
54.900000000373
  0
LINE
  8
GEB_HAUPT
  6
CONTINUOUS
 62
           0
 10
13.900000000373
 20
54.900000000373
 11
21.639999999665
 21
54.480000000447
  0
LINE
  8
GEB_HAUPT
  6
CONTINUOUS
 62
           0
 10
21.639999999665
 20
54.480000000447
 11
21.209999999963
 21
46.429999999702
  0
LINE
  8
GEB_HAUPT
  6
CONTINUOUS
 62
           0
 10
21.209999999963
 20
46.429999999702
 11
13.469999999739
 21
46.849999999627
  0
LINE
  8
GEB_HAUPT
  6
CONTINUOUS
 62
           0
 10
-57.490000000224
 20
12.660000000149
 11
-56.919999999925
 21
23.719999999739
  0
LINE
  8
GEB_HAUPT
  6
CONTINUOUS
 62
           0
 10
-56.919999999925
 20
23.719999999739
 11
-29.070000000298
 21
22.400000000373
  0
LINE
  8
GEB_HAUPT
  6
CONTINUOUS
 62
           0
 10
-29.070000000298
 20
22.400000000373
 11
-29.5
 21
12.990000000224
  0
LINE
  8
GEB_HAUPT
  6
CONTINUOUS
 62
           0
 10
-29.5
 20
12.990000000224
 11
-56.910000000149
 21
14.290000000037
  0
LINE
  8
GEB_HAUPT
  6
CONTINUOUS
 62
           0
 10
-56.910000000149
 20
14.290000000037
 11
-56.990000000224
 21
12.639999999665
  0
LINE
  8
GEB_HAUPT
  6
CONTINUOUS
 62
           0
 10
-56.990000000224
 20
12.639999999665
 11
-57.490000000224
 21
12.660000000149
  0
TEXT
  8
GEB_HNUM
  6
CONTINUOUS
 62
           0
 10
-31.010000000174
 20
51.919999999754
 40
1.8
  1
9
 50
176.5845
 41
0.66
  7
TXT
  0
TEXT
  8
GEB_HNUM
  6
CONTINUOUS
 62
           0
 10
47.379999999601
 20
50.039999999748
 40
1.8
  1
13
 50
176.8383
 41
0.659999999881
  7
TXT
  0
TEXT
  8
GEB_HNUM
  6
CONTINUOUS
 62
           0
 10
16.799999999979
 20
44.259999999991
 40
1.8
  1
11
 50
176.9472
 41
0.659999999894
  7
TXT
  0
TEXT
  8
GEB_HNUM
  6
CONTINUOUS
 62
           0
 10
-69.130000000161
 20
20.539999999592
 40
1.8
  1
7
 50
-93.129299999999
 41
0.659999999875
  7
TXT
  0
TEXT
  8
FLST_1K_NR
  6
CONTINUOUS
 62
           0
 10
54.130237715319
 20
55.048400053717
 40
1.8
  1
2902/3
 41
0.660000000007
 51
15.0
  7
TXT
  0
TEXT
  8
FLST_1K_NR
  6
CONTINUOUS
 62
           0
 10
-0.959762284532
 20
50.078400053047
 40
1.8
  1
2902/5
 41
0.660000000007
 51
15.0
  7
TXT
  0
TEXT
  8
FLST_1K_NR
  6
CONTINUOUS
 62
           0
 10
28.811390088211
 20
56.295677817598
 40
1.8
  1
2902/10
 50
-2.995199999999
 41
0.660000000032
 51
15.0
  7
TXT
  0
TEXT
  8
FLST_1K_NR
  6
CONTINUOUS
 62
           0
 10
-44.029655396942
 20
57.469194480293
 40
1.8
  1
2902/2
 50
-0.325799999999
 41
0.660000000051
 51
15.0
  7
TXT
  0
TEXT
  8
FLST_1K_NR
  6
CONTINUOUS
 62
           0
 10
-26.049762284383
 20
0.328400053047
 40
1.8
  1
2902/1
 41
0.660000000007
 51
15.0
  7
TXT
  0
TEXT
  8
FLST_1K_NR
  6
CONTINUOUS
 62
           0
 10
29.840237716213
 20
4.458400053866
 40
1.8
  1
2902/12
 41
0.660000000013
 51
15.0
  7
TXT
  0
ENDSEC
  0
EOF
