  0
SECTION
  2
HEADER
  9
$ACADVER
  1
AC1009
  9
$PDMODE
 70
3
  9
$PDSIZE
 40
1.000000
  0
ENDSEC
  0
SECTION
  2
TABLES
  0
TABLE
  2
LTYPE
 70
     2
  0
LTYPE
  2
CONTINUOUS
 70
     0
  3
Solid line
 72
    65
 73
     0
 40
0.0
  0
LTYPE
  2
ACAD_ISO02W100
 70
     0
  3
ISO dash __ __ __ __ __ __ __ __ __ __ __ __ __
 72
    65
 73
     2
 40
15.0
 49
12.0
 49
-3.0
  0
ENDTAB
  0
TABLE
  2
LAYER
 70
     1
  0
LAYER
  2
0
 70
     0
 62
     7
  6
CONTINUOUS
  0
ENDTAB
  0
TABLE
  2
APPID
  5
143
100
AcDbSymbolTable
 70
     3
  0
APPID
  5
15E
100
AcDbSymbolTableRecord
100
AcDbRegAppTableRecord
  2
BLECHKONSTRUKTION
 70
     0
  0
ENDTAB
  0
ENDSEC
  0
SECTION
  2
ENTITIES
  0
LINE
  8
0
 10
0.000000
 20
13.002493
 11
36.768684
 21
0.000038
  0
LINE
  8
0
 10
36.768684
 20
0.000038
 11
154.768677
 21
0.000040
  0
LINE
  8
0
 10
154.768677
 20
0.000040
 11
191.537369
 21
13.002520
  0
LINE
  8
0
 10
191.537369
 20
13.002520
 11
140.537430
 21
157.221130
  0
LINE
  8
0
 10
103.359840
 20
150.431183
 11
95.768684
 21
150.333008
  0
LINE
  8
0
 10
53.393169
 20
156.398544
 11
50.999920
 21
157.221115
  0
LINE
  8
0
 10
50.999920
 20
157.221115
 11
0.000000
 21
13.002493
  0
ARC
  8
0
 10
101.582648157
 20
265.472386917
 40
115.046988475
 50
279.708757391
 51
-70.208466646
  0
ARC
  8
0
 10
100.409704470
 20
277.505993878
 40
127.109051200
 50
271.329925092
 51
-80.684851622
  0
ARC
  8
0
 10
94.504911725
 20
343.116511014
 40
192.787645423
 50
266.163766631
 51
-89.624408721
  0
ARC
  8
0
 10
89.233180130
 20
262.341901534
 40
111.841411420
 50
251.309626060
 51
-93.910155846
  0
LINE
  8
0
 62
2
 10
36.768677
 20
0.000014
 11
50.999920
 21
157.221115
1001
BLECHKONSTRUKTION
1040
11.277148
1040
0.000000
1040
0.000000
1040
44.880230
1040
78.520416
  0
LINE
  8
0
 62
2
 10
36.768673
 20
0.000005
 11
61.888531
 21
153.899124
1001
BLECHKONSTRUKTION
1040
21.812527
1040
0.000000
1040
0.000000
1040
50.315540
1040
76.788471
  0
LINE
  8
0
 62
2
 10
36.768688
 20
0.000048
 11
73.053345
 21
151.681381
1001
BLECHKONSTRUKTION
1040
21.847158
1040
0.000000
1040
0.000000
1040
55.883579
1040
75.608061
  0
LINE
  8
0
 62
2
 10
36.768688
 20
0.000038
 11
84.384758
 21
150.586945
1001
BLECHKONSTRUKTION
1040
22.784962
1040
0.000000
1040
0.000000
1040
61.530190
1040
74.991997
  0
LINE
  8
0
 62
2
 10
36.768688
 20
0.000048
 11
95.768684
 21
150.333008
1001
BLECHKONSTRUKTION
1040
11.981203
1040
0.000000
1040
0.000000
1040
67.199562
1040
74.801193
  0
LINE
  8
0
 62
2
 10
154.768677
 20
0.000040
 11
95.768684
 21
150.333008
1001
BLECHKONSTRUKTION
1040
11.981203
1040
0.000000
1040
0.000000
1040
126.199554
1040
75.531861
  0
LINE
  8
0
 62
2
 10
154.768677
 20
0.000040
 11
107.152603
 21
150.586945
1001
BLECHKONSTRUKTION
1040
22.784990
1040
0.000000
1040
0.000000
1040
131.914108
1040
75.594985
  0
LINE
  8
0
 62
2
 10
154.768692
 20
0.000046
 11
118.484024
 21
151.681396
1001
BLECHKONSTRUKTION
1040
21.847139
1040
0.000000
1040
0.000000
1040
137.598923
1040
76.073373
  0
LINE
  8
0
 62
2
 10
154.768692
 20
0.000060
 11
129.648834
 21
153.899170
1001
BLECHKONSTRUKTION
1040
21.812548
1040
0.000000
1040
0.000000
1040
143.195709
1040
77.110707
  0
LINE
  8
0
 62
2
 10
154.768677
 20
0.000040
 11
140.537430
 21
157.221130
1001
BLECHKONSTRUKTION
1040
11.277148
1040
0.000000
1040
0.000000
1040
148.648972
1040
78.700737
  0
LINE
  8
0
 10
196.537369
 20
13.002489
 11
233.306061
 21
0.000038
  0
LINE
  8
0
 10
233.306061
 20
0.000038
 11
351.306061
 21
0.000095
  0
LINE
  8
0
 10
351.306061
 20
0.000095
 11
388.074738
 21
13.002573
  0
LINE
  8
0
 10
388.074738
 20
13.002573
 11
337.074829
 21
157.221191
  0
LINE
  8
0
 10
299.897217
 20
150.431168
 11
292.306061
 21
150.333008
  0
LINE
  8
0
 10
249.930542
 20
156.398529
 11
247.537292
 21
157.221100
  0
LINE
  8
0
 10
247.537292
 20
157.221100
 11
196.537369
 21
13.002489
  0
ARC
  8
0
 10
298.120336376
 20
265.470121108
 40
115.044701247
 50
279.708790877
 51
-70.208209659
  0
ARC
  8
0
 10
296.947257267
 20
277.502824024
 40
127.105893361
 50
271.329878604
 51
-80.684702195
  0
ARC
  8
0
 10
291.041609439
 20
343.094734532
 40
192.765873860
 50
266.163528068
 51
-89.624164568
  0
ARC
  8
0
 10
285.770349932
 20
262.341147643
 40
111.840646757
 50
251.309603209
 51
-93.910088286
  0
LINE
  8
0
 62
2
 10
233.306046
 20
0.000033
 11
247.537292
 21
157.221100
1001
BLECHKONSTRUKTION
1040
11.277187
1040
0.000000
1040
0.000000
1040
241.417587
1040
78.520416
  0
LINE
  8
0
 62
2
 10
233.306046
 20
0.000034
 11
258.425903
 21
153.899109
1001
BLECHKONSTRUKTION
1040
21.812508
1040
0.000000
1040
0.000000
1040
246.852905
1040
76.788479
  0
LINE
  8
0
 62
2
 10
233.306061
 20
0.000046
 11
269.590698
 21
151.681381
1001
BLECHKONSTRUKTION
1040
21.847178
1040
0.000000
1040
0.000000
1040
252.420944
1040
75.608061
  0
LINE
  8
0
 62
2
 10
233.306061
 20
0.000055
 11
280.922119
 21
150.586960
1001
BLECHKONSTRUKTION
1040
22.784971
1040
0.000000
1040
0.000000
1040
258.067535
1040
74.992020
  0
LINE
  8
0
 62
2
 10
233.306061
 20
0.000034
 11
292.306061
 21
150.333008
1001
BLECHKONSTRUKTION
1040
11.981203
1040
0.000000
1040
0.000000
1040
263.736938
1040
74.801185
  0
LINE
  8
0
 62
2
 10
351.306061
 20
0.000042
 11
292.306061
 21
150.333008
1001
BLECHKONSTRUKTION
1040
11.981203
1040
0.000000
1040
0.000000
1040
322.736938
1040
75.531861
  0
LINE
  8
0
 62
2
 10
351.306061
 20
0.000034
 11
303.689972
 21
150.586945
1001
BLECHKONSTRUKTION
1040
22.784971
1040
0.000000
1040
0.000000
1040
328.451477
1040
75.594978
  0
LINE
  8
0
 62
2
 10
351.306061
 20
0.000053
 11
315.021393
 21
151.681381
1001
BLECHKONSTRUKTION
1040
21.847187
1040
0.000000
1040
0.000000
1040
334.136292
1040
76.073366
  0
LINE
  8
0
 62
2
 10
351.306061
 20
0.000074
 11
326.186218
 21
153.899170
1001
BLECHKONSTRUKTION
1040
21.812489
1040
0.000000
1040
0.000000
1040
339.733093
1040
77.110714
  0
LINE
  8
0
 62
2
 10
351.306061
 20
0.000095
 11
337.074829
 21
157.221191
1001
BLECHKONSTRUKTION
1040
11.277187
1040
0.000000
1040
0.000000
1040
345.186371
1040
78.700790
  0
ENDSEC
  0
EOF
