ISO-10303-21;
HEADER;
FILE_DESCRIPTION(('STEP AP203'),'1');
FILE_NAME('C:/PROJEKT/019-001-ENERCON_Gitterbinder/02_Ausgang/04_Forum_2012-12-20/3D-Achsen.stp','2012-12-20T15:19:07',('CPU-PC1'),('TransMagic, Inc.'),'TMR8sp3','TransMagic R8',' ');
FILE_SCHEMA(('CONFIG_CONTROL_DESIGN'));
ENDSEC;
DATA;
#1=DESIGN_CONTEXT('',#49,'design');
#2=APPLICATION_PROTOCOL_DEFINITION('INTERNATIONAL STANDARD','config_control_design',1994,#49);
#3=PRODUCT_CATEGORY_RELATIONSHIP('NONE','NONE',#50,#51);
#4=DATE_AND_TIME(#52,#53);
#5=DATE_TIME_ROLE('creation_date');
#6=DATE_TIME_ROLE('classification_date');
#7=PERSON_AND_ORGANIZATION_ROLE('creator');
#8=PERSON_AND_ORGANIZATION_ROLE('design_supplier');
#9=PERSON_AND_ORGANIZATION_ROLE('classification_officer');
#10=PERSON_AND_ORGANIZATION_ROLE('design_owner');
#11=APPROVAL_PERSON_ORGANIZATION(#54,#55,#56);
#12=APPROVAL_DATE_TIME(#4,#55);
#13=CC_DESIGN_APPROVAL(#55,(#57,#58,#59));
#14=CC_DESIGN_DATE_AND_TIME_ASSIGNMENT(#4,#5,(#59));
#15=CC_DESIGN_DATE_AND_TIME_ASSIGNMENT(#4,#6,(#57));
#16=CC_DESIGN_PERSON_AND_ORGANIZATION_ASSIGNMENT(#54,#10,(#60));
#17=CC_DESIGN_PERSON_AND_ORGANIZATION_ASSIGNMENT(#54,#7,(#59));
#18=CC_DESIGN_PERSON_AND_ORGANIZATION_ASSIGNMENT(#54,#7,(#58));
#19=CC_DESIGN_PERSON_AND_ORGANIZATION_ASSIGNMENT(#54,#8,(#58));
#20=CC_DESIGN_SECURITY_CLASSIFICATION(#57,(#58));
#21=CC_DESIGN_PERSON_AND_ORGANIZATION_ASSIGNMENT(#54,#9,(#57));
#22=SHAPE_DEFINITION_REPRESENTATION(#61,#62);
#23=DESIGN_CONTEXT('',#63,'design');
#24=APPLICATION_PROTOCOL_DEFINITION('INTERNATIONAL STANDARD','config_control_design',1994,#63);
#25=PRODUCT_CATEGORY_RELATIONSHIP('NONE','NONE',#64,#65);
#26=DATE_AND_TIME(#66,#67);
#27=DATE_TIME_ROLE('creation_date');
#28=DATE_TIME_ROLE('classification_date');
#29=PERSON_AND_ORGANIZATION_ROLE('creator');
#30=PERSON_AND_ORGANIZATION_ROLE('design_supplier');
#31=PERSON_AND_ORGANIZATION_ROLE('classification_officer');
#32=PERSON_AND_ORGANIZATION_ROLE('design_owner');
#33=APPROVAL_PERSON_ORGANIZATION(#68,#69,#70);
#34=APPROVAL_DATE_TIME(#26,#69);
#35=CC_DESIGN_APPROVAL(#69,(#71,#72,#73));
#36=CC_DESIGN_DATE_AND_TIME_ASSIGNMENT(#26,#27,(#73));
#37=CC_DESIGN_DATE_AND_TIME_ASSIGNMENT(#26,#28,(#71));
#38=CC_DESIGN_PERSON_AND_ORGANIZATION_ASSIGNMENT(#68,#32,(#74));
#39=CC_DESIGN_PERSON_AND_ORGANIZATION_ASSIGNMENT(#68,#29,(#73));
#40=CC_DESIGN_PERSON_AND_ORGANIZATION_ASSIGNMENT(#68,#29,(#72));
#41=CC_DESIGN_PERSON_AND_ORGANIZATION_ASSIGNMENT(#68,#30,(#72));
#42=CC_DESIGN_SECURITY_CLASSIFICATION(#71,(#72));
#43=CC_DESIGN_PERSON_AND_ORGANIZATION_ASSIGNMENT(#68,#31,(#71));
#44=SHAPE_DEFINITION_REPRESENTATION(#75,#76);
#45= (GEOMETRIC_REPRESENTATION_CONTEXT(3)GLOBAL_UNCERTAINTY_ASSIGNED_CONTEXT((#79))GLOBAL_UNIT_ASSIGNED_CONTEXT((#81,#82,#83))REPRESENTATION_CONTEXT('NONE','WORKSPACE'));
#49=APPLICATION_CONTEXT('CONFIGURATION CONTROLLED 3D DESIGNS OF MECHANICAL PARTS AND ASSEMBLIES');
#50=PRODUCT_CATEGORY('part','NONE');
#51=PRODUCT_RELATED_PRODUCT_CATEGORY('detail',' ',(#60));
#52=CALENDAR_DATE(2012,20,11);
#53=LOCAL_TIME(16,19,7.0,#85);
#54=PERSON_AND_ORGANIZATION(#86,#87);
#55=APPROVAL(#88,'SOLID MODEL');
#56=APPROVAL_ROLE('APPROVED');
#57=SECURITY_CLASSIFICATION('','',#89);
#58=PRODUCT_DEFINITION_FORMATION_WITH_SPECIFIED_SOURCE(' ','NONE',#60,.NOT_KNOWN.);
#59=PRODUCT_DEFINITION('NONE','NONE',#58,#1);
#60=PRODUCT('1','1','PART-1-DESC',(#90));
#61=PRODUCT_DEFINITION_SHAPE('NONE','NONE',#59);
#62=ADVANCED_BREP_SHAPE_REPRESENTATION('1',(#91,#92),#45);
#63=APPLICATION_CONTEXT('CONFIGURATION CONTROLLED 3D DESIGNS OF MECHANICAL PARTS AND ASSEMBLIES');
#64=PRODUCT_CATEGORY('part','NONE');
#65=PRODUCT_RELATED_PRODUCT_CATEGORY('detail',' ',(#74));
#66=CALENDAR_DATE(2012,20,11);
#67=LOCAL_TIME(16,19,7.0,#93);
#68=PERSON_AND_ORGANIZATION(#94,#95);
#69=APPROVAL(#96,'SOLID MODEL');
#70=APPROVAL_ROLE('APPROVED');
#71=SECURITY_CLASSIFICATION('','',#97);
#72=PRODUCT_DEFINITION_FORMATION_WITH_SPECIFIED_SOURCE(' ','NONE',#74,.NOT_KNOWN.);
#73=PRODUCT_DEFINITION('NONE','NONE',#72,#23);
#74=PRODUCT('2','2','PART-2-DESC',(#98));
#75=PRODUCT_DEFINITION_SHAPE('NONE','NONE',#73);
#76=ADVANCED_BREP_SHAPE_REPRESENTATION('2',(#99,#100),#45);
#79=UNCERTAINTY_MEASURE_WITH_UNIT(LENGTH_MEASURE(3.93700787401575E-008),#81,'','');
#81= (CONVERSION_BASED_UNIT('INCH',#103)LENGTH_UNIT()NAMED_UNIT(#106));
#82= (NAMED_UNIT(#108)PLANE_ANGLE_UNIT()SI_UNIT($,.RADIAN.));
#83= (NAMED_UNIT(#108)SOLID_ANGLE_UNIT()SI_UNIT($,.STERADIAN.));
#85=COORDINATED_UNIVERSAL_TIME_OFFSET(1,0,.AHEAD.);
#86=PERSON('','UNSPECIFIED',$,$,$,$);
#87=ORGANIZATION('UNSPECIFIED','UNSPECIFIED','UNSPECIFIED');
#88=APPROVAL_STATUS('approved');
#89=SECURITY_CLASSIFICATION_LEVEL('unclassified');
#90=MECHANICAL_CONTEXT('',#49,'mechanical');
#91=MANIFOLD_SOLID_BREP('1',#114);
#92=AXIS2_PLACEMENT_3D('',#115,#116,#117);
#93=COORDINATED_UNIVERSAL_TIME_OFFSET(1,0,.AHEAD.);
#94=PERSON('','UNSPECIFIED',$,$,$,$);
#95=ORGANIZATION('UNSPECIFIED','UNSPECIFIED','UNSPECIFIED');
#96=APPROVAL_STATUS('approved');
#97=SECURITY_CLASSIFICATION_LEVEL('unclassified');
#98=MECHANICAL_CONTEXT('',#63,'mechanical');
#99=MANIFOLD_SOLID_BREP('2',#118);
#100=AXIS2_PLACEMENT_3D('',#119,#120,#121);
#103=LENGTH_MEASURE_WITH_UNIT(LENGTH_MEASURE(25.4),#122);
#106=DIMENSIONAL_EXPONENTS(1.0,0.0,0.0,0.0,0.0,0.0,0.0);
#108=DIMENSIONAL_EXPONENTS(0.0,0.0,0.0,0.0,0.0,0.0,0.0);
#114=CLOSED_SHELL('',(#123,#124,#125,#126,#127,#128));
#115=CARTESIAN_POINT('',(0.0,0.0,0.0));
#116=DIRECTION('',(0.0,0.0,1.0));
#117=DIRECTION('',(1.0,0.0,0.0));
#118=CLOSED_SHELL('',(#129,#130,#131,#132,#133,#134));
#119=CARTESIAN_POINT('',(0.0,0.0,0.0));
#120=DIRECTION('',(0.0,0.0,1.0));
#121=DIRECTION('',(1.0,0.0,0.0));
#122= (NAMED_UNIT(#106)LENGTH_UNIT()SI_UNIT(.MILLI.,.METRE.));
#123=ADVANCED_FACE('',(#136),#137,.T.);
#124=ADVANCED_FACE('',(#138),#139,.T.);
#125=ADVANCED_FACE('',(#140),#141,.T.);
#126=ADVANCED_FACE('',(#142),#143,.T.);
#127=ADVANCED_FACE('',(#144),#145,.F.);
#128=ADVANCED_FACE('',(#146),#147,.T.);
#129=ADVANCED_FACE('',(#148),#149,.T.);
#130=ADVANCED_FACE('',(#150),#151,.T.);
#131=ADVANCED_FACE('',(#152),#153,.T.);
#132=ADVANCED_FACE('',(#154),#155,.T.);
#133=ADVANCED_FACE('',(#156),#157,.F.);
#134=ADVANCED_FACE('',(#158),#159,.T.);
#136=FACE_OUTER_BOUND('',#160,.T.);
#137=PLANE('',#161);
#138=FACE_OUTER_BOUND('',#162,.T.);
#139=PLANE('',#163);
#140=FACE_OUTER_BOUND('',#164,.T.);
#141=PLANE('',#165);
#142=FACE_OUTER_BOUND('',#166,.T.);
#143=PLANE('',#167);
#144=FACE_OUTER_BOUND('',#168,.T.);
#145=PLANE('',#169);
#146=FACE_OUTER_BOUND('',#170,.T.);
#147=PLANE('',#171);
#148=FACE_OUTER_BOUND('',#172,.T.);
#149=PLANE('',#173);
#150=FACE_OUTER_BOUND('',#174,.T.);
#151=PLANE('',#175);
#152=FACE_OUTER_BOUND('',#176,.T.);
#153=PLANE('',#177);
#154=FACE_OUTER_BOUND('',#178,.T.);
#155=PLANE('',#179);
#156=FACE_OUTER_BOUND('',#180,.T.);
#157=PLANE('',#181);
#158=FACE_OUTER_BOUND('',#182,.T.);
#159=PLANE('',#183);
#160=EDGE_LOOP('',(#184,#185,#186,#187));
#161=AXIS2_PLACEMENT_3D('',#188,#189,#190);
#162=EDGE_LOOP('',(#191,#192,#193,#194));
#163=AXIS2_PLACEMENT_3D('',#195,#196,#197);
#164=EDGE_LOOP('',(#198,#199,#200,#201));
#165=AXIS2_PLACEMENT_3D('',#202,#203,#204);
#166=EDGE_LOOP('',(#205,#206,#207,#208));
#167=AXIS2_PLACEMENT_3D('',#209,#210,#211);
#168=EDGE_LOOP('',(#212,#213,#214,#215));
#169=AXIS2_PLACEMENT_3D('',#216,#217,#218);
#170=EDGE_LOOP('',(#219,#220,#221,#222));
#171=AXIS2_PLACEMENT_3D('',#223,#224,#225);
#172=EDGE_LOOP('',(#226,#227,#228,#229));
#173=AXIS2_PLACEMENT_3D('',#230,#231,#232);
#174=EDGE_LOOP('',(#233,#234,#235,#236));
#175=AXIS2_PLACEMENT_3D('',#237,#238,#239);
#176=EDGE_LOOP('',(#240,#241,#242,#243));
#177=AXIS2_PLACEMENT_3D('',#244,#245,#246);
#178=EDGE_LOOP('',(#247,#248,#249,#250));
#179=AXIS2_PLACEMENT_3D('',#251,#252,#253);
#180=EDGE_LOOP('',(#254,#255,#256,#257));
#181=AXIS2_PLACEMENT_3D('',#258,#259,#260);
#182=EDGE_LOOP('',(#261,#262,#263,#264));
#183=AXIS2_PLACEMENT_3D('',#265,#266,#267);
#184=ORIENTED_EDGE('',*,*,#268,.T.);
#185=ORIENTED_EDGE('',*,*,#269,.F.);
#186=ORIENTED_EDGE('',*,*,#270,.T.);
#187=ORIENTED_EDGE('',*,*,#271,.T.);
#188=CARTESIAN_POINT('',(-330.288434748313,-375.147794700667,-50.0));
#189=DIRECTION('',(-1.0,0.0,0.0));
#190=DIRECTION('',(0.0,-1.0,2.22044604925031E-016));
#191=ORIENTED_EDGE('',*,*,#272,.T.);
#192=ORIENTED_EDGE('',*,*,#273,.F.);
#193=ORIENTED_EDGE('',*,*,#274,.T.);
#194=ORIENTED_EDGE('',*,*,#269,.T.);
#195=CARTESIAN_POINT('',(-330.288434748313,-375.147794700667,50.0));
#196=DIRECTION('',(0.0,2.22044604925031E-016,1.0));
#197=DIRECTION('',(0.0,-1.0,2.22044604925031E-016));
#198=ORIENTED_EDGE('',*,*,#275,.T.);
#199=ORIENTED_EDGE('',*,*,#276,.F.);
#200=ORIENTED_EDGE('',*,*,#277,.T.);
#201=ORIENTED_EDGE('',*,*,#273,.T.);
#202=CARTESIAN_POINT('',(-230.288434748313,-375.147794700667,50.0));
#203=DIRECTION('',(1.0,0.0,0.0));
#204=DIRECTION('',(0.0,1.0,-2.22044604925031E-016));
#205=ORIENTED_EDGE('',*,*,#278,.T.);
#206=ORIENTED_EDGE('',*,*,#271,.F.);
#207=ORIENTED_EDGE('',*,*,#279,.T.);
#208=ORIENTED_EDGE('',*,*,#276,.T.);
#209=CARTESIAN_POINT('',(-230.288434748313,-375.147794700667,-50.0));
#210=DIRECTION('',(0.0,-2.22044604925031E-016,-1.0));
#211=DIRECTION('',(0.0,1.0,-2.22044604925031E-016));
#212=ORIENTED_EDGE('',*,*,#279,.F.);
#213=ORIENTED_EDGE('',*,*,#270,.F.);
#214=ORIENTED_EDGE('',*,*,#274,.F.);
#215=ORIENTED_EDGE('',*,*,#277,.F.);
#216=CARTESIAN_POINT('',(-280.288434748313,-375.147794700667,0.0));
#217=DIRECTION('',(0.0,-1.0,2.22044604925031E-016));
#218=DIRECTION('',(1.0,0.0,0.0));
#219=ORIENTED_EDGE('',*,*,#268,.F.);
#220=ORIENTED_EDGE('',*,*,#278,.F.);
#221=ORIENTED_EDGE('',*,*,#275,.F.);
#222=ORIENTED_EDGE('',*,*,#272,.F.);
#223=CARTESIAN_POINT('',(-280.288434748313,-1375.14779470067,2.27373675443232E-013));
#224=DIRECTION('',(0.0,-1.0,2.22044604925031E-016));
#225=DIRECTION('',(1.0,0.0,0.0));
#226=ORIENTED_EDGE('',*,*,#280,.T.);
#227=ORIENTED_EDGE('',*,*,#281,.F.);
#228=ORIENTED_EDGE('',*,*,#282,.T.);
#229=ORIENTED_EDGE('',*,*,#283,.T.);
#230=CARTESIAN_POINT('',(273.41454044626,-391.929168731597,3.34936490538903));
#231=DIRECTION('',(-0.866025403784439,0.0,0.5));
#232=DIRECTION('',(0.433012701892219,-0.5,0.75));
#233=ORIENTED_EDGE('',*,*,#284,.T.);
#234=ORIENTED_EDGE('',*,*,#285,.F.);
#235=ORIENTED_EDGE('',*,*,#286,.T.);
#236=ORIENTED_EDGE('',*,*,#281,.T.);
#237=CARTESIAN_POINT('',(298.41454044626,-305.326628353153,46.650635094611));
#238=DIRECTION('',(0.25,0.866025403784439,0.433012701892219));
#239=DIRECTION('',(0.433012701892219,-0.5,0.75));
#240=ORIENTED_EDGE('',*,*,#287,.T.);
#241=ORIENTED_EDGE('',*,*,#288,.F.);
#242=ORIENTED_EDGE('',*,*,#289,.T.);
#243=ORIENTED_EDGE('',*,*,#285,.T.);
#244=CARTESIAN_POINT('',(385.017080824704,-305.326628353153,-3.34936490538903));
#245=DIRECTION('',(0.866025403784439,0.0,-0.5));
#246=DIRECTION('',(-0.433012701892219,0.5,-0.75));
#247=ORIENTED_EDGE('',*,*,#290,.T.);
#248=ORIENTED_EDGE('',*,*,#283,.F.);
#249=ORIENTED_EDGE('',*,*,#291,.T.);
#250=ORIENTED_EDGE('',*,*,#288,.T.);
#251=CARTESIAN_POINT('',(360.017080824704,-391.929168731597,-46.650635094611));
#252=DIRECTION('',(-0.25,-0.866025403784439,-0.433012701892219));
#253=DIRECTION('',(-0.433012701892219,0.5,-0.75));
#254=ORIENTED_EDGE('',*,*,#291,.F.);
#255=ORIENTED_EDGE('',*,*,#282,.F.);
#256=ORIENTED_EDGE('',*,*,#286,.F.);
#257=ORIENTED_EDGE('',*,*,#289,.F.);
#258=CARTESIAN_POINT('',(329.215810635482,-348.627898542375,0.0));
#259=DIRECTION('',(0.433012701892219,-0.5,0.75));
#260=DIRECTION('',(0.866025403784439,0.0,-0.5));
#261=ORIENTED_EDGE('',*,*,#280,.F.);
#262=ORIENTED_EDGE('',*,*,#290,.F.);
#263=ORIENTED_EDGE('',*,*,#287,.F.);
#264=ORIENTED_EDGE('',*,*,#284,.F.);
#265=CARTESIAN_POINT('',(762.228512527701,-848.627898542375,750.0));
#266=DIRECTION('',(0.433012701892219,-0.5,0.75));
#267=DIRECTION('',(0.866025403784439,0.0,-0.5));
#268=EDGE_CURVE('',#292,#293,#294,.T.);
#269=EDGE_CURVE('',#295,#293,#296,.T.);
#270=EDGE_CURVE('',#295,#297,#298,.T.);
#271=EDGE_CURVE('',#297,#292,#299,.T.);
#272=EDGE_CURVE('',#293,#300,#301,.T.);
#273=EDGE_CURVE('',#302,#300,#303,.T.);
#274=EDGE_CURVE('',#302,#295,#304,.T.);
#275=EDGE_CURVE('',#300,#305,#306,.T.);
#276=EDGE_CURVE('',#307,#305,#308,.T.);
#277=EDGE_CURVE('',#307,#302,#309,.T.);
#278=EDGE_CURVE('',#305,#292,#310,.T.);
#279=EDGE_CURVE('',#297,#307,#311,.T.);
#280=EDGE_CURVE('',#312,#313,#314,.T.);
#281=EDGE_CURVE('',#315,#313,#316,.T.);
#282=EDGE_CURVE('',#315,#317,#318,.T.);
#283=EDGE_CURVE('',#317,#312,#319,.T.);
#284=EDGE_CURVE('',#313,#320,#321,.T.);
#285=EDGE_CURVE('',#322,#320,#323,.T.);
#286=EDGE_CURVE('',#322,#315,#324,.T.);
#287=EDGE_CURVE('',#320,#325,#326,.T.);
#288=EDGE_CURVE('',#327,#325,#328,.T.);
#289=EDGE_CURVE('',#327,#322,#329,.T.);
#290=EDGE_CURVE('',#325,#312,#330,.T.);
#291=EDGE_CURVE('',#317,#327,#331,.T.);
#292=VERTEX_POINT('',#332);
#293=VERTEX_POINT('',#333);
#294=LINE('',#334,#335);
#295=VERTEX_POINT('',#336);
#296=LINE('',#337,#338);
#297=VERTEX_POINT('',#339);
#298=LINE('',#340,#341);
#299=LINE('',#342,#343);
#300=VERTEX_POINT('',#344);
#301=LINE('',#345,#346);
#302=VERTEX_POINT('',#347);
#303=LINE('',#348,#349);
#304=LINE('',#350,#351);
#305=VERTEX_POINT('',#352);
#306=LINE('',#353,#354);
#307=VERTEX_POINT('',#355);
#308=LINE('',#356,#357);
#309=LINE('',#358,#359);
#310=LINE('',#360,#361);
#311=LINE('',#362,#363);
#312=VERTEX_POINT('',#364);
#313=VERTEX_POINT('',#365);
#314=LINE('',#366,#367);
#315=VERTEX_POINT('',#368);
#316=LINE('',#369,#370);
#317=VERTEX_POINT('',#371);
#318=LINE('',#372,#373);
#319=LINE('',#374,#375);
#320=VERTEX_POINT('',#376);
#321=LINE('',#377,#378);
#322=VERTEX_POINT('',#379);
#323=LINE('',#380,#381);
#324=LINE('',#382,#383);
#325=VERTEX_POINT('',#384);
#326=LINE('',#385,#386);
#327=VERTEX_POINT('',#387);
#328=LINE('',#388,#389);
#329=LINE('',#390,#391);
#330=LINE('',#392,#393);
#331=LINE('',#394,#395);
#332=CARTESIAN_POINT('',(-330.288434748313,-1375.14779470067,-49.9999999999998));
#333=CARTESIAN_POINT('',(-330.288434748313,-1375.14779470067,50.0000000000002));
#334=CARTESIAN_POINT('',(-330.288434748313,-1375.14779470067,50.0000000000002));
#335=VECTOR('',#396,25.4);
#336=CARTESIAN_POINT('',(-330.288434748313,-375.147794700667,50.0));
#337=CARTESIAN_POINT('',(-330.288434748313,-375.147794700667,50.0));
#338=VECTOR('',#397,25.4);
#339=CARTESIAN_POINT('',(-330.288434748313,-375.147794700667,-50.0));
#340=CARTESIAN_POINT('',(-330.288434748313,-375.147794700667,50.0));
#341=VECTOR('',#398,25.4);
#342=CARTESIAN_POINT('',(-330.288434748313,-375.147794700667,-50.0));
#343=VECTOR('',#399,25.4);
#344=CARTESIAN_POINT('',(-230.288434748313,-1375.14779470067,50.0000000000002));
#345=CARTESIAN_POINT('',(-230.288434748313,-1375.14779470067,50.0000000000002));
#346=VECTOR('',#400,25.4);
#347=CARTESIAN_POINT('',(-230.288434748313,-375.147794700667,50.0));
#348=CARTESIAN_POINT('',(-230.288434748313,-375.147794700667,50.0));
#349=VECTOR('',#401,25.4);
#350=CARTESIAN_POINT('',(-230.288434748313,-375.147794700667,50.0));
#351=VECTOR('',#402,25.4);
#352=CARTESIAN_POINT('',(-230.288434748313,-1375.14779470067,-49.9999999999998));
#353=CARTESIAN_POINT('',(-230.288434748313,-1375.14779470067,-49.9999999999998));
#354=VECTOR('',#403,25.4);
#355=CARTESIAN_POINT('',(-230.288434748313,-375.147794700667,-50.0));
#356=CARTESIAN_POINT('',(-230.288434748313,-375.147794700667,-50.0));
#357=VECTOR('',#404,25.4);
#358=CARTESIAN_POINT('',(-230.288434748313,-375.147794700667,-50.0));
#359=VECTOR('',#405,25.4);
#360=CARTESIAN_POINT('',(-330.288434748313,-1375.14779470067,-49.9999999999998));
#361=VECTOR('',#406,25.4);
#362=CARTESIAN_POINT('',(-330.288434748313,-375.147794700667,-50.0));
#363=VECTOR('',#407,25.4);
#364=CARTESIAN_POINT('',(706.427242338479,-891.929168731597,753.349364905389));
#365=CARTESIAN_POINT('',(731.427242338479,-805.326628353153,796.650635094611));
#366=CARTESIAN_POINT('',(731.427242338479,-805.326628353153,796.650635094611));
#367=VECTOR('',#408,25.4);
#368=CARTESIAN_POINT('',(298.41454044626,-305.326628353153,46.650635094611));
#369=CARTESIAN_POINT('',(298.41454044626,-305.326628353153,46.650635094611));
#370=VECTOR('',#409,25.4);
#371=CARTESIAN_POINT('',(273.41454044626,-391.929168731597,3.34936490538903));
#372=CARTESIAN_POINT('',(298.41454044626,-305.326628353153,46.650635094611));
#373=VECTOR('',#410,25.4);
#374=CARTESIAN_POINT('',(273.41454044626,-391.929168731597,3.34936490538903));
#375=VECTOR('',#411,25.4);
#376=CARTESIAN_POINT('',(818.029782716923,-805.326628353153,746.650635094611));
#377=CARTESIAN_POINT('',(818.029782716923,-805.326628353153,746.650635094611));
#378=VECTOR('',#412,25.4);
#379=CARTESIAN_POINT('',(385.017080824704,-305.326628353153,-3.34936490538903));
#380=CARTESIAN_POINT('',(385.017080824704,-305.326628353153,-3.34936490538903));
#381=VECTOR('',#413,25.4);
#382=CARTESIAN_POINT('',(385.017080824704,-305.326628353153,-3.34936490538903));
#383=VECTOR('',#414,25.4);
#384=CARTESIAN_POINT('',(793.029782716923,-891.929168731597,703.349364905389));
#385=CARTESIAN_POINT('',(793.029782716923,-891.929168731597,703.349364905389));
#386=VECTOR('',#415,25.4);
#387=CARTESIAN_POINT('',(360.017080824704,-391.929168731597,-46.650635094611));
#388=CARTESIAN_POINT('',(360.017080824704,-391.929168731597,-46.650635094611));
#389=VECTOR('',#416,25.4);
#390=CARTESIAN_POINT('',(360.017080824704,-391.929168731597,-46.650635094611));
#391=VECTOR('',#417,25.4);
#392=CARTESIAN_POINT('',(706.427242338479,-891.929168731597,753.349364905389));
#393=VECTOR('',#418,25.4);
#394=CARTESIAN_POINT('',(273.41454044626,-391.929168731597,3.34936490538903));
#395=VECTOR('',#419,25.4);
#396=DIRECTION('',(0.0,2.22044604925031E-016,1.0));
#397=DIRECTION('',(0.0,-1.0,2.22044604925031E-016));
#398=DIRECTION('',(0.0,-2.22044604925031E-016,-1.0));
#399=DIRECTION('',(0.0,-1.0,2.22044604925031E-016));
#400=DIRECTION('',(1.0,0.0,0.0));
#401=DIRECTION('',(0.0,-1.0,2.22044604925031E-016));
#402=DIRECTION('',(-1.0,0.0,0.0));
#403=DIRECTION('',(-0.0,-2.22044604925031E-016,-1.0));
#404=DIRECTION('',(0.0,-1.0,2.22044604925031E-016));
#405=DIRECTION('',(0.0,2.22044604925031E-016,1.0));
#406=DIRECTION('',(-1.0,0.0,0.0));
#407=DIRECTION('',(1.0,0.0,0.0));
#408=DIRECTION('',(0.25,0.866025403784439,0.433012701892219));
#409=DIRECTION('',(0.433012701892219,-0.5,0.75));
#410=DIRECTION('',(-0.25,-0.866025403784439,-0.433012701892219));
#411=DIRECTION('',(0.433012701892219,-0.5,0.75));
#412=DIRECTION('',(0.866025403784439,0.0,-0.5));
#413=DIRECTION('',(0.433012701892219,-0.5,0.75));
#414=DIRECTION('',(-0.866025403784439,0.0,0.5));
#415=DIRECTION('',(-0.25,-0.866025403784439,-0.433012701892219));
#416=DIRECTION('',(0.433012701892219,-0.5,0.75));
#417=DIRECTION('',(0.25,0.866025403784439,0.433012701892219));
#418=DIRECTION('',(-0.866025403784439,0.0,0.5));
#419=DIRECTION('',(0.866025403784439,0.0,-0.5));
ENDSEC;
END-ISO-10303-21;
