  0
SECTION
  2
HEADER
  9
$ACADVER
  1
AC1015
  9
$ACADMAINTVER
 70
    20
  9
$DWGCODEPAGE
  3
ANSI_1252
  9
$INSBASE
 10
0.0
 20
0.0
 30
0.0
  9
$EXTMIN
 10
8.995159694810551
 20
5.009863
 30
0.0
  9
$EXTMAX
 10
55.883713
 20
30.34051900319078
 30
0.0
  9
$LIMMIN
 10
0.0
 20
0.0
  9
$LIMMAX
 10
420.0
 20
297.0
  9
$ORTHOMODE
 70
     1
  9
$REGENMODE
 70
     1
  9
$FILLMODE
 70
     1
  9
$QTEXTMODE
 70
     0
  9
$MIRRTEXT
 70
     1
  9
$LTSCALE
 40
1.0
  9
$ATTMODE
 70
     1
  9
$TEXTSIZE
 40
0.0
  9
$TRACEWID
 40
1.0
  9
$TEXTSTYLE
  7
STANDARD
  9
$CLAYER
  8
0
  9
$CELTYPE
  6
BYLAYER
  9
$CECOLOR
 62
   256
  9
$CELTSCALE
 40
1.0
  9
$DISPSILH
 70
     0
  9
$DIMSCALE
 40
1.0
  9
$DIMASZ
 40
2.5
  9
$DIMEXO
 40
0.625
  9
$DIMDLI
 40
3.75
  9
$DIMRND
 40
0.0
  9
$DIMDLE
 40
0.0
  9
$DIMEXE
 40
1.25
  9
$DIMTP
 40
0.0
  9
$DIMTM
 40
0.0
  9
$DIMTXT
 40
2.5
  9
$DIMCEN
 40
2.5
  9
$DIMTSZ
 40
0.0
  9
$DIMTOL
 70
     0
  9
$DIMLIM
 70
     0
  9
$DIMTIH
 70
     0
  9
$DIMTOH
 70
     0
  9
$DIMSE1
 70
     0
  9
$DIMSE2
 70
     0
  9
$DIMTAD
 70
     1
  9
$DIMZIN
 70
     8
  9
$DIMBLK
  1

  9
$DIMASO
 70
     1
  9
$DIMSHO
 70
     1
  9
$DIMPOST
  1

  9
$DIMAPOST
  1

  9
$DIMALT
 70
     0
  9
$DIMALTD
 70
     3
  9
$DIMALTF
 40
0.03937
  9
$DIMLFAC
 40
1.0
  9
$DIMTOFL
 70
     1
  9
$DIMTVP
 40
0.0
  9
$DIMTIX
 70
     0
  9
$DIMSOXD
 70
     0
  9
$DIMSAH
 70
     0
  9
$DIMBLK1
  1

  9
$DIMBLK2
  1

  9
$DIMSTYLE
  2
STANDARD
  9
$DIMCLRD
 70
     0
  9
$DIMCLRE
 70
     0
  9
$DIMCLRT
 70
     0
  9
$DIMTFAC
 40
1.0
  9
$DIMGAP
 40
0.625
  9
$DIMJUST
 70
     0
  9
$DIMSD1
 70
     0
  9
$DIMSD2
 70
     0
  9
$DIMTOLJ
 70
     0
  9
$DIMTZIN
 70
     8
  9
$DIMALTZ
 70
     0
  9
$DIMALTTZ
 70
     0
  9
$DIMUPT
 70
     0
  9
$DIMDEC
 70
     2
  9
$DIMTDEC
 70
     2
  9
$DIMALTU
 70
     2
  9
$DIMALTTD
 70
     3
  9
$DIMTXSTY
  7
STANDARD
  9
$DIMAUNIT
 70
     0
  9
$DIMADEC
 70
     0
  9
$DIMALTRND
 40
0.0
  9
$DIMAZIN
 70
     0
  9
$DIMDSEP
 70
    46
  9
$DIMATFIT
 70
     3
  9
$DIMFRAC
 70
     0
  9
$DIMLDRBLK
  1

  9
$DIMLUNIT
 70
     2
  9
$DIMLWD
 70
    -2
  9
$DIMLWE
 70
    -2
  9
$DIMTMOVE
 70
     0
  9
$LUNITS
 70
     2
  9
$LUPREC
 70
     4
  9
$SKETCHINC
 40
1.0
  9
$FILLETRAD
 40
2.5
  9
$AUNITS
 70
     0
  9
$AUPREC
 70
     0
  9
$MENU
  1
.
  9
$ELEVATION
 40
0.0
  9
$PELEVATION
 40
0.0
  9
$THICKNESS
 40
0.0
  9
$LIMCHECK
 70
     0
  9
$CHAMFERA
 40
2.5
  9
$CHAMFERB
 40
2.5
  9
$CHAMFERC
 40
0.0
  9
$CHAMFERD
 40
0.0
  9
$SKPOLY
 70
     0
  9
$TDCREATE
 40
2440588.083321760
  9
$TDUCREATE
 40
2440587.999988426
  9
$TDUPDATE
 40
2460483.973819445
  9
$TDUUPDATE
 40
2460483.890486111
  9
$TDINDWG
 40
0.0071759259
  9
$TDUSRTIMER
 40
0.0071759259
  9
$USRTIMER
 70
     1
  9
$ANGBASE
 50
0.0
  9
$ANGDIR
 70
     0
  9
$PDMODE
 70
     0
  9
$PDSIZE
 40
0.0
  9
$PLINEWID
 40
0.0
  9
$SPLFRAME
 70
     0
  9
$SPLINETYPE
 70
     6
  9
$SPLINESEGS
 70
     8
  9
$HANDSEED
  5
1474
  9
$SURFTAB1
 70
     6
  9
$SURFTAB2
 70
     6
  9
$SURFTYPE
 70
     6
  9
$SURFU
 70
     6
  9
$SURFV
 70
     6
  9
$UCSBASE
  2

  9
$UCSNAME
  2

  9
$UCSORG
 10
0.0
 20
0.0
 30
0.0
  9
$UCSXDIR
 10
1.0
 20
0.0
 30
0.0
  9
$UCSYDIR
 10
0.0
 20
1.0
 30
0.0
  9
$UCSORTHOREF
  2

  9
$UCSORTHOVIEW
 70
     0
  9
$UCSORGTOP
 10
0.0
 20
0.0
 30
0.0
  9
$UCSORGBOTTOM
 10
0.0
 20
0.0
 30
0.0
  9
$UCSORGLEFT
 10
0.0
 20
0.0
 30
0.0
  9
$UCSORGRIGHT
 10
0.0
 20
0.0
 30
0.0
  9
$UCSORGFRONT
 10
0.0
 20
0.0
 30
0.0
  9
$UCSORGBACK
 10
0.0
 20
0.0
 30
0.0
  9
$PUCSBASE
  2

  9
$PUCSNAME
  2

  9
$PUCSORG
 10
0.0
 20
0.0
 30
0.0
  9
$PUCSXDIR
 10
1.0
 20
0.0
 30
0.0
  9
$PUCSYDIR
 10
0.0
 20
1.0
 30
0.0
  9
$PUCSORTHOREF
  2

  9
$PUCSORTHOVIEW
 70
     0
  9
$PUCSORGTOP
 10
0.0
 20
0.0
 30
0.0
  9
$PUCSORGBOTTOM
 10
0.0
 20
0.0
 30
0.0
  9
$PUCSORGLEFT
 10
0.0
 20
0.0
 30
0.0
  9
$PUCSORGRIGHT
 10
0.0
 20
0.0
 30
0.0
  9
$PUCSORGFRONT
 10
0.0
 20
0.0
 30
0.0
  9
$PUCSORGBACK
 10
0.0
 20
0.0
 30
0.0
  9
$USERI1
 70
     0
  9
$USERI2
 70
     0
  9
$USERI3
 70
     0
  9
$USERI4
 70
     0
  9
$USERI5
 70
     0
  9
$USERR1
 40
0.0
  9
$USERR2
 40
0.0
  9
$USERR3
 40
0.0
  9
$USERR4
 40
0.0
  9
$USERR5
 40
0.0
  9
$WORLDVIEW
 70
     1
  9
$SHADEDGE
 70
     3
  9
$SHADEDIF
 70
    70
  9
$TILEMODE
 70
     1
  9
$MAXACTVP
 70
    48
  9
$PINSBASE
 10
0.0
 20
0.0
 30
0.0
  9
$PLIMCHECK
 70
     0
  9
$PEXTMIN
 10
0.0
 20
0.0
 30
0.0
  9
$PEXTMAX
 10
55.883713
 20
30.340519
 30
2.0
  9
$PLIMMIN
 10
0.0
 20
0.0
  9
$PLIMMAX
 10
420.0
 20
297.0
  9
$UNITMODE
 70
     0
  9
$VISRETAIN
 70
     0
  9
$PLINEGEN
 70
     0
  9
$PSLTSCALE
 70
     1
  9
$TREEDEPTH
 70
  3020
  9
$CMLSTYLE
  2
STANDARD
  9
$CMLJUST
 70
     0
  9
$CMLSCALE
 40
20.0
  9
$PROXYGRAPHICS
 70
     1
  9
$MEASUREMENT
 70
     1
  9
$CELWEIGHT
370
    -1
  9
$ENDCAPS
280
     0
  9
$JOINSTYLE
280
     0
  9
$LWDISPLAY
290
     0
  9
$INSUNITS
 70
     0
  9
$HYPERLINKBASE
  1

  9
$STYLESHEET
  1

  9
$XEDIT
290
     1
  9
$CEPSNTYPE
380
     0
  9
$PSTYLEMODE
290
     1
  9
$FINGERPRINTGUID
  2
{19C190FF-9B18-294A-AF65-4F75B36FA6D5}
  9
$VERSIONGUID
  2
{040DC99F-4B33-9143-AA70-1AD6ABF9C2B7}
  9
$EXTNAMES
290
     1
  9
$PSVPSCALE
 40
0.0
  9
$OLESTARTUP
290
     0
  0
ENDSEC
  0
SECTION
  2
CLASSES
  0
CLASS
  1
IMAGE
  2
AcDbRasterImage
  3
ISM
 90
    34943
280
     0
281
     1
  0
CLASS
  1
DICTIONARYVAR
  2
AcDbDictionaryVar
  3
ObjectDBX Classes
 90
        0
280
     0
281
     0
  0
CLASS
  1
RASTERVARIABLES
  2
AcDbRasterVariables
  3
ISM
 90
    32768
280
     0
281
     0
  0
CLASS
  1
IMAGEDEF
  2
AcDbRasterImageDef
  3
ISM
 90
    32768
280
     0
281
     0
  0
CLASS
  1
IMAGEDEF_REACTOR
  2
AcDbRasterImageDefReactor
  3
ISM
 90
    32769
280
     0
281
     0
  0
CLASS
  1
IDBUFFER
  2
AcDbIdBuffer
  3
ObjectDBX Classes
 90
    32768
280
     0
281
     0
  0
CLASS
  1
SPATIAL_FILTER
  2
AcDbSpatialFilter
  3
ObjectDBX Classes
 90
    32768
280
     0
281
     0
  0
CLASS
  1
SORTENTSTABLE
  2
AcDbSortentsTable
  3
ObjectDBX Classes
 90
    32768
280
     0
281
     0
  0
CLASS
  1
LAYER_INDEX
  2
AcDbLayerIndex
  3
ObjectDBX Classes
 90
    32768
280
     0
281
     0
  0
CLASS
  1
SPATIAL_INDEX
  2
AcDbSpatialIndex
  3
ObjectDBX Classes
 90
    32768
280
     0
281
     0
  0
CLASS
  1
OBJECT_PTR
  2
CAseDLPNTableRecord
  3
ASE-LPNTableRecord
 90
    32769
280
     0
281
     0
  0
CLASS
  1
LAYOUT
  2
AcDbLayout
  3
ObjectDBX Classes
 90
        0
280
     0
281
     0
  0
CLASS
  1
PLOTSETTINGS
  2
AcDbPlotSettings
  3
ObjectDBX Classes
 90
    32768
280
     0
281
     0
  0
CLASS
  1
ACDBDICTIONARYWDFLT
  2
AcDbDictionaryWithDefault
  3
ObjectDBX Classes
 90
        0
280
     0
281
     0
  0
CLASS
  1
ACDBPLACEHOLDER
  2
AcDbPlaceHolder
  3
ObjectDBX Classes
 90
        0
280
     0
281
     0
  0
CLASS
  1
VBA_PROJECT
  2
AcDbVbaProject
  3
acad
 90
    32768
280
     0
281
     0
  0
CLASS
  1
WIPEOUT
  2
AcDbWipeout
  3
WipeOut|Product Desc: Object Enabler for WipeOut entity | Company: Autodesk, Inc. | WEB Address: www.autodesk.com
 90
    34943
280
     0
281
     1
  0
CLASS
  1
WIPEOUTVARIABLES
  2
AcDbWipeoutVariables
  3
"WipeOut|Product Desc:     WipeOut Dbx Application|Company:          Autodesk, Inc.|WEB Address:      www.autodesk.com"
 90
    32768
280
     0
281
     0
  0
CLASS
  1
RTEXT
  2
RText
  3
RText|AutoCAD Express Tool|expresstools@autodesk.com
 90
    35839
280
     0
281
     1
  0
CLASS
  1
ARCALIGNEDTEXT
  2
AcDbArcAlignedText
  3
ATEXT|AutoCAD Express Tool|expresstools@autodesk.com
 90
    32768
280
     0
281
     1
  0
CLASS
  1
MATERIAL
  2
AcDbMaterial
  3
ObjectDBX Classes
 90
     1153
280
     0
281
     0
  0
CLASS
  1
VISUALSTYLE
  2
AcDbVisualStyle
  3
ObjectDBX Classes
 90
     4095
280
     0
281
     0
  0
CLASS
  1
TABLESTYLE
  2
AcDbTableStyle
  3
ObjectDBX Classes
 90
     4095
280
     0
281
     0
  0
CLASS
  1
SCALE
  2
AcDbScale
  3
ObjectDBX Classes
 90
     1153
280
     0
281
     0
  0
CLASS
  1
MLEADERSTYLE
  2
AcDbMLeaderStyle
  3
ACDB_MLEADERSTYLE_CLASS
 90
     4095
280
     0
281
     0
  0
CLASS
  1
ACDBSECTIONVIEWSTYLE
  2
AcDbSectionViewStyle
  3
ObjectDBX Classes
 90
     1025
280
     0
281
     0
  0
CLASS
  1
ACDBDETAILVIEWSTYLE
  2
AcDbDetailViewStyle
  3
ObjectDBX Classes
 90
     1025
280
     0
281
     0
  0
CLASS
  1
CELLSTYLEMAP
  2
AcDbCellStyleMap
  3
ObjectDBX Classes
 90
     1152
280
     0
281
     0
  0
ENDSEC
  0
SECTION
  2
TABLES
  0
TABLE
  2
VPORT
  5
7
330
0
100
AcDbSymbolTable
 70
     1
  0
VPORT
  5
15
330
7
100
AcDbSymbolTableRecord
100
AcDbViewportTableRecord
  2
*ACTIVE
 70
     0
 10
0.0
 20
0.0
 11
1.0
 21
1.0
 12
32.43943634740528
 22
17.67519100159539
 13
0.0
 23
0.0
 14
1.0
 24
1.0
 15
0.0
 25
0.0
 16
0.0
 26
0.0
 36
1.0
 17
0.0
 27
0.0
 37
0.0
 40
25.49804210290874
 41
1.87012987012987
 42
50.0
 43
0.0
 44
0.0
 50
0.0
 51
0.0
 71
     0
 72
   100
 73
     1
 74
     1
 75
     0
 76
     0
 77
     0
 78
     0
281
     0
 65
     1
110
0.0
120
0.0
130
0.0
111
1.0
121
0.0
131
0.0
112
0.0
122
1.0
132
0.0
 79
     0
146
0.0
1001
ACAD_NAV_VCDISPLAY
1070
     3
  0
ENDTAB
  0
TABLE
  2
LTYPE
  5
4
330
0
100
AcDbSymbolTable
 70
     2
  0
LTYPE
  5
11
330
4
100
AcDbSymbolTableRecord
100
AcDbLinetypeTableRecord
  2
BYBLOCK
 70
     0
  3

 72
    65
 73
     0
 40
0.0
  0
LTYPE
  5
12
330
4
100
AcDbSymbolTableRecord
100
AcDbLinetypeTableRecord
  2
BYLAYER
 70
     0
  3

 72
    65
 73
     0
 40
0.0
  0
LTYPE
  5
13
330
4
100
AcDbSymbolTableRecord
100
AcDbLinetypeTableRecord
  2
CONTINUOUS
 70
     0
  3
Solid line
 72
    65
 73
     0
 40
0.0
  0
ENDTAB
  0
TABLE
  2
LAYER
  5
2
330
0
100
AcDbSymbolTable
 70
     1
  0
LAYER
  5
14
102
{ACAD_XDICTIONARY
360
6D2
102
}
330
2
100
AcDbSymbolTableRecord
100
AcDbLayerTableRecord
  2
0
 70
     0
 62
     7
  6
CONTINUOUS
370
    -3
390
656
  0
ENDTAB
  0
TABLE
  2
STYLE
  5
3
330
0
100
AcDbSymbolTable
 70
     1
  0
STYLE
  5
17
330
3
100
AcDbSymbolTableRecord
100
AcDbTextStyleTableRecord
  2
STANDARD
 70
     0
 40
0.0
 41
1.0
 50
0.0
 71
     0
 42
0.0
  3
txt
  4

  0
ENDTAB
  0
TABLE
  2
VIEW
  5
5
330
0
100
AcDbSymbolTable
 70
     0
  0
ENDTAB
  0
TABLE
  2
UCS
  5
6
330
0
100
AcDbSymbolTable
 70
     0
  0
ENDTAB
  0
TABLE
  2
APPID
  5
8
330
0
100
AcDbSymbolTable
 70
     5
  0
APPID
  5
16
330
8
100
AcDbSymbolTableRecord
100
AcDbRegAppTableRecord
  2
ACAD
 70
     0
  0
APPID
  5
6C9
330
8
100
AcDbSymbolTableRecord
100
AcDbRegAppTableRecord
  2
ACAD_EXEMPT_FROM_CAD_STANDARDS
 70
     0
  0
APPID
  5
6D6
330
8
100
AcDbSymbolTableRecord
100
AcDbRegAppTableRecord
  2
DCO15
 70
     0
  0
APPID
  5
6E2
330
8
100
AcDbSymbolTableRecord
100
AcDbRegAppTableRecord
  2
ACAD_NAV_VCDISPLAY
 70
     0
  0
APPID
  5
146B
330
8
100
AcDbSymbolTableRecord
100
AcDbRegAppTableRecord
  2
ACAD_MLEADERVER
 70
     0
  0
ENDTAB
  0
TABLE
  2
DIMSTYLE
  5
9
330
0
100
AcDbSymbolTable
 70
     2
100
AcDbDimStyleTable
 71
     0
  0
DIMSTYLE
105
18
330
9
100
AcDbSymbolTableRecord
100
AcDbDimStyleTableRecord
  2
STANDARD
 70
     0
340
17
  0
ENDTAB
  0
TABLE
  2
BLOCK_RECORD
  5
1
330
0
100
AcDbSymbolTable
 70
     1
  0
BLOCK_RECORD
  5
A
330
1
100
AcDbSymbolTableRecord
100
AcDbBlockTableRecord
  2
*MODEL_SPACE
340
6A6
  0
BLOCK_RECORD
  5
B
330
1
100
AcDbSymbolTableRecord
100
AcDbBlockTableRecord
  2
*PAPER_SPACE
340
6A7
  0
ENDTAB
  0
ENDSEC
  0
SECTION
  2
BLOCKS
  0
BLOCK
  5
D
330
A
100
AcDbEntity
  8
0
100
AcDbBlockBegin
  2
*MODEL_SPACE
 70
     0
 10
0.0
 20
0.0
 30
0.0
  3
*MODEL_SPACE
  1

  0
ENDBLK
  5
E
330
A
100
AcDbEntity
  8
0
100
AcDbBlockEnd
  0
BLOCK
  5
F
330
B
100
AcDbEntity
 67
     1
  8
0
100
AcDbBlockBegin
  2
*PAPER_SPACE
 70
     0
 10
0.0
 20
0.0
 30
0.0
  3
*PAPER_SPACE
  1

  0
ENDBLK
  5
10
330
B
100
AcDbEntity
 67
     1
  8
0
100
AcDbBlockEnd
  0
ENDSEC
  0
SECTION
  2
ENTITIES
  0
LWPOLYLINE
  5
2E8
330
A
100
AcDbEntity
  8
0
 62
     7
100
AcDbPolyline
 90
        4
 70
     1
 43
0.0
 10
27.893812
 20
14.470551
 10
30.384077
 20
14.470551
 10
30.378811
 20
15.145551
 10
27.893812
 20
15.150629
  0
LWPOLYLINE
  5
6AB
330
A
100
AcDbEntity
  8
0
 62
     7
100
AcDbPolyline
 90
        5
 70
     1
 43
0.0
 10
31.33920475272649
 20
6.578451121373333
 42
0.3586466470600238
 10
32.40760004774216
 20
5.770983290276672
 42
-0.971886507333413
 10
32.47377549192633
 20
5.013431587907748
 42
-2.477940684596738
 10
34.37582478242248
 20
6.920506098867779
 42
-0.4092621714614311
 10
34.02792698178149
 20
6.57845
  0
LWPOLYLINE
  5
6AC
330
A
100
AcDbEntity
  8
0
 62
     7
100
AcDbPolyline
 90
        2
 70
     1
 43
0.0
 10
33.54232341844268
 20
7.317551401494192
 42
0.7673170746840721
 10
31.33920659186092
 20
7.317551439945835
  0
LWPOLYLINE
  5
6AD
330
A
100
AcDbEntity
  8
0
 62
     7
100
AcDbPolyline
 90
        2
 70
     1
 43
0.0
 10
29.36355172924802
 20
7.317551189211734
 42
0.751478664138595
 10
27.12191023109374
 20
7.317551052277647
  0
LWPOLYLINE
  5
6AE
330
A
100
AcDbEntity
  8
0
 62
     7
100
AcDbPolyline
 90
        5
 70
     1
 43
0.0
 10
26.6378896797127
 20
6.575426989059922
 42
-0.3639780860934618
 10
26.29432257189522
 20
6.954234498702067
 42
-2.51994668300735
 10
28.12223046008955
 20
5.01678721954549
 42
-0.8807222427333678
 10
28.26216928185809
 20
5.75261605782296
 42
0.3121293011788262
 10
29.35748809570907
 20
6.575427028025848
  0
LWPOLYLINE
  5
6AF
330
A
100
AcDbEntity
  8
0
 62
     7
 48
0.064533
100
AcDbPolyline
 90
        4
 70
     1
 43
0.0
 10
25.983419
 20
6.948836999999999
 42
-4.417163729114554
 10
25.27494
 20
8.444167
 10
25.27494279069178
 20
9.530148286770646
 42
-0.8704187834220064
 10
25.990669
 20
9.530148999999999
  0
LWPOLYLINE
  5
6B0
330
A
100
AcDbEntity
  8
0
 62
     7
100
AcDbPolyline
 90
        4
 70
     1
 43
0.0
 10
20.76023150837031
 20
5.264107399401781
 42
0.6665259133818193
 10
21.488428
 20
5.264105999999999
 10
21.48842714254175
 20
8.391370455990628
 42
0.6362310635691499
 10
20.76023085151326
 20
8.391370443281205
  0
LWPOLYLINE
  5
6B1
330
A
100
AcDbEntity
  8
0
 62
     7
100
AcDbPolyline
 90
       32
 70
     1
 43
0.0
 10
41.38065940019146
 20
7.881190376541141
 42
0.0522719882077706
 10
41.32941898281011
 20
7.830517064207315
 42
0.0572409516409112
 10
41.291576
 20
7.771755
 10
41.26881
 20
7.725550999999999
 10
41.26615499999999
 20
6.500587999999999
 10
41.26497425897537
 20
5.559800202421167
 42
0.0139169888364881
 10
41.27142398527649
 20
5.325087672055089
 42
0.0619269653922724
 10
41.29305132439973
 20
5.205546962132254
 42
0.1078149827591758
 10
41.34269159321705
 20
5.118348224932507
 42
0.0432079798820125
 10
41.39104469779538
 20
5.073110572737647
 42
0.0628879719567776
 10
41.4410618361028
 20
5.043116921728545
 42
0.0622090853527805
 10
41.497381992102
 20
5.02629529482294
 42
0.0412079665575971
 10
41.56471519280812
 20
5.020648602431547
 42
0.014874007230825
 10
41.60792970625346
 20
5.021880484481759
 42
0.0406620262010334
 10
41.63817704409958
 20
5.026124812084756
 42
0.0427619718061901
 10
41.66646571445769
 20
5.035071171362256
 42
0.0179280488047859
 10
41.70285159607258
 20
5.051648757582584
 42
0.0485330026126528
 10
41.75170341763197
 20
5.082306893049263
 42
0.0426990339712566
 10
41.79605491699573
 20
5.123025698530499
 42
0.0435750579738673
 10
41.83192596919625
 20
5.16966227818942
 42
0.0571520295033762
 10
41.85549333272335
 20
5.217909613912756
 42
0.0810991071932292
 10
41.86312801507802
 20
5.260295550355627
 42
0.0014919041881625
 10
41.86621017349193
 20
5.488575484799177
 42
0.0022339858890128
 10
41.86829799999999
 20
5.834855999999999
 10
41.868813
 20
6.485551
 10
41.868813
 20
7.715550999999999
 10
41.84743910713836
 20
7.761775923732798
 42
0.0837829990102888
 10
41.78829161534319
 20
7.848184643275295
 42
0.0803790111292742
 10
41.7032854024306
 20
7.911858041849259
 42
0.0819209967647032
 10
41.60407619469636
 20
7.944630310936416
 42
0.0922960097387552
 10
41.50381166457299
 20
7.941770963217254
 42
0.0628429747696844
 10
41.44051138560128
 20
7.919515704950428
 42
0.0529920363518339
  0
LWPOLYLINE
  5
6B2
330
A
100
AcDbEntity
  8
0
 62
     7
100
AcDbPolyline
 90
       38
 70
     1
 43
0.0
 10
13.34957075266624
 20
7.91170907925768
 42
0.0552140214597177
 10
13.2931154770851
 20
7.872747945087033
 42
0.0545749909379705
 10
13.24600275723907
 20
7.821913012040524
 42
0.0512899968560528
 10
13.20986833652895
 20
7.76105762895852
 42
0.0955090384664263
 10
13.19625251936453
 20
7.706118346919744
 42
0.0090110341084969
 10
13.19144890332774
 20
7.566713756287799
 42
0.0038950011753918
 10
13.189166
 20
7.303271
 10
13.188812
 20
6.480551
 10
13.188812
 20
5.245550999999999
 10
13.21051209022242
 20
5.198587319327979
 42
0.0514480115923987
 10
13.23608884845807
 20
5.155497703945454
 42
0.0326479970689266
 10
13.27389574968908
 20
5.110950026677054
 42
0.0327030117997153
 10
13.31703312881563
 20
5.071844119903998
 42
0.0529370442721449
 10
13.35881177602679
 20
5.045343012441982
 42
0.0412490121755882
 10
13.38341545199374
 20
5.035600462054603
 42
0.0372689200372296
 10
13.41013171440947
 20
5.029625939114479
 42
0.0269910042427085
 10
13.4443420294505
 20
5.026481996525967
 42
0.0094089898466933
 10
13.49381154178742
 20
5.025551000000699
 42
0.0081949886121624
 10
13.54948813753405
 20
5.026464648597367
 42
0.0395409683396855
 10
13.5809304165688
 20
5.029995507696031
 42
0.0564229876219921
 10
13.60596660330408
 20
5.037837044829105
 42
0.0287899306701097
 10
13.63532164288688
 20
5.052893152452005
 42
0.027299028586578
 10
13.65603823071171
 20
5.066643861320573
 42
0.0148260742848589
 10
13.67999078457035
 20
5.085630668876529
 42
0.0147319979477419
 10
13.70328186477995
 20
5.106449852884477
 42
0.0225470114135238
 10
13.72207172903695
 20
5.125947528183702
 42
0.1116479332014987
 10
13.76707771191906
 20
5.208444468403885
 42
0.0560910127668709
 10
13.78666731725575
 20
5.326114912865287
 42
0.0127999619621466
 10
13.793023
 20
5.558741999999999
 10
13.793812
 20
6.480551
 10
13.79298071077943
 20
7.414698165655702
 42
0.0143579994991908
 10
13.78604480049341
 20
7.642071982939412
 42
0.0655169995539242
 10
13.7637299442172
 20
7.758060472555975
 42
0.10527699807418
 10
13.7129519082984
 20
7.844588867936001
 42
0.0659290068536608
 10
13.64859038874099
 20
7.898653183485898
 42
0.0666910068311816
 10
13.57261443642681
 20
7.93384756169063
 42
0.068357997595995
 10
13.49181961551138
 20
7.947227834460539
 42
0.0757149827170702
 10
13.41331757153217
 20
7.937481227199907
 42
0.0548219849530802
  0
LWPOLYLINE
  5
6B3
330
A
100
AcDbEntity
  8
0
 62
     7
100
AcDbPolyline
 90
       26
 70
     1
 43
0.0
 10
51.0788142476149
 20
7.51605382135504
 42
0.015477013353965
 10
51.02726295379667
 20
7.529400036313101
 42
0.0222050087993813
 10
50.98082235282753
 20
7.537754071378393
 42
0.0190669734807287
 10
50.92886194794552
 20
7.542726749272715
 42
0.0080519843499269
 10
50.85881113532324
 20
7.545614009554703
 42
0.005078004928881
 10
50.76540747570506
 20
7.547012162658703
 42
0.0256750039975925
 10
50.71334960558406
 20
7.544586366189099
 42
0.0292329885814424
 10
50.66480938704035
 20
7.536936084206057
 42
0.0078570100091846
 10
50.58880801725841
 20
7.519102293322613
 42
0.0589389906752231
 10
50.39104087627659
 20
7.443767977898137
 42
0.0553929659182928
 10
50.21175832897602
 20
7.323111753007227
 42
0.0546310036153809
 10
50.06117456601198
 20
7.164238408485596
 42
0.0542139735800165
 10
49.94812843909155
 20
6.976127301974592
 42
0.0050719833878771
 10
49.93497821283852
 20
6.946902093604311
 42
0.0071310431398507
 10
49.92389105899135
 20
6.920547149117243
 42
0.0044600090359666
 10
49.91511666110676
 20
6.898268597873595
 42
0.0917959870344531
 10
49.91381200000001
 20
6.89120500757232
 42
0.4104410093802661
 10
49.91926279991741
 20
6.88568445912539
 10
50.132107
 20
6.88308
 42
0.0022369660536036
 10
50.40902841822346
 20
6.881105601498816
 10
50.83356099999999
 20
6.880550999999999
 10
51.75331899999999
 20
6.880550999999999
 10
51.744656
 20
6.903050999999999
 42
0.0542319989495983
 10
51.63521214516507
 20
7.115434103485632
 42
0.060703002309858
 10
51.4860775738613
 20
7.290550863203312
 42
0.0607289984770953
 10
51.29931690637366
 20
7.424669114203472
 42
0.0543539807310786
  0
LWPOLYLINE
  5
6B4
330
A
100
AcDbEntity
  8
0
 62
     7
100
AcDbPolyline
 90
       74
 70
     1
 43
0.0
 10
50.3953393938609
 20
8.089575417393408
 42
0.0364990041129722
 10
50.16371791519097
 20
8.000892423438145
 42
0.0371539926297531
 10
49.95136498444134
 20
7.881300543199862
 42
0.0403810082120186
 10
49.7652883226479
 20
7.734513606872832
 42
0.0213139760840516
 10
49.68825160872276
 20
7.656567331281497
 42
0.0137409910893049
 10
49.60551039341782
 20
7.560201759801143
 42
0.0137820010016996
 10
49.52880440920807
 20
7.460215961359535
 42
0.0227850132752672
 10
49.47038329257324
 20
7.371293236313591
 42
0.0894530339206457
 10
49.28182061902939
 20
6.866187914932711
 42
0.0860479800920261
 10
49.27789047188105
 20
6.319841360540291
 42
0.0863279620702626
 10
49.4579197301623
 20
5.805554123228075
 42
0.0908500487189851
 10
49.79881105805795
 20
5.392638681606714
 42
0.0432960609486712
 10
50.03444788703075
 20
5.226929523169858
 42
0.0430529904781799
 10
50.29552893868501
 20
5.103915282655642
 42
0.0443799649574286
 10
50.56552216266578
 20
5.030481698682812
 42
0.0535169669379865
 10
50.82759608780982
 20
5.012124096124901
 42
0.0080400367977826
 10
50.88540497818164
 20
5.015196935693275
 42
0.0343720607736225
 10
50.91959532774049
 20
5.019940283983893
 42
0.0495609815162257
 10
50.94636454187279
 20
5.028386227424602
 42
0.0313639924623708
 10
50.97561197481606
 20
5.043146289500668
 42
0.0616580037343583
 10
51.04064882185598
 20
5.092924263474402
 42
0.0739560568223871
 10
51.08705261852543
 20
5.154381184413622
 42
0.0717030349422625
 10
51.11452937233856
 20
5.228291851447994
 42
0.0535899690271398
 10
51.12371266618161
 20
5.314833471671026
 42
0.0435670011028782
 10
51.11833433760718
 20
5.375491266746807
 42
0.0545130005886258
 10
51.10248951905928
 20
5.429692499702143
 42
0.055583004726798
 10
51.07561667190657
 20
5.478357433914584
 42
0.0480939898754238
 10
51.03750542135228
 20
5.522558536133862
 42
0.0480710032281936
 10
50.99114973067143
 20
5.559062264744992
 42
0.0574170037638638
 10
50.94125655022128
 20
5.583548006925575
 42
0.0461060046773483
 10
50.87872921280501
 20
5.599474672642086
 42
0.0189830189472083
 10
50.79182960145785
 20
5.609888041219196
 42
-0.0124549120786279
 10
50.69791115495469
 20
5.619904605933246
 42
-0.0206069337479471
 10
50.61937111818888
 20
5.633576145389672
 42
-0.022372966693755
 10
50.54700161586902
 20
5.65269600783285
 42
-0.0187749277390247
 10
50.47219554549011
 20
5.679208369783503
 42
-0.0454139185930252
 10
50.313775770619
 20
5.759459922792366
 42
-0.0472819392845344
 10
50.17474366545833
 20
5.866067570634541
 42
-0.046475989670954
 10
50.05622036296224
 20
5.998696772461435
 42
-0.0411630049157722
 10
49.9587404083494
 20
6.156240631522432
 42
-0.0055360140483907
 10
49.94152730459033
 20
6.190913443343667
 42
-0.0077950121172157
 10
49.92700895957532
 20
6.222233407054813
 42
-0.0049109858428617
 10
49.91553640922389
 20
6.248731089553094
 42
-0.1000460240381724
 10
49.913815
 20
6.25725299703266
 42
-0.4094130124280468
 10
49.921413
 20
6.26498
 10
50.13426615172773
 20
6.26820099620836
 42
-0.0024620056872128
 10
50.44510999999999
 20
6.270980999999999
 10
51.041313
 20
6.272882
 10
52.168812
 20
6.275551
 10
52.2161730666259
 20
6.299086566099892
 42
0.0644929775388596
 10
52.28542475981082
 20
6.345454820744981
 42
0.0610229938517861
 10
52.34205939471663
 20
6.408725060983404
 42
0.0611570098262123
 10
52.38163943676991
 20
6.483651804102759
 42
0.0653480732864156
 10
52.40080023416782
 20
6.564267167991349
 42
0.0514780407628374
 10
52.40079867110649
 20
6.687699591565353
 42
0.0205660058922851
 10
52.37650365272226
 20
6.855244681284088
 42
0.0206719967834623
 10
52.33693087847703
 20
7.026971309911595
 42
0.0344809935520449
 10
52.28793203676149
 20
7.16693290864272
 42
0.0206580019956934
 10
52.21565098253172
 20
7.317720664799896
 42
0.0269959907885187
 10
52.13674641368542
 20
7.448673942740127
 42
0.0268070094977917
 10
52.04372658591315
 20
7.571071754103183
 42
0.0199240114639932
 10
51.92881106734269
 20
7.69609097570479
 42
0.0267940018219076
 10
51.79265500797932
 20
7.818942310479576
 42
0.0310089966220937
 10
51.65037082934333
 20
7.920202275719988
 42
0.0311620002642268
 10
51.49727934659267
 20
8.002683329275356
 42
0.0275639942691765
 10
51.3288123072316
 20
8.069342649361303
 42
0.0161919747444295
 10
51.21020595830023
 20
8.104644278343769
 42
0.0245010114511751
 10
51.10484324684112
 20
8.12687114515136
 42
0.0230000020964638
 10
50.99305472371233
 20
8.139546820470101
 42
0.0122169962275881
 10
50.85381523001365
 20
8.145468164050553
 42
0.0025250081016274
 10
50.78076638975324
 20
8.146418171968178
 42
0.0033559927713393
 10
50.71434263788368
 20
8.14650203168976
 42
0.0023860092416831
 10
50.65869820618782
 20
8.145931278125114
 42
0.0336179934585331
 10
50.63881341425637
 20
8.144292742388682
 42
0.0358350075585051
  0
LWPOLYLINE
  5
6B5
330
A
100
AcDbEntity
  8
0
 62
     7
100
AcDbPolyline
 90
       34
 70
     1
 43
0.0
 10
16.68287693968471
 20
7.496856366608735
 42
0.0236820118205375
 10
16.60881333174136
 20
7.520819906001061
 42
0.0377629928507521
 10
16.51296456799542
 20
7.539259580575029
 42
0.022227993034461
 10
16.39651379411272
 20
7.547438105283889
 42
0.0222370033848729
 10
16.27995796214534
 20
7.545247118512492
 42
0.0382110012019172
 10
16.18381333892919
 20
7.531734074359814
 42
0.0200860079174592
 10
16.10313903014677
 20
7.510599705061701
 42
0.0184229912912161
 10
16.02202110479259
 20
7.482523553334964
 42
0.0187029600047704
 10
15.94457611885366
 20
7.449098342418768
 42
0.0228060073998221
 10
15.87494241113066
 20
7.411916398993414
 42
0.0337220019600177
 10
15.80878012135904
 20
7.366315070166077
 42
0.0177760345557166
 10
15.73284549964785
 20
7.30151198951756
 42
0.017671993348863
 10
15.66004630927021
 20
7.229878006378863
 42
0.0275419820590071
 10
15.60316597728805
 20
7.162764618000684
 42
0.0252909917877248
 10
15.56556770999723
 20
7.107499067532564
 42
0.0102459822802881
 10
15.5197840411915
 20
7.028701575754656
 42
0.0093499794370212
 10
15.47834501602389
 20
6.950472895117502
 42
0.0433550020656288
 10
15.45930401272223
 20
6.903052461371314
 10
15.452464
 20
6.880550999999999
 10
16.373138
 20
6.880550999999999
 10
16.72617
 20
6.881008
 42
0.0010770561878542
 10
17.02336295283346
 20
6.882420368111567
 10
17.291222
 20
6.884284
 42
0.4121419932771226
 10
17.293812
 20
6.886893997950895
 42
0.1167659966956132
 10
17.28811408169498
 20
6.910951724666666
 42
0.0035229965768568
 10
17.2410172830886
 20
7.003212658753281
 42
0.0073150060774356
 10
17.1935875116761
 20
7.09135035828453
 42
0.0278759932646805
 10
17.16021329121551
 20
7.144109664710764
 42
0.0301810016362692
 10
17.11157088970149
 20
7.204242868671505
 42
0.016156007191933
 10
17.04485280237508
 20
7.272666162210335
 42
0.0161500016927627
 10
16.9735926266484
 20
7.336877869295452
 42
0.0291510061125396
 10
16.91071135350151
 20
7.383973764457816
 42
0.0234270174454881
 10
16.84353036358769
 20
7.424034763575109
 42
0.0163189940924763
 10
16.76433954530527
 20
7.463093171144597
 42
0.0163310051578936
  0
LWPOLYLINE
  5
6B6
330
A
100
AcDbEntity
  8
0
 62
     7
100
AcDbPolyline
 90
       67
 70
     1
 43
0.0
 10
15.72028991982542
 20
8.008004409519381
 42
0.0681690357279675
 10
15.35290476122994
 20
7.773144579284587
 42
0.0685019864164261
 10
15.06364934718522
 20
7.449332709438559
 42
0.0691299617789981
 10
14.8737169924631
 20
7.060375271999411
 42
0.0213820138315683
 10
14.84225452207952
 20
6.948203723371715
 42
0.0207790270581654
 10
14.82013903270316
 20
6.832680458489715
 42
0.0199059881574495
 10
14.80697642054584
 20
6.711055694911151
 42
0.0163739648319763
 10
14.80237692655656
 20
6.580551104778812
 42
0.0217129902302936
 10
14.8091755092273
 20
6.41453213750795
 42
0.0276609819311478
 10
14.83050495816062
 20
6.262799282451091
 42
0.0277969864866541
 10
14.86834353579234
 20
6.114950983901633
 42
0.0222880184505118
 10
14.92479777695058
 20
5.960632161771976
 42
0.0739749963407447
 10
15.14689557229185
 20
5.592575916649438
 42
0.0686199553732473
 10
15.47160154714334
 20
5.294211923612226
 42
0.06843395895262
 10
15.86583377947384
 20
5.094221776305936
 42
0.0728470700204169
 10
16.29104873952029
 20
5.013600469748559
 42
0.0151019809793431
 10
16.4007711386062
 20
5.012314864819011
 42
0.0591849685092592
 10
16.46775436682965
 20
5.021528242083221
 42
0.0803339411871422
 10
16.51988634437084
 20
5.044511873025606
 42
0.0441400017203296
 10
16.57495474209772
 20
5.087588302610101
 42
0.0472699351930573
 10
16.61672598873488
 20
5.134803031848674
 42
0.0586329053564617
 10
16.64548515310681
 20
5.18589197700693
 42
0.0567929924838295
 10
16.66221154126416
 20
5.243599742880311
 42
0.0406359953074824
 10
16.66808296580237
 20
5.310609938662776
 42
0.047680946425237
 10
16.66186427826026
 20
5.38021948136141
 42
0.0616520032582032
 10
16.6424646996836
 20
5.441295514970711
 42
0.0633859981088915
 10
16.60931010467867
 20
5.4944984769006
 42
0.0545560108621499
 10
16.5623302860647
 20
5.54077932263832
 42
0.0376349876348825
 10
16.51766155060748
 20
5.570924288572654
 42
0.0586569774125934
 10
16.47496785506974
 20
5.589038945256175
 42
0.0404929749710013
 10
16.41889611370624
 20
5.600587604888682
 42
0.0095829930460647
 10
16.323811968658
 20
5.610418279908575
 42
-0.0103280650737259
 10
16.27393007954396
 20
5.615649111247414
 42
-0.0076779458777918
 10
16.21909343829861
 20
5.623406637826689
 42
-0.0077679535121459
 10
16.16756970846464
 20
5.632326539887749
 42
-0.0173799318976841
 10
16.12881227210432
 20
5.641061852498562
 42
-0.0546800013123187
 10
15.93732964630731
 20
5.714385690468313
 42
-0.0523339681330655
 10
15.76322165885159
 20
5.828341600609654
 42
-0.0521459994708328
 10
15.61601046801763
 20
5.976410640681963
 42
-0.053475007294182
 10
15.50403439786862
 20
6.150550455851441
 42
-0.004124965093077
 10
15.48913635817524
 20
6.180904454073774
 42
-0.0047629828226862
 10
15.47544827259549
 20
6.210079509841397
 42
-0.0042799967021366
 10
15.46430989902535
 20
6.234990108893806
 42
-0.0276910464215247
 10
15.459508
 20
6.247882999999999
 10
15.452572
 20
6.270214
 10
17.708813
 20
6.275551
 10
17.7550357282863
 20
6.29692399164541
 42
0.043930042422314
 10
17.8026159390819
 20
6.32422470400232
 42
0.0409829939233223
 10
17.84590107393105
 20
6.359995988187363
 42
0.0410509402650855
 10
17.88270375716568
 20
6.402278854798979
 42
0.0444400352575892
 10
17.91101296000147
 20
6.448945656666954
 42
0.0265429366714901
 10
17.92713814423823
 20
6.486720215764123
 42
0.0549500097576684
 10
17.93476868688567
 20
6.517836937666975
 42
0.0310719982026418
 10
17.93763231689815
 20
6.559498728071575
 42
0.0038430419457649
 10
17.93752721871399
 20
6.650551816443994
 42
0.0537309994923993
 10
17.90345606002417
 20
6.942394246722821
 42
0.0524140097227018
 10
17.80792046404628
 20
7.222859185973661
 42
0.0504919998369183
 10
17.65208716699473
 20
7.486440969853189
 42
0.0434529989502062
 10
17.43932692581227
 20
7.728197127997922
 42
0.0346839953049864
 10
17.27405101325544
 20
7.865416893235812
 42
0.0367909965778222
 10
17.09450083578139
 20
7.97550769318301
 42
0.0360049816711072
 10
16.89717639921925
 20
8.059983707995412
 42
0.0306029709619137
 10
16.6788117188898
 20
8.120731492343583
 42
0.0321439891637537
 10
16.56402829960252
 20
8.137595540690107
 42
0.0130439953707554
 10
16.40615751496662
 20
8.146369985294144
 42
0.0129360023568016
 10
16.24921119636607
 20
8.146931969270267
 42
0.0353669941357413
 10
16.13881006350658
 20
8.136635022692589
 42
0.0673419975393196
  0
LWPOLYLINE
  5
6B7
330
A
100
AcDbEntity
  8
0
 62
     7
100
AcDbPolyline
 90
       65
 70
     1
 43
0.0
 10
53.17548111644257
 20
8.119343553289899
 42
0.0585109524038296
 10
53.11584756038964
 20
8.075974515555701
 42
0.0591770125836328
 10
53.06846283920996
 20
8.0204902616225
 42
0.0632829610921624
 10
53.03664746211874
 20
7.956644868052608
 42
0.0761149873133801
 10
53.02548556757235
 20
7.896646726952821
 42
0.0047819942545708
 10
53.02144755130751
 20
7.716301948663586
 42
0.0029670073481402
 10
53.01922199999999
 20
7.396488999999999
 10
53.01880999999999
 20
6.570550999999999
 10
53.01880999999999
 20
5.235551
 10
53.04692101381665
 20
5.178309221431444
 42
0.0616489855021588
 10
53.09263285880267
 20
5.108479058108594
 42
0.0767769270747695
 10
53.15113885600801
 20
5.057702401981553
 42
0.074609928584694
 10
53.22365345508761
 20
5.025961785986665
 42
0.054356939052174
 10
53.31072642747336
 20
5.012352927648495
 42
0.0113909389371899
 10
53.35733740605215
 20
5.011251074937804
 42
0.0383839635703578
 10
53.38772015714913
 20
5.013559473129586
 42
0.0463610001299049
 10
53.41428467254011
 20
5.020207254704274
 42
0.0228619743678377
 10
53.44659056889539
 20
5.033246149698835
 42
0.0416670070654368
 10
53.49164682161307
 20
5.058605978610814
 42
0.0391249897722675
 10
53.53290093496523
 20
5.09156699144771
 42
0.0392639915627525
 10
53.56837602412244
 20
5.130422943999281
 42
0.0427130045852578
 10
53.59624499999999
 20
5.173316999999999
 10
53.618813
 20
5.215551
 10
53.628811
 20
7.045550999999999
 10
54.51005600000001
 20
6.055286999999999
 10
55.18695409389867
 20
5.296357327236224
 42
0.0170630083108989
 10
55.36233263780864
 20
5.11314441956198
 42
0.0774369584606703
 10
55.46956804430347
 20
5.036827715319271
 42
0.1168350064108097
 10
55.58068171238331
 20
5.010648339386031
 42
0.0398870142830969
 10
55.64957452443412
 20
5.016239009375738
 42
0.0630418851069451
 10
55.70635545947322
 20
5.032975325688088
 42
0.0640140535636486
 10
55.75656714264874
 20
5.063099527049933
 42
0.042582950876589
 10
55.80559416869578
 20
5.109084791121328
 42
0.1112019781324262
 10
55.85496536855173
 20
5.197175440903301
 42
0.0592230055557211
 10
55.87633525612194
 20
5.320918576011521
 42
0.012809021706111
 10
55.882996
 20
5.566823
 10
55.883713
 20
6.589833
 10
55.883617
 20
7.925550999999999
 10
55.85957087488087
 20
7.977193690809932
 42
0.045123005593661
 10
55.83258211444973
 20
8.023689610960602
 42
0.0407370029993341
 10
55.79684596686044
 20
8.066332478829812
 42
0.0407049974002285
 10
55.75463337387532
 20
8.102646626941544
 42
0.0448689919981835
 10
55.70838989414393
 20
8.130326897130471
 42
0.064158008077711
 10
55.64862641217013
 20
8.150238997341883
 42
0.0512969877914558
 10
55.58096887530989
 20
8.156408406804539
 42
0.0508540182030034
 10
55.51282541244245
 20
8.148662890454232
 42
0.0601249546166463
 10
55.45160905542753
 20
8.127358389245197
 42
0.0489119558454314
 10
55.4032076651721
 20
8.097501282970213
 42
0.0419470275736252
 10
55.35876280433928
 20
8.057373910264605
 42
0.0424480028774522
 10
55.32218469872701
 20
8.010988276401292
 42
0.0538229642832817
 10
55.29722125089703
 20
7.962496250413181
 42
0.0778680380430287
 10
55.2861451751229
 20
7.911148486942193
 42
0.0080749936487562
 10
55.28108852979308
 20
7.787280016926484
 42
0.0043310179852909
 10
55.277557
 20
7.566955
 10
55.273972
 20
7.020791
 10
55.26880999999999
 20
6.126028999999999
 10
54.41275799999999
 20
7.085791
 10
54.082161
 20
7.456125
 10
53.79819499999999
 20
7.773536999999999
 10
53.54851993042762
 20
8.052175671535351
 42
0.0143399970854576
 10
53.52275525873106
 20
8.079310264148491
 42
0.0758180172812581
 10
53.46545580794405
 20
8.121205404097413
 42
0.0602060120882715
 10
53.39360660525922
 20
8.148222855554022
 42
0.0594459944470785
 10
53.31640121618374
 20
8.157585504345986
 42
0.0694790031340881
 10
53.24331617851577
 20
8.147524092360178
 42
0.0591650195981317
  0
LWPOLYLINE
  5
6B8
330
A
100
AcDbEntity
  8
0
 62
     7
100
AcDbPolyline
 90
       60
 70
     1
 43
0.0
 10
46.11330393153639
 20
8.112595849223888
 42
0.074146042282444
 10
46.04753288673956
 20
8.057715080177642
 42
0.0738299614245918
 10
46.00041954380567
 20
7.985811577488739
 42
0.0690699514360109
 10
45.97488067765794
 20
7.901671930489204
 42
0.0714120109533355
 10
45.97352305279343
 20
7.806084184889058
 42
0.0789680309715267
 10
45.99958494621614
 20
7.717449085368869
 42
0.0799479988774704
 10
46.05147453490526
 20
7.642121187552077
 42
0.0757090145814205
 10
46.125256
 20
7.585213999999999
 10
46.17880999999999
 20
7.555550999999999
 10
47.05348599999999
 20
7.549757
 10
47.058811
 20
5.235551
 10
47.08182249130538
 20
5.185552339020727
 42
0.038452962132895
 10
47.10559458748522
 20
5.142875402962681
 42
0.0397890202116927
 10
47.13538022454229
 20
5.104861503123992
 42
0.0389749859494435
 10
47.17141184356098
 20
5.07137811935727
 42
0.0340539647649316
 10
47.21381317076475
 20
5.042201120190999
 42
0.0310630229191072
 10
47.24257262253493
 20
5.027499843267796
 42
0.0572348798845265
 10
47.26767152270855
 20
5.019841841670782
 42
0.038098962727946
 10
47.29998246732767
 20
5.016418890480196
 42
0.0073590387413818
 10
47.35880989556293
 20
5.015550000000002
 42
0.0073900418381986
 10
47.41775958864469
 20
5.016421935997143
 42
0.0383069556626007
 10
47.45012871021008
 20
5.019872411185063
 42
0.0570879245248414
 10
47.47539709377783
 20
5.027597565430444
 42
0.0301719307615313
 10
47.50465183767188
 20
5.042498414388546
 42
0.0248880341049519
 10
47.52492356716106
 20
5.055818198565962
 42
0.0142380097680716
 10
47.54807401534647
 20
5.073768055052804
 42
0.0141979463645169
 10
47.57038667090655
 20
5.093188436926582
 42
0.0228419711807901
 10
47.58811877971869
 20
5.111101530707617
 42
0.1072549094279564
 10
47.6327287129492
 20
5.188827074915853
 42
0.0620799665825097
 10
47.6524584733547
 20
5.29522637759072
 42
0.0133549755877092
 10
47.659313
 20
5.505548
 10
47.66381099999999
 20
6.385551
 10
47.668812
 20
7.545550999999999
 10
48.10381333312777
 20
7.550550536452455
 42
0.0017060042757014
 10
48.42565550007073
 20
7.555349832144156
 42
0.0297300143796326
 10
48.53003847577651
 20
7.563482695095342
 42
0.0881499552607699
 10
48.59261733601424
 20
7.583737173349692
 42
0.061532016562534
 10
48.65348390128026
 20
7.62644375065387
 42
0.0281119458301221
 10
48.67144005763841
 20
7.644595582864259
 42
0.0167390088567369
 10
48.69079420162213
 20
7.668039876426358
 42
0.0167290096841908
 10
48.70857577871113
 20
7.692778656616733
 42
0.0276269831355622
 10
48.72168541918107
 20
7.714917625059261
 42
0.0260009915534686
 10
48.73552889822832
 20
7.745320453104716
 42
0.0459199478281125
 10
48.74323541933441
 20
7.771774113655257
 42
0.0367370235961753
 10
48.74694537952382
 20
7.802956741436431
 42
0.0111698997699279
 10
48.74802097187484
 20
7.850552556404966
 42
0.0111669454317094
 10
48.7470037893596
 20
7.896442514795776
 42
0.0329699987658819
 10
48.74353402498709
 20
7.927779120725022
 42
0.0427059974197722
 10
48.73662021535952
 20
7.953599566361879
 42
0.0321580011734235
 10
48.72486849925668
 20
7.980551625606585
 42
0.0397350042724474
 10
48.69751137758058
 20
8.024669699197657
 42
0.0357970066893709
 10
48.66263950681616
 20
8.065577661354897
 42
0.0358450036654139
 10
48.62233385912385
 20
8.1010365385862
 42
0.0401329926963831
 10
48.578812
 20
8.128916
 10
48.528812
 20
8.155550999999999
 10
47.383812
 20
8.157481999999999
 10
46.80673624110002
 20
8.15791017722638
 42
0.0021419847803191
 10
46.47035481589918
 20
8.156399932560837
 42
0.0014240150992493
 10
46.24081601707962
 20
8.153729953038013
 42
0.0628609876319012
 10
46.19331874301532
 20
8.147035301088266
 42
0.0705580157584965
  0
LWPOLYLINE
  5
6B9
330
A
100
AcDbEntity
  8
0
 62
     7
100
AcDbPolyline
 90
      122
 70
     1
 43
0.0
 10
43.49689223768804
 20
8.11368156651233
 42
0.0429449952748709
 10
43.3533745689251
 20
8.053650248140556
 42
0.0427260222749847
 10
43.22159722136641
 20
7.969663272602743
 42
0.0388659823478258
 10
43.10144255999782
 20
7.862027482798827
 42
0.0335840434238363
 10
43.01537783193229
 20
7.758892870526478
 42
0.0356580234740333
 10
42.9457720522616
 20
7.647134377077211
 42
0.0360039942817615
 10
42.89330941044252
 20
7.527659784834598
 42
0.0356740179201394
 10
42.8583430579984
 20
7.401530878806347
 42
0.0389370242391376
 10
42.84710412120349
 20
7.309338242867798
 42
0.0164900605660324
 10
42.84579498295904
 20
7.184667247992124
 42
0.0162780334269305
 10
42.85256655883312
 20
7.06174848076853
 42
0.0456769650079131
 10
42.86788728087455
 20
6.977010244755544
 42
0.071865994002597
 10
42.98293266817306
 20
6.714939506964897
 42
0.0759440095899461
 10
43.16576540190404
 20
6.501684735980353
 42
0.076349004886586
 10
43.4029913967452
 20
6.353594028474964
 42
0.0737850156616078
 10
43.67652775217848
 20
6.28130890784141
 42
0.0190110459559689
 10
43.73392426183185
 20
6.277110903337639
 42
0.0028300327574584
 10
43.84980627775261
 20
6.273707831873544
 42
0.0031819466780264
 10
43.98681621096328
 20
6.27133574362851
 42
0.0027359762355265
 10
44.13091699999999
 20
6.270544
 10
44.488811
 20
6.270535999999999
 10
44.54881344710153
 20
6.241728565459933
 42
-0.0654590033071923
 10
44.62687262325162
 20
6.190771345101045
 42
-0.073216000241707
 10
44.68575525459166
 20
6.123036552148211
 42
-0.073790999638707
 10
44.72228583671184
 20
6.041680802676557
 42
-0.0680050164068948
 10
44.73498854569071
 20
5.950881210286912
 42
-0.0151870329232598
 10
44.73417240390037
 20
5.921044591810823
 42
-0.0132760465336755
 10
44.73154809987391
 20
5.889934878541364
 42
-0.0134650296577762
 10
44.72767166246542
 20
5.861945339242896
 42
-0.0381810032873898
 10
44.72297450699463
 20
5.842817855724241
 42
-0.0540269870565071
 10
44.69546342859771
 20
5.782052626745583
 42
-0.0515540284524066
 10
44.65520872391302
 20
5.727542550651481
 42
-0.0506840486764304
 10
44.60392972288711
 20
5.681614707747097
 42
-0.0487470094907218
 10
44.543812
 20
5.646257
 10
44.488811
 20
5.620746999999999
 10
43.78267405099538
 20
5.620654390093086
 42
0.0011310000174744
 10
43.49173960572886
 20
5.619950688509764
 42
0.0021249982860551
 10
43.2566962734203
 20
5.617859353847954
 42
0.0010609904137294
 10
43.06600770391752
 20
5.614941737573955
 42
0.0425299847391414
 10
43.02443670681066
 20
5.61066932378792
 42
0.0513940126919241
 10
42.95099166525464
 20
5.588742894927912
 42
0.0607929951180596
 10
42.88792935565962
 20
5.553116314636376
 42
0.0621609732798636
 10
42.83638442098424
 20
5.504137143026706
 42
0.0576420383549138
 10
42.79691860850905
 20
5.442793724784771
 42
0.0208029964221416
 10
42.78263393997188
 20
5.410350215648031
 42
0.0395079563063546
 10
42.77435961934967
 20
5.383056984763128
 42
0.037668982414057
 10
42.77025559262009
 20
5.353953930427532
 42
0.0171819699131667
 10
42.76909571059552
 20
5.315551290635772
 42
0.0159919780485777
 10
42.77015369666099
 20
5.285991101896586
 42
0.0137939849648379
 10
42.77312025290408
 20
5.255056004543328
 42
0.0140080080446097
 10
42.77737520536335
 20
5.227143445693192
 42
0.038610017159934
 10
42.78241846258888
 20
5.207909058076303
 42
0.0582749542388698
 10
42.80587197726776
 20
5.159341086737669
 42
0.0446709941193081
 10
42.841842377838
 20
5.112577111412783
 42
0.0436389579478041
 10
42.88661439236674
 20
5.07180978079257
 42
0.0485260573370293
 10
42.93629099999999
 20
5.041046999999999
 10
42.999634
 20
5.009863
 10
43.799221
 20
5.013131999999999
 10
44.40681004097819
 20
5.016630174796919
 42
0.019515039653455
 10
44.57925234862325
 20
5.024650086466562
 42
0.0597930519573971
 10
44.68998952715939
 20
5.047665437083334
 42
0.0324459621298595
 10
44.81881351031677
 20
5.100506246542927
 42
0.0444739834253788
 10
44.9717509181498
 20
5.192805147311356
 42
0.0482989082827373
 10
45.10141184836027
 20
5.308471298594847
 42
0.0484839834119809
 10
45.20606801288362
 20
5.446435027426527
 42
0.0454559629229807
 10
45.28481869178448
 20
5.604904215394693
 42
0.0499149788418406
 10
45.33257912750332
 20
5.777039040173741
 42
0.046476007161946
 10
45.34683803815929
 20
5.959454058833307
 42
0.0465419965039346
 10
45.32715940017419
 20
6.141104270451871
 42
0.0503939995803661
 10
45.27431319969784
 20
6.310971252663203
 42
0.046510022822248
 10
45.19462672766638
 20
6.458480976552873
 42
0.044540008860732
 10
45.08802668360134
 20
6.591050995310324
 42
0.0443259893985234
 10
44.95908390878741
 20
6.703216349284104
 42
0.0450900085947181
 10
44.81309532639707
 20
6.79017260092532
 42
0.0232219999516894
 10
44.69383782145155
 20
6.840688257998204
 42
0.0552869932233393
 10
44.60055638046963
 20
6.863888084673694
 42
0.0275800111054125
 10
44.47259104771474
 20
6.873907894041941
 42
0.0023619890124772
 10
44.14380999999999
 20
6.879921
 10
43.85303475180402
 20
6.884300468102178
 42
-0.0107210214847046
 10
43.74965460574557
 20
6.888230650083531
 42
-0.0314470123107309
 10
43.69140217221549
 20
6.895391923944578
 42
-0.0590950061219472
 10
43.64620654660934
 20
6.909530057128024
 42
-0.061895074265434
 10
43.59417399796807
 20
6.941068946155039
 42
-0.0384629907700879
 10
43.54164775040739
 20
6.989558914776666
 42
-0.0385129592801691
 10
43.49728692689699
 20
7.045378497582399
 42
-0.0632240176864422
 10
43.47008826967118
 20
7.09915899112758
 42
-0.0266680125351956
 10
43.46119714397734
 20
7.129106054379906
 42
-0.0325229905311544
 10
43.45624884926767
 20
7.157912383433115
 42
-0.027523982806795
 10
43.45459294944999
 20
7.190736685799313
 42
-0.0125640078630184
 10
43.4558792314058
 20
7.23365675457152
 42
-0.0378659615887297
 10
43.46511887499647
 20
7.303891479673349
 42
-0.0578819725095998
 10
43.48455069548024
 20
7.362108522188856
 42
-0.0590149795429392
 10
43.51646673729063
 20
7.413522374851836
 42
-0.0412640257016454
 10
43.56331454318499
 20
7.463206042101656
 42
-0.0574590473702904
 10
43.63038139166614
 20
7.510835059477797
 42
-0.0857200049191878
 10
43.69823912424398
 20
7.534206915899872
 42
-0.0339879935904537
 10
43.80680733798673
 20
7.544303422220167
 42
-0.0026369717191015
 10
44.098812
 20
7.549999
 10
44.35121654578979
 20
7.554034421736975
 42
0.0119839650189019
 10
44.44278801203045
 20
7.557854964070254
 42
0.0345830423246193
 10
44.49393335646077
 20
7.56479018782179
 42
0.0717500021648733
 10
44.53172596820637
 20
7.578464289326992
 42
0.0441550670370945
 10
44.57492157211376
 20
7.606684421150726
 42
0.0339159987663017
 10
44.6167525221677
 20
7.644481642145295
 42
0.0343030433511011
 10
44.65247261491307
 20
7.686917727698225
 42
0.0499280095753298
 10
44.67723614247694
 20
7.729058754621387
 42
0.0688418964779483
 10
44.6949716441822
 20
7.787614163375814
 42
0.0447099446034047
 10
44.69972599027481
 20
7.85827823663733
 42
0.0447280011651344
 10
44.69184728092979
 20
7.928616363401218
 42
0.0691819977412647
 10
44.67154853360222
 20
7.986186466491927
 42
0.04659899577407
 10
44.64334199665274
 20
8.030162659669812
 42
0.0374920051455131
 10
44.60550606919457
 20
8.071725268814736
 42
0.0372239941094691
 10
44.56154939415404
 20
8.107494581583109
 42
0.0439020064645302
 10
44.51504024379086
 20
8.134177463146537
 42
0.0642650216631974
 10
44.47540517372702
 20
8.146642196981687
 42
0.0306770118240075
 10
44.42225908734484
 20
8.152785687517907
 42
0.011449004886501
 10
44.329159
 20
8.155658999999999
 10
44.08880917535578
 20
8.15710036394528
 42
0.0021529804053149
 10
43.93911163429498
 20
8.157067415456692
 42
0.0029070198642806
 10
43.80373557385632
 20
8.155666515162687
 42
0.0019720195348639
 10
43.69020958692461
 20
8.153382987960068
 42
0.0315709925689091
 10
43.65195295557992
 20
8.150039731453091
 42
0.0400350098125148
  0
LWPOLYLINE
  5
6BA
330
A
100
AcDbEntity
  8
0
 62
     7
100
AcDbPolyline
 90
       57
 70
     1
 43
0.0
 10
38.92935768468176
 20
8.131621891942211
 42
0.0383019741759441
 10
38.88914754012219
 20
8.109908621592953
 42
0.0381040009430043
 10
38.85254076927621
 20
8.082198943584579
 42
0.0347019763590281
 10
38.8193203194297
 20
8.048436320306935
 42
0.0958630219828958
 10
38.77886551321081
 20
7.977258548049269
 42
0.0644119864557427
 10
38.7605084699606
 20
7.885265651729857
 42
0.0173930301886796
 10
38.754726
 20
7.713210000000001
 10
38.756371
 20
7.129097999999999
 10
38.759838
 20
6.345551
 10
38.78593007310184
 20
6.240551032845567
 42
0.0370239964635731
 10
38.86742230619635
 20
5.992626571816432
 42
0.0386489960814486
 10
38.9836652539301
 20
5.763140614024617
 42
0.0394420548606601
 10
39.13126002456785
 20
5.558553030763458
 42
0.04224706994838
 10
39.30607192761062
 20
5.384733328133696
 42
0.0374679513094841
 10
39.51796445176695
 20
5.232433518000312
 42
0.0411130040238353
 10
39.74392995137374
 20
5.118748239091116
 42
0.0420499956797581
 10
39.98063226080061
 20
5.045554054939081
 42
0.0429959305927144
 10
40.22448332362915
 20
5.013698663055921
 42
0.0165680326306701
 10
40.33317211084774
 20
5.012520044554651
 42
0.0575260225005782
 10
40.40268472920174
 20
5.022117427904026
 42
0.0756320173356024
 10
40.45771533256671
 20
5.04558882201748
 42
0.0445819799388484
 10
40.51503896956286
 20
5.08855221799211
 42
0.0423679886051315
 10
40.56081906089416
 20
5.137320462197575
 42
0.0628889619678338
 10
40.59108017136055
 20
5.187410825339717
 42
0.0627160272956862
 10
40.60799873619791
 20
5.243555292567491
 42
0.0418640269309651
 10
40.61361499999998
 20
5.310550884132757
 42
0.0405260289371808
 10
40.6085021981976
 20
5.373543760693842
 42
0.0551159899626797
 10
40.59318744574349
 20
5.428424766294615
 42
0.0562039851679223
 10
40.56655204986246
 20
5.477824807341632
 42
0.0445089940834302
 10
40.52763338974046
 20
5.524424374376668
 42
0.0490630004516857
 10
40.47843945183912
 20
5.564859453936882
 42
0.0597360166800874
 10
40.42532724694159
 20
5.591880502630151
 42
0.048506997215453
 10
40.3588842870772
 20
5.609153842516413
 42
0.0204159973333123
 10
40.26711254227294
 20
5.619902141220786
 42
-0.0143940829106711
 10
40.16851195469532
 20
5.630248181791144
 42
-0.0262529358905228
 10
40.08899968117903
 20
5.645195429872013
 42
-0.0285320211183219
 10
40.01609322028762
 20
5.667380549761425
 42
-0.0211409796698996
 10
39.93831098190129
 20
5.699780530550975
 42
-0.0157910573765279
 10
39.85811818092063
 20
5.740370222828031
 42
-0.0242979655732696
 10
39.79176998085677
 20
5.780928245666596
 42
-0.0245960495074634
 10
39.73025164915985
 20
5.827353708675931
 42
-0.0167330032424452
 10
39.66485168515615
 20
5.885780759850954
 42
-0.031680027512464
 10
39.57529636988415
 20
5.982904219654227
 42
-0.0330789867761013
 10
39.50012842937746
 20
6.089231552599899
 42
-0.0328569580022681
 10
39.43921281302365
 20
6.205227796640688
 42
-0.030394965666429
 10
39.39220359763434
 20
6.331224368829
 42
-0.0473830147116213
 10
39.37841246990845
 20
6.398672012042483
 42
-0.0183900457700681
 10
39.37172378707226
 20
6.493837965145502
 42
-0.0061990220307577
 10
39.368084
 20
6.667208999999999
 10
39.36028033635444
 20
7.669285101799592
 42
0.0060339993393813
 10
39.3567383273001
 20
7.841061660757099
 42
0.0159309981659538
 10
39.35082150658355
 20
7.932625454943138
 42
0.085921000500875
 10
39.33766923132671
 20
7.980552022058201
 42
0.0951170075262072
 10
39.27603531034612
 20
8.065274693589906
 42
0.0808000133706035
 10
39.18403743846536
 20
8.127001109469913
 42
0.0809180092401703
 10
39.07734793607902
 20
8.156326023025791
 42
0.0958639863321489
 10
38.97331680656647
 20
8.147525114253353
 42
0.035786005767227
  0
LWPOLYLINE
  5
6BB
330
A
100
AcDbEntity
  8
0
 62
     7
100
AcDbPolyline
 90
       34
 70
     1
 43
0.0
 10
36.67718450271896
 20
7.509046959705199
 42
0.0361589934237726
 10
36.51983227705261
 20
7.540458674329428
 42
0.0925580125390968
 10
36.18115063792149
 20
7.520163604672666
 42
0.0891489699483704
 10
35.86765520011383
 20
7.379311363595808
 42
0.0882359744815423
 10
35.62032884468246
 20
7.1365284641852
 42
0.0882720148182393
 10
35.47191415686306
 20
6.823388160544882
 42
0.0262010421242636
 10
35.46043015708999
 20
6.770557893277509
 42
0.0216170219107745
 10
35.45361128759238
 20
6.71330423063981
 42
0.0122559839932663
 10
35.44946231240755
 20
6.631466640599803
 42
0.0023670243155207
 10
35.4462709104849
 20
6.483247421565428
 10
35.441872
 20
6.220944
 10
35.539726
 20
6.280605
 42
-0.0193240242611547
 10
35.62836942381402
 20
6.330059366169992
 42
-0.0140879860845823
 10
35.73036561754385
 20
6.378332865367497
 42
-0.014220003051852
 10
35.83310504063053
 20
6.420020966969046
 42
-0.0222929994758801
 10
35.92381130581946
 20
6.449319635046443
 42
-0.0196480105324555
 10
36.05938402458292
 20
6.480858798784345
 42
-0.0301469935243308
 10
36.17891893026666
 20
6.496365369763448
 42
-0.013975010500009
 10
36.35099648626479
 20
6.50338344879195
 42
-0.0013340126618309
 10
36.77131564024876
 20
6.5076455239749
 10
37.135384
 20
6.510798
 42
0.0063539391947499
 10
37.28039194664916
 20
6.514059310879434
 42
0.0073579696693303
 10
37.36380905750258
 20
6.518225498100218
 42
0.3968939550097156
 10
37.37372886080148
 20
6.528860333256456
 42
0.0171160032530737
 10
37.37328852896491
 20
6.540018081249325
 42
0.0010670030798094
 10
37.37078692225542
 20
6.572962009961931
 42
0.0015769979162512
 10
37.36760419134458
 20
6.612200297422605
 42
0.0011690002488733
 10
37.36384282428195
 20
6.655550245046421
 42
0.0403100019077228
 10
37.33305938456079
 20
6.835504888083657
 42
0.0481779991552026
 10
37.27470712279933
 20
6.997254730641084
 42
0.0482299952432464
 10
37.18653076404704
 20
7.144705789254377
 42
0.0405370119816051
 10
37.06693839379874
 20
7.282068543885243
 42
0.0394150082721992
 10
36.94813604827551
 20
7.381049361360896
 42
0.0436820011217496
 10
36.81912838875169
 20
7.456386177068555
 42
0.0430049793722612
  0
LWPOLYLINE
  5
6BC
330
A
100
AcDbEntity
  8
0
 62
     7
100
AcDbPolyline
 90
       63
 70
     1
 43
0.0
 10
35.98214912448786
 20
8.09852373787303
 42
0.0218300045452111
 10
35.85315000222376
 20
8.055144945213207
 42
0.0210229997226024
 10
35.72675543721365
 20
8.000195594187786
 42
0.0566299972397402
 10
35.42238076033412
 20
7.807130405302494
 42
0.0575110155438877
 10
35.17084461317151
 20
7.551586124763369
 42
0.0568450267527283
 10
34.98179085183521
 20
7.242562729983957
 42
0.053048039515129
 10
34.86181715453616
 20
6.89170834498946
 42
0.0328940120770991
 10
34.84887062172119
 20
6.810281910747947
 42
0.0156709839238046
 10
34.84244219446478
 20
6.704353166387733
 42
0.0057249693839284
 10
34.839146
 20
6.519142999999999
 10
34.836433
 20
6.024644999999999
 10
34.83453069675308
 20
5.523860512055298
 42
0.0058650018524373
 10
34.83606674492769
 20
5.348389084711564
 42
0.015928004166755
 10
34.84100997830765
 20
5.253931130835113
 42
0.068571991622864
 10
34.85332477360761
 20
5.199151370009957
 42
0.0771469865873369
 10
34.89639445217346
 20
5.122508369776102
 42
0.0766329724146287
 10
34.96076141578343
 20
5.062324753699078
 42
0.0759420918207214
 10
35.0408222469781
 20
5.023923089655196
 42
0.0737069919249362
 10
35.12953131684849
 20
5.010650387967409
 42
0.0649520510395799
 10
35.23385511570195
 20
5.024113097104957
 42
0.0952880458253108
 10
35.31701046812108
 20
5.064081483875731
 42
0.090818914699594
 10
35.38210346830514
 20
5.133732614384805
 42
0.0542090722959887
 10
35.43282080133
 20
5.23555130977459
 42
-0.0525059835603174
 10
35.54729898194352
 20
5.467351760483542
 42
-0.0668559482937964
 10
35.70027141858728
 20
5.650012748057997
 42
-0.0676509606453226
 10
35.89444197320243
 20
5.784284670042344
 42
-0.0555089889064492
 10
36.13074379532967
 20
5.872966752791255
 42
-0.0325149928379983
 10
36.20121678394099
 20
5.886019100403724
 42
-0.0210679924131314
 10
36.28391898001154
 20
5.892315053169375
 42
-0.0077820173527072
 10
36.423714
 20
5.894866999999999
 10
36.793812
 20
5.895413999999999
 10
37.368813
 20
5.895551
 10
37.378811
 20
5.215551
 10
37.40830215379779
 20
5.162314456629891
 42
0.0640269649799647
 10
37.45561233527825
 20
5.097935522213888
 42
0.0709930036724124
 10
37.51620892108125
 20
5.050180159058761
 42
0.0702039452651663
 10
37.58835140538375
 20
5.02090668515336
 42
0.060626954355205
 10
37.6695301673791
 20
5.010770273452802
 42
0.0325429825982576
 10
37.73069042913671
 20
5.014564794002449
 42
0.0469790423770598
 10
37.78353442199075
 20
5.026430990537124
 42
0.0506360208067044
 10
37.83016903786882
 20
5.047032683616428
 42
0.0477310158039428
 10
37.87271633287556
 20
5.076933452398738
 42
0.0424630485061916
 10
37.91038719193001
 20
5.11516846304385
 42
0.0481720162760581
 10
37.93930135795021
 20
5.157722769019954
 42
0.0471680124762371
 10
37.95999207713115
 20
5.205812247028267
 42
0.0379879608089099
 10
37.9731621021533
 20
5.260552088014462
 42
0.0391359847029073
 10
37.982445
 20
5.373631999999999
 10
37.98358430361123
 20
5.933492166881659
 42
0.0015519523801827
 10
37.98211802012087
 20
6.46689545602849
 42
0.0165360014290551
 10
37.97367705689655
 20
6.68365521660924
 42
0.0194649995160103
 10
37.95650102807958
 20
6.83788613076593
 42
0.0252239982469103
 10
37.92819826069393
 20
6.977330181428934
 42
0.025845998218846
 10
37.8866753874355
 20
7.110438679974229
 42
0.0222459962769638
 10
37.82977748996553
 20
7.245551636490173
 42
0.0217119992890014
 10
37.75832851236533
 20
7.380658144040546
 42
0.0245460069034735
 10
37.67806529159378
 20
7.503450556484279
 42
0.024541994593925
 10
37.58614050976227
 20
7.617801707382449
 42
0.0216899977840604
 10
37.47974606870462
 20
7.72762094441964
 42
0.0534809977668239
 10
37.21176716245415
 20
7.931762154726904
 42
0.0534870232497411
 10
36.90660415510275
 20
8.074411280573192
 42
0.0537659937913223
 10
36.57965365818228
 20
8.14854602385364
 42
0.0551809911300922
 10
36.24733047676007
 20
8.15030571096095
 42
0.0219769968496099
 10
36.11360388867575
 20
8.130244764709965
 42
0.0219759840697415
  0
LWPOLYLINE
  5
6BD
330
A
100
AcDbEntity
  8
0
 62
     7
100
AcDbPolyline
 90
       24
 70
     1
 43
0.0
 10
41.39716832729006
 20
8.874424838072727
 42
0.0790779664660676
 10
41.32620666745058
 20
8.807051755375919
 42
0.0793159594596891
 10
41.27982792470809
 20
8.721179793418324
 42
0.0844249809659126
 10
41.26381200000003
 20
8.626991143922852
 42
0.0395530430564477
 10
41.26849007040568
 20
8.56796502603724
 42
0.0493859995291989
 10
41.28244549495957
 20
8.514816672634079
 42
0.05038196122776
 10
41.30626224017694
 20
8.466286529448783
 42
0.0438879863256079
 10
41.34028438008079
 20
8.421024272858224
 42
0.0351200159958631
 10
41.38742152359007
 20
8.375475825856288
 42
0.0655649963263211
 10
41.4321166222434
 20
8.34700981444705
 42
0.0638149829787465
 10
41.48347751503987
 20
8.330628906449323
 42
0.0316220944157566
 10
41.55153131254485
 20
8.322559415363702
 42
0.0109830742610024
 10
41.60207421058228
 20
8.320898030257282
 42
0.0488170194101244
 10
41.63164629220371
 20
8.323467342290177
 42
0.0534750335489843
 10
41.6588775113893
 20
8.331626609816101
 42
0.0148870302700966
 10
41.69946109768698
 20
8.350123816549968
 42
0.092569934058346
 10
41.79317405630494
 20
8.420202008087393
 42
0.0973330461076317
 10
41.85330114115177
 20
8.518257602193269
 42
0.0980960115183398
 10
41.87155811453105
 20
8.631115634295488
 42
0.0956219974499775
 10
41.845739741156
 20
8.743523983913423
 42
0.0905469910711356
 10
41.78517151272425
 20
8.832612207273992
 42
0.0877239984423805
 10
41.69642329716913
 20
8.895721086774392
 42
0.0878010018873782
 10
41.59148097814297
 20
8.924532792550666
 42
0.0909169894320109
 10
41.48437159733513
 20
8.915026591760701
 42
0.0831360023674827
  0
LWPOLYLINE
  5
6BE
330
A
100
AcDbEntity
  8
0
 62
     7
100
AcDbPolyline
 90
       28
 70
     1
 43
0.0
 10
13.32106193923634
 20
8.875413446335697
 42
0.0861770064504982
 10
13.24994613490762
 20
8.808774739187581
 42
0.0857130382389234
 10
13.20519145617573
 20
8.721736292159032
 42
0.074918972757344
 10
13.18943711672525
 20
8.620493412964263
 42
0.0149200461412845
 10
13.19047791523299
 20
8.578828344059894
 42
0.0377710502949533
 10
13.19441386453707
 20
8.548804879860824
 42
0.0412700005219841
 10
13.20257571165527
 20
8.52129224636063
 42
0.0210430100442284
 10
13.21705242244857
 20
8.488251394943073
 42
0.0621060459724088
 10
13.26138952307601
 20
8.420445814678721
 42
0.0722170293959561
 10
13.31908326932033
 20
8.369482478056696
 42
0.0715908525767801
 10
13.38933244680522
 20
8.336722376283962
 42
0.0596008895016247
 10
13.4705548430487
 20
8.322412800896044
 42
0.0382940649773444
 10
13.5418279689661
 20
8.32392871140806
 42
0.0649299014211944
 10
13.59988061610688
 20
8.33736462282143
 42
0.0660619929542676
 10
13.65185851933897
 20
8.365030530230496
 42
0.0411200758158407
 10
13.70461248728078
 20
8.409751710930265
 42
0.0412590736399067
 10
13.74962747443017
 20
8.462878775269174
 42
0.0664150708262679
 10
13.77739657388364
 20
8.515217129614413
 42
0.0657170428681143
 10
13.79065157844067
 20
8.573408310359083
 42
0.039500037626477
 10
13.79162435612192
 20
8.64434076480685
 42
0.0356629996190661
 10
13.78361256936239
 20
8.702660852750929
 42
0.0565320071828436
 10
13.7677308705703
 20
8.750465284186127
 42
0.0564300042988077
 10
13.74152077322016
 20
8.793557649612553
 42
0.0353860332956249
 10
13.70213792302524
 20
8.837572996913944
 42
0.0637179905779566
 10
13.63875540674592
 20
8.88504694531251
 42
0.0614970173082303
 10
13.56471094702101
 20
8.915720218524546
 42
0.0629429966071407
 10
13.48712313387951
 20
8.926988491906991
 42
0.0734189808460475
 10
13.4133164724898
 20
8.917482296061846
 42
0.0767289901159771
  0
LWPOLYLINE
  5
6BF
330
A
100
AcDbEntity
  8
0
 62
     7
100
AcDbPolyline
 90
       40
 70
     1
 43
0.0
 10
10.81381195581056
 20
7.517210926979025
 42
0.0414850042290854
 10
10.71965163419978
 20
7.536951737476085
 42
0.0201279869609116
 10
10.59700710047236
 20
7.547216080211486
 42
0.0200520214004855
 10
10.47529014739672
 20
7.54759688711319
 42
0.0466610153461771
 10
10.38494075564979
 20
7.535763525260205
 42
0.0399240261124875
 10
10.22138301053985
 20
7.484580805536295
 42
0.0385470131373723
 10
10.06601153732233
 20
7.407574909866128
 42
0.0397200057129206
 10
9.929035823332741
 20
7.310489430958816
 42
0.0500419625080011
 10
9.820360892828064
 20
7.199486692736502
 42
0.0553029899308004
 10
9.697646164328361
 20
7.005615127972408
 42
0.0585379882087776
 10
9.623245253931379
 20
6.793175907715044
 42
0.0582700638569341
 10
9.599891783532278
 20
6.568400101212501
 42
0.0539370157131114
 10
9.627810204069561
 20
6.338141499696146
 42
0.023957956503959
 10
9.64840747560043
 20
6.265512958076128
 42
0.0257090341858949
 10
9.675458322405278
 20
6.196917966990619
 42
0.023770995137336
 10
9.711370773777918
 20
6.127015954310627
 42
0.0157619642251074
 10
9.758805139080035
 20
6.0502744256855
 42
0.0437119950438237
 10
9.871342561380036
 20
5.908965642567174
 42
0.044666036238235
 10
10.00598047404159
 20
5.790491279116181
 42
0.0454380494653787
 10
10.15716419396583
 20
5.699551872031933
 42
0.0487678763943711
 10
10.31881225540915
 20
5.639946178929767
 42
0.0341339544467055
 10
10.41387578058996
 20
5.621904158971851
 42
0.0207910663022841
 10
10.52789301858739
 20
5.61302194143294
 42
0.0208100331439834
 10
10.64195038532131
 20
5.613642411322716
 42
0.0349229581825731
 10
10.73707525390244
 20
5.624810414924545
 42
0.0694199500755509
 10
10.99981984698143
 20
5.713430516835752
 42
0.072935050169932
 10
11.22339561699053
 20
5.869538793923186
 42
0.0719189578301733
 10
11.3951438195209
 20
6.085410293710184
 42
0.0647409990812993
 10
11.50624188207255
 20
6.34879558507211
 42
0.0210280459539554
 10
11.5171258757952
 20
6.395741259123687
 42
0.0240869627431038
 10
11.52344259546222
 20
6.44135691819731
 42
0.0172319753074874
 10
11.52657868474689
 20
6.498354492148409
 42
0.0051290047779304
 10
11.52747399999767
 20
6.585550451149844
 42
0.0151929989622443
 10
11.52371614973202
 20
6.709189134434163
 42
0.0358909998299922
 10
11.5115409340901
 20
6.800521058815517
 42
0.0384859976728411
 10
11.4870522859524
 20
6.885297422207877
 42
0.0200240019834178
 10
11.44434424096095
 20
6.986823868551971
 42
0.0531270019576143
 10
11.3353689300041
 20
7.166831480175386
 42
0.0552849930898079
 10
11.19218264904441
 20
7.317180875481348
 42
0.0543189929669836
 10
11.01711048544977
 20
7.434610343538669
 42
0.0482129999418523
  0
LWPOLYLINE
  5
6C0
330
A
100
AcDbEntity
  8
0
 62
     7
100
AcDbPolyline
 90
       68
 70
     1
 43
0.0
 10
11.7031830217349
 20
8.902512317238533
 42
0.030252979225179
 10
11.67740859762969
 20
8.887047035956644
 42
0.0269400079374283
 10
11.65090545965319
 20
8.866699730456868
 42
0.0185249794950482
 10
11.62307053788333
 20
8.840993593425066
 42
0.0617170144921442
 10
11.56959486943752
 20
8.772771008530819
 42
0.097982020962356
 10
11.54449632952259
 20
8.703182962894116
 42
0.035454990393978
 10
11.53533267133893
 20
8.588885944112758
 42
0.0022720298964996
 10
11.53381399999845
 20
8.253777504183462
 42
-0.0011740922539552
 10
11.53342120028042
 20
8.087651692380511
 42
-0.0019589687849648
 10
11.532218
 20
7.947808999999999
 10
11.53061080727937
 20
7.822750689397532
 42
-0.410366962485972
 10
11.528381999654
 20
7.820549
 42
-0.1466659787623402
 10
11.52474774458936
 20
7.82163992609216
 42
-0.0032100816729525
 10
11.50925200677584
 20
7.831990996952607
 42
-0.0070440733779175
 10
11.49123138949538
 20
7.844571177911318
 42
-0.0046660058106389
 10
11.47088295762198
 20
7.859499414564269
 42
0.0488509857864943
 10
11.25894525085852
 20
7.987859250005804
 42
0.0405259939732668
 10
11.01258287239458
 20
8.082262830494467
 42
0.0398769845287823
 10
10.74977140944018
 20
8.13696341732675
 42
0.0432879999010673
 10
10.4888118457963
 20
8.147142282291863
 42
0.073271023004459
 10
10.03344206958453
 20
8.057758074295481
 42
0.0746140090652618
 10
9.626298877303806
 20
7.841086890568258
 42
0.0746829958866677
 10
9.300986869841366
 20
7.514668371845312
 42
0.0736200372000898
 10
9.084007704940008
 20
7.105550258557514
 42
0.0157629811319901
 10
9.045076701989877
 20
6.983651191869194
 42
0.0241009771412612
 10
9.0198433908853
 20
6.875600106304181
 42
0.0234779916277706
 10
9.004708350960971
 20
6.763572596625005
 42
0.0139820150020366
 10
8.996721167756426
 20
6.629189678391986
 42
0.0104220262604711
 10
8.995326050390378
 20
6.497397448115984
 42
0.0218029608928751
 10
9.000848000361434
 20
6.394998393804202
 42
0.0238709457408259
 10
9.014809034466672
 20
6.299522512576803
 42
0.0154179635045966
 10
9.039608753854583
 20
6.19055233427485
 42
0.0304460375857331
 10
9.106585364388349
 20
5.985335976484293
 42
0.0361580366066613
 10
9.194974753855243
 20
5.801716862010074
 42
0.0360649897349463
 10
9.309110738033497
 20
5.632360428967643
 42
0.0300199495815643
 10
9.453146600329624
 20
5.469827482495274
 42
0.0174760152680918
 10
9.558742789779667
 20
5.371317375272273
 42
0.0245230463745168
 10
9.660045706865249
 20
5.291600312549102
 42
0.0247090060108962
 10
9.768058484157602
 20
5.222634858260098
 42
0.0181539941072919
 10
9.893932026337983
 20
5.156694901531342
 42
0.0282800192889773
 10
10.06696114996309
 20
5.085629048443504
 42
0.0345549919461318
 10
10.23580841978841
 20
5.039977646578018
 42
0.0331959998265652
 10
10.4148403594064
 20
5.016822130965823
 42
0.0230670364689089
 10
10.6188120825843
 20
5.013530915608874
 42
0.0136399350415589
 10
10.75534235451772
 20
5.021361105294264
 42
0.0237769588055047
 10
10.86772609991061
 20
5.036293717680265
 42
0.024509001127387
 10
10.97582506538466
 20
5.061450941791179
 42
0.0156350649758377
 10
11.09881160649786
 20
5.100699883134715
 42
0.0647740540292822
 10
11.44056024122134
 20
5.274109640242889
 42
0.0607400346105542
 10
11.73493232503585
 20
5.53242801843373
 42
0.0604020159052487
 10
11.95998457984813
 20
5.855426789967885
 42
0.0626630060761063
 10
12.09794487417954
 20
6.218945451759747
 42
0.0318170778694766
 10
12.12513286876957
 20
6.37365825032432
 42
0.0197450579309539
 10
12.13819107302047
 20
6.557665416808124
 42
0.0078340007901436
 10
12.143002
 20
6.863878999999998
 10
12.141927
 20
7.620550999999999
 10
12.13959732358878
 20
8.286335501593123
 42
0.0035980030523534
 10
12.13662313559245
 20
8.548777037555554
 42
0.0055179973368326
 10
12.13221764288448
 20
8.697796714078636
 42
0.0961730011231221
 10
12.12110029292962
 20
8.744780667960871
 42
0.04212599953751
 10
12.09615233222102
 20
8.789557578844663
 42
0.0377870166332347
 10
12.06322175814517
 20
8.831291941744826
 42
0.038029000341766
 10
12.02463309702674
 20
8.867324741858213
 42
0.0442120146398669
 10
11.98283603240602
 20
8.895115785453647
 42
0.0625669958081828
 10
11.92657918343497
 20
8.91716116607483
 42
0.0441179983496217
 10
11.85945538541631
 20
8.928015297874349
 42
0.0436519766766594
 10
11.79052564743163
 20
8.926974905267787
 42
0.0565669991301229
 10
11.72881214667031
 20
8.913473939611964
 42
0.0378979819053387
  0
LWPOLYLINE
  5
6C1
330
A
100
AcDbEntity
  8
0
 62
     7
 48
0.013523
100
AcDbPolyline
 90
       49
 70
     1
 43
0.0
 10
35.059006
 20
18.949858
 10
34.030544
 20
17.984322
 10
33.636066
 20
17.614315
 10
33.303562
 20
17.303383
 10
33.002026
 20
17.021957
 42
-0.4418880135896543
 10
32.99965887054618
 20
17.02214709590452
 42
0.0232190007324167
 10
32.99738733644372
 20
17.02482424446047
 10
32.721054
 20
17.321264
 10
32.088894
 20
17.998814
 42
0.2852159961934313
 10
32.07566624421167
 20
18.00242337312903
 42
0.0286889935182859
 10
32.04353157338606
 20
17.99081884250288
 42
0.017566014611149
 10
31.9911415207215
 20
17.96621453036897
 42
0.0029429870445648
 10
31.89269143367459
 20
17.91494978725445
 42
-0.0133549494031015
 10
31.58945861632365
 20
17.76499776188407
 42
-0.0139069905284645
 10
31.28267104465916
 20
17.6335770759144
 42
-0.0143029885162189
 10
30.97804568353541
 20
17.52296288139646
 42
-0.0164390133045016
 10
30.68131330225281
 20
17.43543884223961
 42
0.0061749704730315
 10
30.62628630664895
 20
17.42042471749731
 42
0.0300049742697102
 10
30.59579408281694
 20
17.40968528787401
 42
0.057152988192417
 10
30.57893270674007
 20
17.40019233382318
 42
0.2404270159856316
 10
30.573812
 20
17.39015999805362
 42
0.0581920195161109
 10
30.57636237494952
 20
17.36832070366181
 10
30.637091
 20
17.112318
 10
30.69606
 20
16.865088
 42
0.0276989806606585
 10
30.70845385174355
 20
16.82361251273683
 42
0.3279319376067154
 10
30.71523792486388
 20
16.81905722055588
 42
0.0272919896692878
 10
30.73762686126495
 20
16.82123242924725
 42
0.0210120604046752
 10
30.77197309527769
 20
16.82796973966664
 42
0.0056710849571469
 10
30.82578440009255
 20
16.84153705919612
 42
0.011098991342514
 10
31.07301242999729
 20
16.91276668106478
 42
0.0098649776493765
 10
31.32682772255867
 20
16.99757293508414
 42
0.0098780034381111
 10
31.57672655219389
 20
17.0921915043144
 42
0.0112199708139781
 10
31.81218828440629
 20
17.19289255669168
 10
31.945564
 20
17.253506
 10
31.983719
 20
17.214525
 42
-0.0053090054869031
 10
32.01150007043181
 20
17.18554240361925
 10
32.14924600000001
 20
17.038656
 10
32.310097
 20
16.86689
 10
32.493637
 20
16.670551
 10
32.675056
 20
16.476728
 10
32.82902100000001
 20
16.313084
 10
32.967625
 20
16.166267
 42
0.1157210111902292
 10
32.97288931124934
 20
16.16278929655439
 42
0.2836489313277866
 10
32.9825855563843
 20
16.16475211377575
 10
35.45815300000001
 20
18.481981
 42
0.1071970309195667
 10
35.47202936146237
 20
18.50206041833735
 42
0.2915540274375604
 10
35.47070111818623
 20
18.50952376379187
 10
35.268677
 20
18.729126
 10
35.066441
 20
18.948774
 42
0.3593929105848177
  0
LWPOLYLINE
  5
6C2
330
A
100
AcDbEntity
  8
0
 62
     7
 48
0.037917
100
AcDbPolyline
 90
        7
 70
     1
 43
0.0
 10
29.311855
 20
17.922646
 10
29.313372
 20
17.326391
 10
29.313812
 20
16.923891
 10
29.313812
 20
16.140551
 10
28.963812
 20
16.140551
 10
28.963812
 20
20.740551
 10
29.300501
 20
20.740551
  0
LWPOLYLINE
  5
6C3
330
A
100
AcDbEntity
  8
0
 62
     7
100
AcDbPolyline
 90
       27
 70
     1
 43
0.0
 10
31.22881041433883
 20
23.92369213416917
 42
0.0512209758553356
 10
31.0852044843325
 20
23.94388940092933
 42
0.0427860052483798
 10
30.93132338084942
 20
23.93647388899496
 42
0.0415200190184985
 10
30.77617683896277
 20
23.90232273395864
 42
0.0415230043060814
 10
30.62881064396328
 20
23.843014623838
 42
0.0546889947551073
 10
30.44041090925328
 20
23.7209424747337
 42
0.0546739925595938
 10
30.28293526826797
 20
23.56091820431368
 42
0.0532249686370854
 10
30.16049190287762
 20
23.36638797591668
 42
0.0470319989708122
 10
30.07575647474022
 20
23.14224808725607
 10
30.049261
 20
23.045551
 10
30.04296500000001
 20
21.569487
 10
30.080887
 20
21.576338
 42
0.0149480518304104
 10
30.16605564499909
 20
21.59436942423823
 42
0.0035960831653359
 10
30.3060435320546
 20
21.62947854549192
 42
0.0038089944369839
 10
30.44773532008631
 20
21.66725176739113
 42
0.0109038791895569
 10
30.5454016359861
 20
21.69639149457932
 42
0.0324770180479909
 10
30.92203355728148
 20
21.84538431230748
 42
0.046647022321127
 10
31.23051035395067
 20
22.02814371200655
 42
0.0535830945628877
 10
31.46505043222607
 20
22.24021770835678
 42
0.0740789123676569
 10
31.62047627420158
 20
22.47708864416638
 42
0.0553609809673816
 10
31.68462604537312
 20
22.66925327540013
 42
0.043615067001255
 10
31.7118686838848
 20
22.88708450952547
 42
0.0401689432550778
 10
31.70164891037265
 20
23.12434799773408
 42
0.0326179978531112
 10
31.65391546511159
 20
23.374493046094
 42
0.0363410039618726
 10
31.58101467044663
 20
23.58983266893988
 42
0.0650010038931461
 10
31.48688743722414
 20
23.75089250002584
 42
0.0791159936391365
 10
31.36984040027815
 20
23.86085188852332
 42
0.0887819950640257
  0
LWPOLYLINE
  5
6C4
330
A
100
AcDbEntity
  8
0
 62
     7
100
AcDbPolyline
 90
       44
 70
     1
 43
0.0
 10
27.30381238725451
 20
23.94024582646806
 42
0.0016189862819575
 10
27.26703986947667
 20
23.94397937487429
 42
0.0025049803217813
 10
27.23524900505018
 20
23.94694486631069
 10
27.207668
 20
23.949335
 42
0.0774519793050202
 10
27.20381041291282
 20
23.94906330861342
 42
-0.0247249942619389
 10
27.20008160694475
 20
23.94840525256487
 10
27.180515
 20
23.945957
 42
-0.0011410705802552
 10
27.15767348292192
 20
23.94317275224786
 10
27.131529
 20
23.940083
 42
0.0764910002841225
 10
26.96528416024464
 20
23.89431398060463
 42
0.0904250010493184
 10
26.83103670072162
 20
23.80213453892271
 42
0.0781740524631679
 10
26.72434145028986
 20
23.65662332352767
 42
0.0426989727733595
 10
26.639726605901
 20
23.45154738378932
 42
0.0255790089724548
 10
26.59845672679232
 20
23.29313534304156
 42
0.0208700199718256
 10
26.57020527216622
 20
23.1202018314633
 42
0.0213940009978676
 10
26.55720636857797
 20
22.95266933402127
 42
0.035687045914569
 10
26.56239216530811
 20
22.81137287232852
 42
0.0375719882852748
 10
26.59902864105384
 20
22.61357954513136
 42
0.0497040005378964
 10
26.66311097599201
 20
22.44207464589964
 42
0.0497099711898029
 10
26.75977001572587
 20
22.28660527711491
 42
0.0375950285871243
 10
26.89399324519643
 20
22.13684951398567
 42
0.0480130426396597
 10
27.11228662617891
 20
21.96427627892103
 42
0.0348450217729127
 10
27.38380375147408
 20
21.81477235568447
 42
0.0312630397205981
 10
27.70482408458573
 20
21.68982858705787
 42
0.0232610902509847
 10
28.07219995930008
 20
21.59125213175526
 42
0.0015649812946941
 10
28.12672517468917
 20
21.57948999479611
 42
0.0023340025036284
 10
28.17449873294386
 20
21.56957239913744
 10
28.215414
 20
21.561357
 42
0.0490570520494791
 10
28.22362897792455
 20
21.56055400000001
 42
0.4104109802594593
 10
28.22967148918019
 20
21.56651841532863
 10
28.231487
 20
21.723686
 42
0.0031000113879002
 10
28.23232375575458
 20
21.93768702154163
 10
28.230982
 20
22.288052
 10
28.228294
 20
22.687801
 42
0.0041150034572824
 10
28.22491690259317
 20
22.89483896697021
 42
0.0066369999102278
 10
28.22011708607888
 20
23.02175071283063
 42
0.042307999019208
 10
28.21140838665135
 20
23.08555134913219
 42
0.0302889965246507
 10
28.1658011852156
 20
23.24369663597855
 42
0.0358409798820087
 10
28.10336174186688
 20
23.38618348567167
 42
0.036466978384566
 10
28.02227750317157
 20
23.51622255160433
 42
0.0334340124532632
 10
27.92096430229689
 20
23.6371713144284
 42
0.0408040039293446
 10
27.78640968615759
 20
23.75640973417753
 42
0.0467969847716456
 10
27.6400305157555
 20
23.84615648675303
 42
0.0468789896786656
 10
27.47974423147316
 20
23.90700260977941
 42
0.0411970047654955
  0
LWPOLYLINE
  5
6C5
330
A
100
AcDbEntity
  8
0
 62
     7
100
AcDbPolyline
 90
       98
 70
     1
 43
0.0
 10
26.62953261890352
 20
24.54919353772905
 42
0.0866510389541263
 10
26.299060933749
 20
24.30724012105188
 42
0.0796050106322548
 10
26.04979931657684
 20
23.94837727182791
 42
0.0569569625360621
 10
25.88910327177423
 20
23.48590714656616
 42
0.0086029532007857
 10
25.85759068936837
 20
23.33314682782312
 42
0.0198319919032421
 10
25.84046681251916
 20
23.21714758959848
 42
0.0190220149522615
 10
25.83220354497153
 20
23.09728940987469
 42
0.0073320414045592
 10
25.82950701737903
 20
22.93055263840201
 42
0.0034340317050336
 10
25.83017136408051
 20
22.80691995940074
 42
0.0104149787287232
 10
25.83295350907484
 20
22.72285106110269
 42
0.0146750049921597
 10
25.83843505973003
 20
22.65715330543842
 42
0.0174050024072275
 10
25.84758223284082
 20
22.59555021185046
 42
0.0269090495500203
 10
25.89686285197139
 20
22.39062987720823
 42
0.0295769934624711
 10
25.96668674530232
 20
22.19873588880775
 42
0.0295749671095588
 10
26.05866348429226
 20
22.01640906013745
 42
0.0269009977578509
 10
26.17420656279882
 20
21.84011203262378
 42
0.0271530109045195
 10
26.25082899115808
 20
21.74693773752013
 42
0.0122540202029703
 10
26.36065406357828
 20
21.63300076306694
 42
0.0122849564570945
 10
26.47847191535205
 20
21.52220380054555
 42
0.021867005726417
 10
26.58144616718411
 20
21.43784041097657
 42
0.0373760315357984
 10
26.8853763959132
 20
21.243901196142
 42
0.0281680196298379
 10
27.24455690496396
 20
21.07615566639668
 42
0.0264830516287907
 10
27.6452298715495
 20
20.93997506161492
 42
0.0235809881382598
 10
28.073812
 20
20.840736
 10
28.119495
 20
20.832354
 10
28.161638
 20
20.824516
 10
28.19696874327445
 20
20.81785741962018
 42
-0.0056700115451421
 10
28.211311
 20
20.814964
 10
28.233812
 20
20.810171
 10
28.233812
 20
16.140551
 10
27.113811
 20
16.140551
 10
27.113811
 20
15.460551
 10
31.163813
 20
15.460551
 10
31.163813
 20
16.140551
 10
30.030766
 20
16.140551
 10
30.041149
 20
19.374559
 10
30.044237
 20
20.129829
 10
30.04733504685364
 20
20.81553769849094
 42
-0.1977360392067115
 10
30.04867659028815
 20
20.8187494179103
 42
-0.1435589971669889
 10
30.051712
 20
20.82041
 10
30.09309808327542
 20
20.82940442743984
 42
-0.0026080077809659
 10
30.14013441406297
 20
20.83932614124774
 42
-0.001625985070682
 10
30.19535930735623
 20
20.85048610688869
 42
0.0214400944597188
 10
30.66990098227661
 20
20.96612645706291
 42
0.0288269448905575
 10
31.08694069902118
 20
21.11343207064189
 42
0.0316930956830504
 10
31.44959398442184
 20
21.29335517765131
 42
0.0390980050361868
 10
31.76056434873276
 20
21.50704401554325
 42
0.0196219820056392
 10
31.85512863786148
 20
21.58989177571646
 42
0.0129560464587578
 10
31.95740424596199
 20
21.69200693057891
 42
0.0130269755189603
 10
32.05280349816352
 20
21.79770781058865
 42
0.0222989321797553
 10
32.12596861105741
 20
21.89128238400789
 42
0.0302689679790889
 10
32.22745258430927
 20
22.05370601186768
 42
0.0267680388947116
 10
32.31325112886911
 20
22.23387716571324
 42
0.0265469886885375
 10
32.37998420905601
 20
22.42383491766316
 42
0.0284220198763643
 10
32.42444822197595
 20
22.61555034871872
 42
0.0328120808902594
 10
32.446931286554
 20
22.82790732840547
 42
0.0248650513580931
 10
32.44462835018643
 20
23.06224142291911
 42
0.0239240078560757
 10
32.41838016579354
 20
23.30569527061391
 42
0.0239190002605462
 10
32.3689945945879
 20
23.54554263552002
 42
0.0238769923877834
 10
32.29697351049607
 20
23.77948879503903
 42
0.033537010609804
 10
32.20922935640306
 20
23.97949014743517
 42
0.0362330049569906
 10
32.10180649649164
 20
24.15356077586147
 42
0.0367149896783228
 10
31.97080828357706
 20
24.30948394689086
 42
0.0366379957676965
 10
31.83223600271044
 20
24.43235294987651
 42
0.0397360050510929
 10
31.6807643681371
 20
24.53002893041718
 42
0.038810973985106
 10
31.51250961094266
 20
24.60430194509271
 42
0.0320970001036358
 10
31.32381085239991
 20
24.65733620156898
 42
0.0391799863700748
 10
31.20605269642882
 20
24.67290827961098
 42
0.0155039895257646
 10
31.04268553913245
 20
24.67652664634924
 42
0.0156560227823689
 10
30.87605799892825
 20
24.66982754636991
 42
0.0313230024451116
 10
30.74547281655304
 20
24.65221315223824
 42
0.0352309859019469
 10
30.49287022091937
 20
24.58307570825334
 42
0.0381680209628453
 10
30.25943749461363
 20
24.48054108111298
 42
0.0382350301708925
 10
30.0446588038029
 20
24.34389862325722
 42
0.035600970502564
 10
29.84766156656487
 20
24.17311876937717
 42
0.0369700400327313
 10
29.66235434541448
 20
23.95817585322846
 42
0.0399110420234105
 10
29.51593953006931
 20
23.72349793926838
 42
0.0392140113999904
 10
29.40665484194303
 20
23.46475269198863
 42
0.0334399968892777
 10
29.33209235229844
 20
23.17801311131156
 42
0.0263950124460908
 10
29.31960742590279
 20
23.08594524026216
 42
0.0134669891451178
 10
29.31318459531042
 20
22.96939716598854
 42
0.0052599778191035
 10
29.309689
 20
22.77084
 10
29.30663499999999
 20
22.27305
 10
29.302517
 20
21.480551
 10
28.963812
 20
21.480551
 10
28.96381399996406
 20
22.24676946438243
 42
0.001165998278468
 10
28.9625445373656
 20
22.79033885924548
 42
0.0118970003182772
 10
28.95613224893812
 20
23.01558446722186
 42
0.0267479969019142
 10
28.94011805526863
 20
23.16648414294281
 42
0.0218380019639277
 10
28.90739816498776
 20
23.32554936817922
 42
0.0812849934836523
 10
28.67239491258352
 20
23.86807613620637
 42
0.0822540004463452
 10
28.27746546517343
 20
24.30485581120705
 42
0.0835200003758294
 10
27.76860052848292
 20
24.58608765540313
 42
0.0875300016467267
 10
27.20407339537489
 20
24.67928388387011
 42
0.0054800178238737
 10
27.15549580452159
 20
24.67821783390564
 42
0.004825004523049
 10
27.10483995180329
 20
24.67605883794196
 42
0.0048520053986852
 10
27.05919011904375
 20
24.67322940212449
 42
0.0145670027514472
 10
27.02811632490665
 20
24.67008786956771
 42
0.0824880073396692
  0
LWPOLYLINE
  5
6C6
330
A
100
AcDbEntity
  8
0
 62
     7
100
AcDbPolyline
 90
      116
 70
     1
 43
0.0
 10
35.91394535941801
 20
29.26875481417044
 42
0.0439480059312585
 10
34.49881244877268
 20
29.47048330251373
 42
0.0096760146301382
 10
34.26754572125972
 20
29.47844342459527
 42
0.0076010203650535
 10
34.01670487290569
 20
29.47840498526652
 42
0.0074069986400144
 10
33.75821100141499
 20
29.47060706328989
 42
0.0077380018619337
 10
33.50380800568962
 20
29.45520670693848
 42
0.0170440179707509
 10
32.97655358832763
 20
29.39696430520957
 42
0.016854988155472
 10
32.45251386689132
 20
29.30279614243311
 42
0.0169750095087165
 10
31.9397550733928
 20
29.17434229096195
 42
0.0179309993594253
 10
31.4463098103154
 20
29.01341172272683
 10
31.323812
 20
28.96854
 10
31.321173
 20
28.829769
 10
31.320429
 20
28.792118
 10
31.319784
 20
28.760323
 10
31.319437
 20
28.744986
 42
0.1771390567896712
 10
31.32501581510478
 20
28.7284877221961
 42
0.0965489876478613
 10
31.34155562649569
 20
28.71451677055135
 42
0.032186020862769
 10
31.37752180378199
 20
28.6973813738296
 42
0.0029629843288477
 10
31.46951462360387
 20
28.66124455000506
 42
-0.0070649965535472
 10
31.65691514602031
 20
28.58584088381766
 42
-0.0079060088081485
 10
31.83516490905845
 20
28.50784502162751
 42
-0.0080259947178825
 10
32.00839137981374
 20
28.4253714787736
 42
-0.0077790108410783
 10
32.18070876875906
 20
28.33655063478929
 10
32.302605
 20
28.271297
 10
32.995197
 20
28.919281
 10
33.167255
 20
29.080585
 10
33.313007
 20
29.217421
 42
0.0037210155055507
 10
33.3490599113812
 20
29.25179678369308
 10
33.39930300000001
 20
29.300419
 10
34.674061
 20
27.939999
 10
35.162968
 20
27.417856
 10
35.574841
 20
26.977142
 10
35.947777
 20
26.577606
 42
-0.1300500037424073
 10
35.950478185897
 20
26.57256362518222
 42
-0.2666019863737957
 10
35.94904380857557
 20
26.56770172818244
 10
35.821213
 20
26.445707
 42
-0.0015959740563056
 10
35.67823518118037
 20
26.31018198846467
 10
35.50808
 20
26.150551
 10
34.961864
 20
25.639858
 10
34.859726
 20
25.544159
 10
34.92603300000001
 20
25.394857
 42
-0.009206003560883
 10
35.01417823602885
 20
25.18610720630355
 42
-0.0068809993606008
 10
35.10388625199079
 20
24.95300311859954
 42
-0.0069099993849498
 10
35.18166068272645
 20
24.73299511512252
 42
-0.0175089989905176
 10
35.23030488906858
 20
24.57055027444472
 42
0.2349509337069018
 10
35.25226807310402
 20
24.54538306874396
 42
0.0780959111475998
 10
35.30123149701956
 20
24.53360932934624
 42
0.0115499855355676
 10
35.41411310484155
 20
24.52717463348102
 10
36.02644
 20
24.506689
 10
36.294426
 20
24.497337
 42
-0.0015199778728499
 10
36.52122751740757
 20
24.48831177899782
 10
36.724243
 20
24.479555
 42
-0.1876650183537678
 10
36.73120725581723
 20
24.47649425866563
 42
-0.2029450649222873
 10
36.7340788204068
 20
24.4694028432914
 10
36.711727
 20
23.028521
 10
36.686367
 20
21.441284
 10
36.59499
 20
15.997499
 42
0.0022749969715645
 10
36.58341406432727
 20
15.04064276398362
 42
0.0076490502551058
 10
36.58719333973509
 20
14.55370590411012
 42
0.0416329578145846
 10
36.61514035013448
 20
14.29167338561422
 42
0.019197973469894
 10
36.65492520579245
 20
14.12012452056755
 42
0.0177509986368367
 10
36.70865467393908
 20
13.94752469390709
 42
0.0177560005811933
 10
36.77446678023488
 20
13.77922243656308
 42
0.0192389951264358
 10
36.85047929243849
 20
13.62055219464848
 42
0.0536629979411856
 10
37.13702793521997
 20
13.19484617604008
 42
0.0530090092264464
 10
37.50866815009237
 20
12.83791767808623
 42
0.0530790669593761
 10
37.94654941650073
 20
12.56750091202958
 42
0.0540939366293052
 10
38.42881010882869
 20
12.39739950123064
 42
0.01911989369589
 10
38.6185581802657
 20
12.36036450501601
 42
0.0274320174731276
 10
38.78898289181668
 20
12.34331872519874
 42
0.0098290029256021
 10
39.05257189693547
 20
12.33668016517877
 10
39.861282
 20
12.333134
 10
40.973759
 20
12.329514
 10
40.978813
 20
15.955551
 10
41.543812
 20
16.182018
 42
0.0010540789021617
 10
41.7636977495074
 20
16.27069352049627
 42
0.0015490071299899
 10
41.95652967180399
 20
16.3496236977593
 10
42.12054099999999
 20
16.417631
 42
0.029040987852665
 10
42.15539237889116
 20
16.434576396127
 42
0.0524019688766774
 10
42.25520091475649
 20
16.50513309116679
 42
0.0471628872854406
 10
42.34212805920784
 20
16.59723050734992
 42
0.0462589811145571
 10
42.41174012334176
 20
16.70589225998564
 42
0.0461919615592735
 10
42.46023022663433
 20
16.82555008553276
 42
0.0503580026747227
 10
42.47569391671885
 20
16.90507211621702
 42
0.0261599420121672
 10
42.47965085949455
 20
17.00621447206331
 42
0.0261259983550378
 10
42.4729786959441
 20
17.10805371229607
 42
0.046687995699077
 10
42.45542034181933
 20
17.19002804605922
 42
0.0444309984605492
 10
42.42813265876919
 20
17.25583861215113
 42
0.001174004987372
 10
42.28090567789798
 20
17.5357380408831
 42
0.0019359914382159
 10
42.07782619707393
 20
17.91605451784387
 10
41.30647699999999
 20
19.34304
 42
-0.0099660465123248
 10
41.14883025565091
 20
19.65015748924222
 42
-0.0293729706357941
 10
41.07144048979553
 20
19.8354722027348
 42
-0.0438270140039855
 10
41.02814493177604
 20
20.00555082487867
 42
-0.0297730267880376
 10
41.0170491288607
 20
20.11382088416723
 42
-0.0182489889327852
 10
41.0162646842644
 20
20.2421689549771
 42
-0.018308000770989
 10
41.02475197653965
 20
20.36860240384073
 42
-0.0333519778706099
 10
41.04227687600183
 20
20.47055174104315
 42
-0.0286920066894819
 10
41.0941108004224
 20
20.64153447913868
 42
-0.0368830172259203
 10
41.16189533549284
 20
20.79112717333588
 42
-0.0363509916952519
 10
41.25179487033117
 20
20.93081986371962
 42
-0.0266619868679371
 10
41.37023804020247
 20
21.07206631080027
 42
0.0124049617657743
 10
41.48489841233771
 20
21.20114677970621
 42
0.0206020447513232
 10
41.57417239299948
 20
21.31609741229857
 42
0.0220030148306491
 10
41.64952975285671
 20
21.43235398574027
 42
0.0170740900158781
 10
41.72143767510266
 20
21.56492169705252
 42
0.0394200251499868
 10
41.82144987817022
 20
21.81242649138989
 42
0.0386640458219803
 10
41.88216687039757
 20
22.07415787522673
 42
0.0374030083531049
 10
41.90315385751197
 20
22.35024616487403
 42
0.0322800258700478
 10
41.88471600604434
 20
22.64055009533545
 42
0.0413000014200114
 10
41.6095082263608
 20
23.92848051613556
 42
0.0422660012446059
 10
41.12774989624947
 20
25.1432715186054
 42
0.0423519945579826
 10
40.44966132625392
 20
26.25752650255668
 42
0.0418199938574062
 10
39.59093116443804
 20
27.24668670284635
 42
0.044488004288981
 10
38.4882872460431
 20
28.14447966960684
 42
0.0457029897225241
 10
37.25375710366277
 20
28.8238682558223
 42
0.0456100058696595
  0
LWPOLYLINE
  5
6C7
330
A
100
AcDbEntity
  8
0
 62
     7
100
AcDbPolyline
 90
      325
 70
     1
 43
0.0
 10
42.06773132797512
 20
19.22012605962462
 42
-0.0012640602119101
 10
41.857666
 20
19.612953
 10
41.67676425886986
 20
19.95397023874476
 42
-0.0371809690010933
 10
41.65418611190871
 20
20.00555056259149
 42
-0.0203610184337248
 10
41.64131450247982
 20
20.04752958086146
 42
-0.0315110027050255
 10
41.63401031253403
 20
20.08473028062256
 42
-0.024445035779932
 10
41.63039562193966
 20
20.12876779348358
 42
-0.0074849930016695
 10
41.62918424155232
 20
20.19554919081414
 42
-0.0405880113715692
 10
41.64013656997408
 20
20.33563424126409
 42
-0.065458026116917
 10
41.67428876350817
 20
20.45013098887078
 42
-0.0576230255002601
 10
41.74046905134153
 20
20.56161853941515
 42
-0.0246519862997075
 10
41.85228997236548
 20
20.6943439258802
 42
0.0247879694075666
 10
42.02891961523557
 20
20.90410479306584
 42
0.0276919896220319
 10
42.1770115064475
 20
21.12295686541534
 42
0.0281469018693847
 10
42.29797963609353
 20
21.35347077282978
 42
0.0274180923699993
 10
42.3934782031892
 20
21.59811382853889
 42
0.0366879661731072
 10
42.48100585835539
 20
21.94968196900614
 42
0.0395569718212791
 10
42.51331782269715
 20
22.3014723094417
 42
0.0331990487825908
 10
42.49168769348107
 20
22.7026412963519
 42
0.0161029964814604
 10
42.41366081239423
 20
23.21055181485683
 42
0.0251399946741656
 10
42.21568115863623
 20
24.03778340934748
 42
0.025428009654548
 10
41.9362785287482
 20
24.83775813956399
 42
0.0254260012282341
 10
41.57707988569961
 20
25.60529168159277
 42
0.025125992657854
 10
41.14053946560609
 20
26.33555200831148
 42
0.0432179992936269
 10
40.23597819368378
 20
27.46468601893581
 42
0.042735009647448
 10
39.14760172294671
 20
28.42618093522835
 42
0.0427370073279637
 10
37.91167425819644
 20
29.188595032655
 42
0.043234999964302
 10
36.56881051303717
 20
29.72634950321086
 42
0.0263870176370453
 10
35.71027607164825
 20
29.93801207985722
 42
0.0260690182065535
 10
34.83073232064667
 20
30.05911826123262
 42
0.0260119989307531
 10
33.94146171454373
 20
30.08820142661271
 42
0.0259980137555394
 10
33.05381128120733
 20
30.02480505785073
 42
0.0122969966842299
 10
32.66366251257398
 20
29.96668632764096
 42
0.0118149932242935
 10
32.27158095471012
 20
29.88879895926984
 42
0.011812998907314
 10
31.883529115963
 20
29.79245345961632
 42
0.0122789952586061
 10
31.50548711017815
 20
29.67901179632859
 42
-0.0023930080519448
 10
31.44648595206357
 20
29.66002236389163
 42
-0.0039209328007817
 10
31.396313
 20
29.644579
 10
31.35204556672463
 20
29.63139344316948
 42
-0.2879130334030964
 10
31.34912767629373
 20
29.63220770210702
 42
-0.1924620147664315
 10
31.347942
 20
29.63538
 10
31.34989267428415
 20
29.71919940277381
 42
-0.0016790083181626
 10
31.3524263054853
 20
29.81295700604222
 42
-0.0010240068466816
 10
31.3560054861358
 20
29.92366145637308
 42
0.001469018508185
 10
31.35949506643784
 20
30.034436392624
 42
0.002396943791983
 10
31.361727
 20
30.128422
 10
31.3632550888158
 20
30.21192394694172
 42
0.2035120255820403
 10
31.36154910997286
 20
30.2161461338062
 42
0.1902159990895471
 10
31.355692
 20
30.218691
 10
27.79404022216069
 20
30.33800029027477
 42
0.0078669939095835
 10
27.65150154783356
 20
30.34051896941781
 42
0.1141339984326747
 10
27.64435570274289
 20
30.33888160561173
 42
0.0876200038790901
 10
27.63784954751735
 20
30.33416004688254
 42
0.0782519488852998
 10
27.63277106288594
 20
30.32693203061992
 42
0.0657209999660695
 10
27.62977864815023
 20
30.31804968404049
 42
0.0394899863291201
 10
27.6277162903328
 20
30.30015058035837
 10
27.620218
 20
30.089193
 10
27.612154
 20
29.850098
 10
27.594692
 20
29.292036
 10
27.58663
 20
29.056318
 10
27.578979
 20
28.844624
 42
-0.1248719919524098
 10
27.57705695364158
 20
28.8380520181988
 42
-0.1207099457226802
 10
27.57424745798183
 20
28.83517324186131
 42
-0.0499690309072166
 10
27.56933075117402
 20
28.83275218899423
 42
-0.0455600163337965
 10
27.56329310905824
 20
28.83110358911139
 42
-0.0438510802611237
 10
27.55697296396101
 20
28.83055100000002
 42
0.0745380116169934
 10
27.54551158403527
 20
28.82883283076955
 42
0.0011209818148662
 10
27.4807869940914
 20
28.80882215191335
 42
0.0030039912046361
 10
27.40570412005874
 20
28.78492947655178
 42
0.0019779842208485
 10
27.31959983091105
 20
28.75658290228522
 42
0.0060010114220541
 10
27.14615556910216
 20
28.69639241217343
 42
0.0064449923873298
 10
26.97830543479745
 20
28.63341837416499
 42
0.0068040049192358
 10
26.82234759936946
 20
28.57015267945346
 42
0.0095240086243193
 10
26.68491856989603
 20
28.50909660745881
 42
-0.0028070291351744
 10
26.64451077514997
 20
28.49048946203046
 42
-0.004256992843471
 10
26.60914788530006
 20
28.47481249261181
 42
-0.0016770360905544
 10
26.5786944549427
 20
28.4617346504884
 42
-0.1008760841602152
 10
26.57287397819798
 20
28.46055300000001
 42
-0.2051689429536242
 10
26.56728039674682
 20
28.46295013406228
 10
26.416847
 20
28.62085
 42
-0.0012279750090248
 10
26.24989643406613
 20
28.79701289193726
 10
26.053158
 20
29.006248
 10
25.541588
 20
29.551949
 10
25.520201
 20
29.532793
 42
0.005635025302474
 10
25.47086677685433
 20
29.48759553103784
 10
22.91293
 20
27.09042
 42
0.0043890163788649
 10
22.85115731247409
 20
27.03149820859565
 10
22.813503
 20
26.994951
 10
23.842239
 20
25.898062
 10
23.807156
 20
25.836805
 42
0.0151580276020831
 10
23.72351606274799
 20
25.67994161547189
 42
0.0070919981499279
 10
23.62435363527882
 20
25.47220080507512
 42
0.0070409752648454
 10
23.52698266683344
 20
25.25244493675849
 42
0.0102069919108898
 10
23.44774918038249
 20
25.05555049958531
 10
23.394705
 20
24.91555
 10
23.326759
 20
24.918047
 42
0.0014140012525023
 10
22.93094071496556
 20
24.93144554818572
 10
22.438543
 20
24.946001
 10
21.905117
 20
24.960947
 42
0.2061920047337016
 10
21.89806872299061
 20
24.95814027369446
 42
0.1902149999050965
 10
21.89495198602631
 20
24.9509621418938
 10
21.777306
 20
21.437548
 42
0.0074089927881145
 10
21.77392633312262
 20
21.25507563626181
 10
21.773811
 20
21.224594
 10
22.768648
 20
21.19372
 10
23.007479
 20
21.186577
 10
23.216097
 20
21.180477
 42
0.0097150307695439
 10
23.24092764159222
 20
21.18023848136012
 42
-0.0399159979144581
 10
23.25957742610417
 20
21.17892820297042
 42
-0.1569230023358203
 10
23.26977154174464
 20
21.17386433614157
 42
-0.1176780018000869
 10
23.27671194288313
 20
21.16289290641793
 42
-0.0181439813470572
 10
23.28422160521477
 20
21.13805177801048
 42
0.0183490210572643
 10
23.33473845961181
 20
20.97116548146368
 42
0.0062689993632375
 10
23.41985183799305
 20
20.73295224367112
 42
0.0064299950242469
 10
23.51444647697224
 20
20.48802882916699
 42
0.0119249513678171
 10
23.59846098998104
 20
20.29220311396849
 42
-0.001292988626979
 10
23.61968002202536
 20
20.24551156814616
 42
-0.0020609967819964
 10
23.63755083750765
 20
20.20547020696234
 10
23.653114
 20
20.170141
 42
-0.1038880517956665
 10
23.653811
 20
20.1668169935024
 42
-0.2063720265606679
 10
23.65249739527095
 20
20.16376761991978
 10
23.494452
 20
20.014545
 10
23.319324
 20
19.849657
 10
22.903101
 20
19.459496
 10
22.727329
 20
19.294081
 10
22.569288
 20
19.144955
 42
0.1039749774473627
 10
22.56594832995105
 20
19.14015050201883
 42
0.2954679751915092
 10
22.56683010603034
 20
19.13516220679809
 10
22.938892
 20
18.735195
 10
23.350311
 20
18.293936
 10
23.839561
 20
17.771084
 10
25.116035
 20
16.408783
 10
25.147425
 20
16.438351
 10
25.783508
 20
17.036581
 42
-0.0042600297714426
 10
26.0478695743067
 20
17.28059619331189
 42
-0.0032230103331473
 10
26.20951697996777
 20
17.42538515849307
 42
-0.3369219888169359
 10
26.23749337425754
 20
17.42746033833183
 42
0.0244179582970232
 10
26.29838747482643
 20
17.39201949849114
 42
0.0028610344193199
 10
26.43838256081146
 20
17.32046076604871
 42
0.0037549888141349
 10
26.58693356653744
 20
17.24698294821811
 42
0.0070259254188991
 10
26.70838772547908
 20
17.1901409880561
 42
0.010059906639041
 10
26.90406546139753
 20
17.10658234436892
 42
0.0055870403273077
 10
27.14579058356278
 20
17.01219031669928
 10
27.398043
 20
16.91748
 42
0.293681043390644
 10
27.41853168371283
 20
16.9219353253791
 42
0.1231890111276846
 10
27.4284135944937
 20
16.9384159506011
 10
27.512533
 20
17.215677
 10
27.597778
 20
17.497494
 42
0.3418400203866299
 10
27.59500082724148
 20
17.50475796427231
 42
0.0581609919864492
 10
27.59065124774286
 20
17.50675673543342
 42
0.0037930200802163
 10
27.57741147650941
 20
17.51095076002181
 42
0.0054739962573271
 10
27.5614977832392
 20
17.51566807762614
 42
0.0040549849460886
 10
27.54381169610828
 20
17.52054546009184
 42
-0.0219849899543768
 10
27.47104751776529
 20
17.54345221804571
 42
-0.0033739960464263
 10
27.32880642308955
 20
17.59630119666841
 42
-0.0040539726384816
 10
27.17569314769625
 20
17.65579220827443
 42
-0.0061730025392888
 10
27.0438097592532
 20
17.71015735789191
 42
-0.0116169933519703
 10
26.88140231739124
 20
17.7839746864434
 42
-0.0078010949595317
 10
26.69920010609744
 20
17.87548613360339
 42
-0.0075410866865925
 10
26.51138327634928
 20
17.97714715758051
 42
-0.0081580331580665
 10
26.3316232299104
 20
18.08187372907063
 10
26.131651
 20
18.202787
 10
26.075233
 20
18.1479
 42
-0.0046960435852412
 10
25.90610988395687
 20
17.98642981907131
 10
25.554651
 20
17.658003
 10
25.153276
 20
17.283974
 42
-0.1897519693209942
 10
25.14457498730388
 20
17.28055200000001
 42
-0.2061129381993757
 10
25.13921490513291
 20
17.28285860729032
 10
24.907318
 20
17.527992
 10
24.650892
 20
17.799911
 10
24.347805
 20
18.1229
 10
23.540304
 20
18.98455
 42
0.0011759990287954
 10
23.49090404277695
 20
19.03698810446829
 10
23.422997
 20
19.10873
 10
24.411629
 20
20.034004
 10
24.29328
 20
20.264774
 42
-0.0118779779050301
 10
24.13596000913749
 20
20.59036443085169
 42
-0.0163390314502366
 10
24.01129586548228
 20
20.89049975829853
 42
-0.0165220044287298
 10
23.90753131786476
 20
21.19546791266453
 42
-0.012584994401778
 10
23.81350068349526
 20
21.53554963384372
 10
23.7561
 20
21.765551
 10
23.697454
 20
21.771864
 42
0.0171000026287261
 10
23.65525583780136
 20
21.77495150068795
 10
23.477522
 20
21.781673
 42
0.0010100005649475
 10
23.26820611003602
 20
21.78896234239868
 10
23.031099
 20
21.796406
 10
22.797375
 20
21.803846
 42
-0.001504902556951
 10
22.59890458510811
 20
21.81113081470284
 10
22.422079
 20
21.818222
 42
-0.1289930512111592
 10
22.4131621706524
 20
21.82095443730407
 42
-0.2679510724234522
 10
22.40600978418794
 20
21.83424649866327
 10
22.48049
 20
24.309906
 42
-0.1910810281388203
 10
22.48859260184039
 20
24.32866238858594
 42
-0.206437025716553
 10
22.49545567261373
 20
24.33139010148371
 10
22.806507
 20
24.322357
 10
23.175249
 20
24.310904
 10
23.663813
 20
24.294394
 10
23.838812
 20
24.28833
 10
23.887903
 20
24.451942
 42
-0.0157350140223834
 10
24.00219389357249
 20
24.79341190187704
 42
-0.0164379963754876
 10
24.136231662306
 20
25.12199996227066
 42
-0.0161749533274036
 10
24.29371306029125
 20
25.44590722699327
 42
-0.0142299578058491
 10
24.47831373523519
 20
25.77336208109386
 10
24.60339
 20
25.981171
 10
24.143602
 20
26.470453
 10
23.967312
 20
26.658745
 42
-0.0015180143729108
 10
23.81887274914292
 20
26.81885176143614
 10
23.68646
 20
26.962626
 42
-0.1881799808925124
 10
23.683812
 20
26.96941399842512
 42
-0.1638090409052484
 10
23.68558918983927
 20
26.97469599403709
 42
-0.018752985590844
 10
23.69366907790395
 20
26.98454467863323
 42
-0.021044022783467
 10
23.70451331306933
 20
26.99580660498972
 42
-0.0156740259070373
 10
23.71736031133875
 20
27.00732539319692
 42
0.0130889714565314
 10
23.74303243988043
 20
27.03009851019136
 10
23.999727
 20
27.270164
 10
24.291525
 20
27.543457
 10
24.631495
 20
27.86247100000001
 10
25.512079
 20
28.689394
 10
26.385298
 20
27.756317
 10
26.44029
 20
27.69709000000001
 10
26.619551
 20
27.793076
 42
-0.0147179842793113
 10
26.93881942839007
 20
27.95212845546389
 42
-0.0164559737650889
 10
27.25535577622866
 20
28.08589946418226
 42
-0.0163819824066078
 10
27.58129660958946
 20
28.19907027786705
 42
-0.0143230202722936
 10
27.92881129631751
 20
28.296284858408
 42
0.0021940220165654
 10
28.01761661866668
 20
28.31882453856622
 42
0.0034219451579346
 10
28.09388791293633
 20
28.33909059893464
 42
0.001005920853676
 10
28.15991705978564
 20
28.35726814313056
 42
0.11426787832744
 10
28.16779843663394
 20
28.36155175322487
 42
0.2023959844073743
 10
28.17163474589841
 20
28.36958161527255
 10
28.180489
 20
28.562601
 42
0.0020089203047773
 10
28.1894525895387
 20
28.77913874235966
 42
0.0012270238031492
 10
28.19837415782235
 20
29.03478897411402
 10
28.207039
 20
29.290239
 42
-0.0011889930232462
 10
28.21519262215656
 20
29.5061862053819
 10
28.223001
 20
29.700151
 42
-0.1884259925755752
 10
28.22527639553387
 20
29.70535160446613
 42
-0.2057630045237632
 10
28.23049943154296
 20
29.70743553288373
 10
28.500484
 20
29.700296
 10
28.799984
 20
29.691807
 10
29.154697
 20
29.680702
 10
30.080616
 20
29.650591
 10
30.47223300000001
 20
29.637367
 10
30.72555900000001
 20
29.62849
 42
-0.1897880018912974
 10
30.73201081645308
 20
29.62568680531857
 42
-0.2060569808562545
 10
30.73332730362978
 20
29.62238142314197
 10
30.727961
 20
29.427441
 10
30.721649
 20
29.211439
 10
30.713512
 20
28.955517
 42
0.0012220147006851
 10
30.70569600017697
 20
28.6978889124552
 42
0.0020470035456821
 10
30.70054634704293
 20
28.48125700359013
 10
30.696844
 20
28.288822
 42
0.219117063294853
 10
30.7002334136278
 20
28.28107546339881
 42
0.0983529312480695
 10
30.70766138590669
 20
28.27672051320819
 10
30.767979
 20
28.255873
 42
0.0030519183853218
 10
30.8376998044753
 20
28.23239446743325
 42
0.0019640040792298
 10
30.91880845132541
 20
28.20598054088078
 42
-0.0125559911739667
 10
31.25979731056298
 20
28.08689949698015
 42
-0.0165970043340555
 10
31.56355004881898
 20
27.96051243676467
 42
-0.0165249853920857
 10
31.85928344143241
 20
27.81379938793263
 42
-0.0122770009193359
 10
32.1760619268565
 20
27.63320794751913
 10
32.383312
 20
27.508223
 10
32.601063
 20
27.712763
 10
33.005119
 20
28.091909
 42
-0.0015990153002885
 10
33.21775602365458
 20
28.28993703070007
 10
33.3657
 20
28.426683
 42
-0.2855670114782219
 10
33.37433828484967
 20
28.42833894345627
 42
-0.1133770084077089
 10
33.39013330897387
 20
28.41769479026655
 10
35.079533
 20
26.61145
 42
-0.1902329898025177
 10
35.083811
 20
26.60061998754359
 42
-0.2062889876591282
 10
35.08032144985107
 20
26.59252202518055
 10
34.652004
 20
26.18786
 10
34.270195
 20
25.827871
 42
-0.0072909672483021
 10
34.13554371418974
 20
25.70481151127609
 10
34.102272
 20
25.675287
 10
34.196186
 20
25.495419
 42
-0.0136669970521718
 10
34.36986657644285
 20
25.13936499846426
 42
-0.0170290037826894
 10
34.51064058940606
 20
24.79926467563781
 42
-0.0172520045499796
 10
34.62650508406427
 20
24.45413617998398
 42
-0.0147059912721141
 10
34.72521524800021
 20
24.08304684496922
 42
0.0026369760824549
 10
34.74777309506074
 20
23.98916099121413
 42
0.0418390118942217
 10
34.75824040996474
 20
23.95809412406456
 42
0.139649983622905
 10
34.77013280028515
 20
23.94356280443361
 42
0.1168359750225837
 10
34.78874255393802
 20
23.93624458633568
 42
0.0264409379082389
 10
34.8120203005697
 20
23.9341547581619
 10
34.998901
 20
23.927425
 10
35.213268
 20
23.920116
 10
35.461956
 20
23.91227
 10
35.708988
 20
23.904287
 42
-0.0014290242043958
 10
35.91798840391489
 20
23.89656591588823
 10
36.105244
 20
23.889072
 42
-0.188473994777736
 10
36.11126194206204
 20
23.8864339211248
 42
-0.2029899913790353
 10
36.11373795934298
 20
23.8803162386893
 10
36.092678
 20
22.537485
 10
36.068848
 20
21.058525
 10
36.009861
 20
17.538261
 10
35.986004
 20
16.029646
 10
35.96579000000001
 20
14.69664
 42
0.0148149977383446
 10
35.96737800542029
 20
14.58765695201558
 42
0.0833840238276487
 10
36.16972740137576
 20
13.64094175832395
 42
0.0808500055411465
 10
36.67130983975116
 20
12.80096057647292
 42
0.0806449492825491
 10
37.41470578667105
 20
12.16173265976856
 42
0.0823419721759028
 10
38.31697542134536
 20
11.79617582016641
 42
0.0229450214049487
 10
38.56567760120528
 20
11.75226481263634
 42
0.0223629784155352
 10
38.8194989815551
 20
11.73085746942265
 42
0.0090459653573029
 10
39.21878321288766
 20
11.72233614795252
 10
40.231312
 20
11.720654
 10
41.593811
 20
11.720551
 10
41.593895
 20
15.545551
 10
41.921352
 20
15.674648
 42
0.0051130825942793
 10
42.26772175319196
 20
15.81530790248321
 42
0.0253720794244299
 10
42.45724748128628
 20
15.90609711132565
 42
0.0407149098177592
 10
42.59178730387882
 20
15.994014326887
 42
0.0308829898307847
 10
42.72413119001571
 20
16.11055164090505
 42
0.0448620534657564
 10
42.87521241963612
 20
16.29086368848255
 42
0.048684015403969
 10
42.98703652965463
 20
16.49055385652948
 42
0.048362004985456
 10
43.05868685548806
 20
16.70930449261611
 42
0.0432279881135655
 10
43.0904996221919
 20
16.94620649803316
 42
0.0284480157409399
 10
43.0890174145098
 20
17.09673242140821
 42
0.0294500018696839
 10
43.07038885752454
 20
17.24436145385758
 42
0.0300889960316716
 10
43.03511114041303
 20
17.38567642728246
 42
0.0329719949722451
 10
42.98394095137664
 20
17.51734084319022
 42
0.0138959971934316
 10
42.95372189047712
 20
17.57765878907288
 10
42.770901
 20
17.918266
 10
42.557827
 20
18.313725
  0
LWPOLYLINE
  5
6D0
330
A
100
AcDbEntity
  8
0
 62
     7
 48
0.064533
100
AcDbPolyline
 90
        2
 70
     1
 43
0.0
 10
21.488427
 20
9.472594
 42
0.9999999999999998
 10
20.760231
 20
9.472594
 42
1.0
  0
LWPOLYLINE
  5
6D1
330
A
100
AcDbEntity
  8
0
 62
     7
 48
0.064533
100
AcDbPolyline
 90
        2
 70
     1
 43
0.0
 10
25.250006
 20
6.954233
 42
0.9999999999999998
 10
22.875058
 20
6.954233
 42
1.0
  0
VIEWPORT
  5
650
102
{ACAD_XDICTIONARY
360
1435
102
}
330
B
100
AcDbEntity
 67
     1
  8
0
 62
     0
100
AcDbViewport
 10
0.0
 20
0.0
 30
0.0
 40
1000.0
 41
1000.0
 68
     1
 69
     1
 12
0.0
 22
0.0
 13
0.0
 23
0.0
 14
1.0
 24
1.0
 15
1.0
 25
1.0
 16
0.0
 26
0.0
 36
1.0
 17
0.0
 27
0.0
 37
0.0
 42
50.0
 43
0.0
 44
0.0
 45
1000.0
 50
0.0
 51
0.0
 72
   100
 90
    32800
  1

281
     0
 71
     1
 74
     0
110
0.0
120
0.0
130
0.0
111
1.0
121
0.0
131
0.0
112
0.0
122
1.0
132
0.0
 79
     0
146
0.0
  0
ENDSEC
  0
SECTION
  2
OBJECTS
  0
DICTIONARY
  5
19
330
0
100
AcDbDictionary
281
     1
  3
ACAD_CIP_PREVIOUS_PRODUCT_INFO
350
6AA
  3
ACAD_COLOR
350
689
  3
ACAD_DETAILVIEWSTYLE
350
6A3
  3
ACAD_GROUP
350
1A
  3
ACAD_LAYOUT
350
68A
  3
ACAD_MATERIAL
350
657
  3
ACAD_MLEADERSTYLE
350
69F
  3
ACAD_MLINESTYLE
350
1B
  3
ACAD_PLOTSETTINGS
350
6A5
  3
ACAD_PLOTSTYLENAME
350
655
  3
ACAD_SCALELIST
350
68D
  3
ACAD_SECTIONVIEWSTYLE
350
6A1
  3
ACAD_TABLESTYLE
350
68B
  3
ACAD_VISUALSTYLE
350
670
  3
ACDB_RECOMPOSE_DATA
350
1433
  3
AcDbVariableDictionary
350
6D8
  3
ASE_INDEX_DICTIONARY
350
6D5
  3
DWGPROPS
350
1434
  0
DICTIONARY
  5
6D2
330
14
100
AcDbDictionary
280
     1
281
     1
  3
ADSK_XREC_LAYER_RECONCILED
360
6D3
  0
DICTIONARY
  5
1435
330
650
100
AcDbDictionary
280
     1
281
     1
  3
ACAD_XREC_ROUNDTRIP
360
1436
  0
XRECORD
  5
6AA
102
{ACAD_REACTORS
330
19
102
}
330
19
100
AcDbXrecord
280
     1
300
ACD
300
2021
300

  0
DICTIONARY
  5
689
102
{ACAD_REACTORS
330
19
102
}
330
19
100
AcDbDictionary
281
     1
  0
DICTIONARY
  5
6A3
102
{ACAD_REACTORS
330
19
102
}
330
19
100
AcDbDictionary
281
     1
  3
Metric50
350
6A4
  0
DICTIONARY
  5
1A
102
{ACAD_REACTORS
330
19
102
}
330
19
100
AcDbDictionary
281
     1
  0
DICTIONARY
  5
68A
102
{ACAD_REACTORS
330
19
102
}
330
19
100
AcDbDictionary
281
     1
  3
Layout1
350
6A7
  3
Model
350
6A6
  0
DICTIONARY
  5
657
102
{ACAD_REACTORS
330
19
102
}
330
19
100
AcDbDictionary
281
     1
  3
ByBlock
350
660
  3
ByLayer
350
658
  3
Global
350
668
  0
DICTIONARY
  5
69F
102
{ACAD_REACTORS
330
19
102
}
330
19
100
AcDbDictionary
281
     1
  3
Standard
350
6A0
  0
DICTIONARY
  5
1B
102
{ACAD_REACTORS
330
19
102
}
330
19
100
AcDbDictionary
281
     1
  3
STANDARD
350
1C
  0
DICTIONARY
  5
6A5
102
{ACAD_REACTORS
330
19
102
}
330
19
100
AcDbDictionary
281
     1
  0
ACDBDICTIONARYWDFLT
  5
655
102
{ACAD_REACTORS
330
19
102
}
330
19
100
AcDbDictionary
281
     1
  3
Normal
350
656
100
AcDbDictionaryWithDefault
340
656
  0
DICTIONARY
  5
68D
102
{ACAD_REACTORS
330
19
102
}
330
19
100
AcDbDictionary
281
     1
  3
A0
350
68E
  3
A1
350
68F
  3
A2
350
690
  3
A3
350
691
  3
A4
350
692
  3
A5
350
693
  3
A6
350
694
  3
A7
350
695
  3
A8
350
696
  3
A9
350
697
  3
B0
350
698
  3
B1
350
699
  3
B2
350
69A
  3
B3
350
69B
  3
B4
350
69C
  3
B5
350
69D
  3
B6
350
69E
  0
DICTIONARY
  5
6A1
102
{ACAD_REACTORS
330
19
102
}
330
19
100
AcDbDictionary
281
     1
  3
Metric50
350
6A2
  0
DICTIONARY
  5
68B
102
{ACAD_REACTORS
330
19
102
}
330
19
100
AcDbDictionary
281
     1
  3
Standard
350
68C
  0
DICTIONARY
  5
670
102
{ACAD_REACTORS
330
19
102
}
330
19
100
AcDbDictionary
281
     1
  3
2dWireframe
350
676
  3
Basic
350
675
  3
Brighten
350
67C
  3
ColorChange
350
680
  3
Conceptual
350
679
  3
Dim
350
67B
  3
EdgeColorOff
350
688
  3
Facepattern
350
67F
  3
Flat
350
671
  3
FlatWithEdges
350
672
  3
Gouraud
350
673
  3
GouraudWithEdges
350
674
  3
Hidden
350
678
  3
JitterOff
350
686
  3
Linepattern
350
67E
  3
OverhangOff
350
687
  3
Realistic
350
67A
  3
Shaded
350
685
  3
Shaded with edges
350
684
  3
Shades of Gray
350
681
  3
Sketchy
350
682
  3
Thicken
350
67D
  3
Wireframe
350
677
  3
X-Ray
350
683
  0
XRECORD
  5
1433
102
{ACAD_REACTORS
330
19
102
}
330
19
100
AcDbXrecord
280
     1
 90
        1
330
68C
  0
DICTIONARY
  5
6D8
102
{ACAD_REACTORS
330
19
102
}
330
19
100
AcDbDictionary
281
     1
  3
CANNOSCALE
350
6DD
  3
CMLEADERSTYLE
350
6DA
  3
CTABLESTYLE
350
6D9
  3
CVIEWDETAILSTYLE
350
6DB
  3
CVIEWSECTIONSTYLE
350
6DC
  3
DIMASSOC
350
6E0
  3
INDEXCTL
350
6DF
  3
SORTENTS
350
6DE
  3
XCLIPFRAME
350
6E1
  0
DICTIONARY
  5
6D5
102
{ACAD_REACTORS
330
19
102
}
330
19
100
AcDbDictionary
281
     1
  3
ASEBlockHierarchyIndexRecord
350
6D7
1001
DCO15
1040
2132417834.0
  0
XRECORD
  5
1434
102
{ACAD_REACTORS
330
19
102
}
330
19
100
AcDbXrecord
280
     1
  1
DWGPROPS COOKIE
  2

  3

  4

  6

  7

  8
CAD1
  9

300
=
301
=
302
=
303
=
304
=
305
=
306
=
307
=
308
=
309
=
 40
0.0071643518518519
 41
2440588.08332176
 42
2460483.973819445
  1

 90
        0
  0
XRECORD
  5
6D3
102
{ACAD_REACTORS
330
6D2
102
}
330
6D2
100
AcDbXrecord
280
     1
290
     1
  0
XRECORD
  5
1436
102
{ACAD_REACTORS
330
1435
102
}
330
1435
100
AcDbXrecord
280
     1
102
SHADEPLOT
 70
     0
  0
ACDBDETAILVIEWSTYLE
  5
6A4
102
{ACAD_XDICTIONARY
360
146E
102
}
102
{ACAD_REACTORS
330
6A3
102
}
330
6A3
100
AcDbModelDocViewStyle
 70
     0
  3
Metric50
290
     0
100
AcDbDetailViewStyle
 70
     0
 71
     0
 90
        3
 71
     1
340
17
 40
5.0
340
0
 40
5.0
300

 40
0.0
280
     1
 71
     2
340
13
 90
       25
 71
     3
340
17
 40
5.0
 90
        0
 40
15.0
 90
        1
300
%<\AcVar ViewDetailId>% (%<\AcVar ViewScale \f "%sn">%)
 71
     4
340
13
 90
       25
340
13
 90
       25
280
     0
  0
LAYOUT
  5
6A7
102
{ACAD_XDICTIONARY
360
1472
102
}
102
{ACAD_REACTORS
330
68A
102
}
330
68A
100
AcDbPlotSettings
  1

  2
Canon TS6300 series
  4

  6

 40
0.0
 41
0.0
 42
0.0
 43
0.0
 44
0.0
 45
0.0
 46
0.0
 47
0.0
 48
0.0
 49
0.0
140
0.0
141
0.0
142
1.0
143
1.0
 70
   688
 72
     0
 73
     0
 74
     5
  7

 75
    16
147
1.0
148
0.0
149
0.0
100
AcDbLayout
  1
Layout1
 70
     1
 71
     1
 10
0.0
 20
0.0
 11
420.0
 21
297.0
 12
0.0
 22
0.0
 32
0.0
 14
0.0
 24
0.0
 34
0.0
 15
55.883713
 25
30.340519
 35
2.0
146
0.0
 13
0.0
 23
0.0
 33
0.0
 16
1.0
 26
0.0
 36
0.0
 17
0.0
 27
1.0
 37
0.0
 76
     0
330
B
331
650
  0
LAYOUT
  5
6A6
102
{ACAD_XDICTIONARY
360
1470
102
}
102
{ACAD_REACTORS
330
68A
102
}
330
68A
100
AcDbPlotSettings
  1

  2
Canon TS6300 series
  4

  6

 40
0.0
 41
0.0
 42
0.0
 43
0.0
 44
0.0
 45
0.0
 46
0.0
 47
0.0
 48
0.0
 49
0.0
140
0.0
141
0.0
142
1.0
143
1.0
 70
  1712
 72
     0
 73
     0
 74
     0
  7

 75
     0
147
1.0
148
0.0
149
0.0
100
AcDbLayout
  1
Model
 70
     1
 71
     0
 10
0.0
 20
0.0
 11
12.0
 21
9.0
 12
0.0
 22
0.0
 32
0.0
 14
0.0
 24
0.0
 34
0.0
 15
0.0
 25
0.0
 35
0.0
146
0.0
 13
0.0
 23
0.0
 33
0.0
 16
1.0
 26
0.0
 36
0.0
 17
0.0
 27
1.0
 37
0.0
 76
     0
330
A
331
15
  0
MATERIAL
  5
660
102
{ACAD_XDICTIONARY
360
661
102
}
102
{ACAD_REACTORS
330
657
102
}
330
657
100
AcDbMaterial
  1
ByBlock
 72
     0
 43
0.0208333333333333
 43
0.0
 43
0.0
 43
0.0
 43
0.0
 43
0.0208333333333333
 43
0.0
 43
0.0
 43
0.0
 43
0.0
 43
1.0
 43
0.0
 43
0.0
 43
0.0
 43
0.0
 43
1.0
 77
     0
 47
0.0208333333333333
 47
0.0
 47
0.0
 47
0.0
 47
0.0
 47
0.0208333333333333
 47
0.0
 47
0.0
 47
0.0
 47
0.0
 47
1.0
 47
0.0
 47
0.0
 47
0.0
 47
0.0
 47
1.0
171
     0
 49
0.0208333333333333
 49
0.0
 49
0.0
 49
0.0
 49
0.0
 49
0.0208333333333333
 49
0.0
 49
0.0
 49
0.0
 49
0.0
 49
1.0
 49
0.0
 49
0.0
 49
0.0
 49
0.0
 49
1.0
175
     0
142
0.0208333333333333
142
0.0
142
0.0
142
0.0
142
0.0
142
0.0208333333333333
142
0.0
142
0.0
142
0.0
142
0.0
142
1.0
142
0.0
142
0.0
142
0.0
142
0.0
142
1.0
179
     0
144
0.0208333333333333
144
0.0
144
0.0
144
0.0
144
0.0
144
0.0208333333333333
144
0.0
144
0.0
144
0.0
144
0.0
144
1.0
144
0.0
144
0.0
144
0.0
144
0.0
144
1.0
147
0.0208333333333333
147
0.0
147
0.0
147
0.0
147
0.0
147
0.0208333333333333
147
0.0
147
0.0
147
0.0
147
0.0
147
1.0
147
0.0
147
0.0
147
0.0
147
0.0
147
1.0
  0
MATERIAL
  5
658
102
{ACAD_XDICTIONARY
360
659
102
}
102
{ACAD_REACTORS
330
657
102
}
330
657
100
AcDbMaterial
  1
ByLayer
 72
     0
 43
0.0208333333333333
 43
0.0
 43
0.0
 43
0.0
 43
0.0
 43
0.0208333333333333
 43
0.0
 43
0.0
 43
0.0
 43
0.0
 43
1.0
 43
0.0
 43
0.0
 43
0.0
 43
0.0
 43
1.0
 77
     0
 47
0.0208333333333333
 47
0.0
 47
0.0
 47
0.0
 47
0.0
 47
0.0208333333333333
 47
0.0
 47
0.0
 47
0.0
 47
0.0
 47
1.0
 47
0.0
 47
0.0
 47
0.0
 47
0.0
 47
1.0
171
     0
 49
0.0208333333333333
 49
0.0
 49
0.0
 49
0.0
 49
0.0
 49
0.0208333333333333
 49
0.0
 49
0.0
 49
0.0
 49
0.0
 49
1.0
 49
0.0
 49
0.0
 49
0.0
 49
0.0
 49
1.0
175
     0
142
0.0208333333333333
142
0.0
142
0.0
142
0.0
142
0.0
142
0.0208333333333333
142
0.0
142
0.0
142
0.0
142
0.0
142
1.0
142
0.0
142
0.0
142
0.0
142
0.0
142
1.0
179
     0
144
0.0208333333333333
144
0.0
144
0.0
144
0.0
144
0.0
144
0.0208333333333333
144
0.0
144
0.0
144
0.0
144
0.0
144
1.0
144
0.0
144
0.0
144
0.0
144
0.0
144
1.0
147
0.0208333333333333
147
0.0
147
0.0
147
0.0
147
0.0
147
0.0208333333333333
147
0.0
147
0.0
147
0.0
147
0.0
147
1.0
147
0.0
147
0.0
147
0.0
147
0.0
147
1.0
  0
MATERIAL
  5
668
102
{ACAD_XDICTIONARY
360
669
102
}
102
{ACAD_REACTORS
330
657
102
}
330
657
100
AcDbMaterial
  1
Global
 72
     0
 43
0.0208333333333333
 43
0.0
 43
0.0
 43
0.0
 43
0.0
 43
0.0208333333333333
 43
0.0
 43
0.0
 43
0.0
 43
0.0
 43
1.0
 43
0.0
 43
0.0
 43
0.0
 43
0.0
 43
1.0
 77
     0
 47
0.0208333333333333
 47
0.0
 47
0.0
 47
0.0
 47
0.0
 47
0.0208333333333333
 47
0.0
 47
0.0
 47
0.0
 47
0.0
 47
1.0
 47
0.0
 47
0.0
 47
0.0
 47
0.0
 47
1.0
171
     0
 49
0.0208333333333333
 49
0.0
 49
0.0
 49
0.0
 49
0.0
 49
0.0208333333333333
 49
0.0
 49
0.0
 49
0.0
 49
0.0
 49
1.0
 49
0.0
 49
0.0
 49
0.0
 49
0.0
 49
1.0
175
     0
142
0.0208333333333333
142
0.0
142
0.0
142
0.0
142
0.0
142
0.0208333333333333
142
0.0
142
0.0
142
0.0
142
0.0
142
1.0
142
0.0
142
0.0
142
0.0
142
0.0
142
1.0
179
     0
144
0.0208333333333333
144
0.0
144
0.0
144
0.0
144
0.0
144
0.0208333333333333
144
0.0
144
0.0
144
0.0
144
0.0
144
1.0
144
0.0
144
0.0
144
0.0
144
0.0
144
1.0
147
0.0208333333333333
147
0.0
147
0.0
147
0.0
147
0.0
147
0.0208333333333333
147
0.0
147
0.0
147
0.0
147
0.0
147
1.0
147
0.0
147
0.0
147
0.0
147
0.0
147
1.0
  0
MLEADERSTYLE
  5
6A0
102
{ACAD_REACTORS
330
69F
102
}
330
69F
100
AcDbMLeaderStyle
170
     2
171
     1
172
     0
 90
        2
 40
0.0
 41
0.0
173
     1
 91
-1056964608
340
11
 92
       -2
290
     1
 42
2.0
291
     1
 43
0.36
  3
Standard
 44
4.0
300

342
17
174
     1
178
     6
175
     1
176
     0
 93
-1056964608
 45
4.0
292
     0
297
     0
 46
4.0
 94
-1056964608
 47
1.0
 49
1.0
140
1.0
293
     1
141
0.0
294
     1
177
     0
142
1.0
295
     0
296
     0
143
0.125
1001
ACAD_MLEADERVER
1070
     2
  0
MLINESTYLE
  5
1C
102
{ACAD_REACTORS
330
1B
102
}
330
1B
100
AcDbMlineStyle
  2
STANDARD
 70
     0
  3

 62
     0
 51
90.0
 52
90.0
 71
     2
 49
0.5
 62
   256
  6
BYLAYER
 49
-0.5
 62
   256
  6
BYLAYER
  0
ACDBPLACEHOLDER
  5
656
102
{ACAD_REACTORS
330
655
102
}
330
655
  0
SCALE
  5
68E
102
{ACAD_REACTORS
330
68D
102
}
330
68D
100
AcDbScale
 70
     0
300
1:1
140
1.0
141
1.0
290
     1
  0
SCALE
  5
68F
102
{ACAD_REACTORS
330
68D
102
}
330
68D
100
AcDbScale
 70
     0
300
1:2
140
1.0
141
2.0
290
     0
  0
SCALE
  5
690
102
{ACAD_REACTORS
330
68D
102
}
330
68D
100
AcDbScale
 70
     0
300
1:4
140
1.0
141
4.0
290
     0
  0
SCALE
  5
691
102
{ACAD_REACTORS
330
68D
102
}
330
68D
100
AcDbScale
 70
     0
300
1:5
140
1.0
141
5.0
290
     0
  0
SCALE
  5
692
102
{ACAD_REACTORS
330
68D
102
}
330
68D
100
AcDbScale
 70
     0
300
1:8
140
1.0
141
8.0
290
     0
  0
SCALE
  5
693
102
{ACAD_REACTORS
330
68D
102
}
330
68D
100
AcDbScale
 70
     0
300
1:10
140
1.0
141
10.0
290
     0
  0
SCALE
  5
694
102
{ACAD_REACTORS
330
68D
102
}
330
68D
100
AcDbScale
 70
     0
300
1:16
140
1.0
141
16.0
290
     0
  0
SCALE
  5
695
102
{ACAD_REACTORS
330
68D
102
}
330
68D
100
AcDbScale
 70
     0
300
1:20
140
1.0
141
20.0
290
     0
  0
SCALE
  5
696
102
{ACAD_REACTORS
330
68D
102
}
330
68D
100
AcDbScale
 70
     0
300
1:30
140
1.0
141
30.0
290
     0
  0
SCALE
  5
697
102
{ACAD_REACTORS
330
68D
102
}
330
68D
100
AcDbScale
 70
     0
300
1:40
140
1.0
141
40.0
290
     0
  0
SCALE
  5
698
102
{ACAD_REACTORS
330
68D
102
}
330
68D
100
AcDbScale
 70
     0
300
1:50
140
1.0
141
50.0
290
     0
  0
SCALE
  5
699
102
{ACAD_REACTORS
330
68D
102
}
330
68D
100
AcDbScale
 70
     0
300
1:100
140
1.0
141
100.0
290
     0
  0
SCALE
  5
69A
102
{ACAD_REACTORS
330
68D
102
}
330
68D
100
AcDbScale
 70
     0
300
2:1
140
2.0
141
1.0
290
     0
  0
SCALE
  5
69B
102
{ACAD_REACTORS
330
68D
102
}
330
68D
100
AcDbScale
 70
     0
300
4:1
140
4.0
141
1.0
290
     0
  0
SCALE
  5
69C
102
{ACAD_REACTORS
330
68D
102
}
330
68D
100
AcDbScale
 70
     0
300
8:1
140
8.0
141
1.0
290
     0
  0
SCALE
  5
69D
102
{ACAD_REACTORS
330
68D
102
}
330
68D
100
AcDbScale
 70
     0
300
10:1
140
10.0
141
1.0
290
     0
  0
SCALE
  5
69E
102
{ACAD_REACTORS
330
68D
102
}
330
68D
100
AcDbScale
 70
     0
300
100:1
140
100.0
141
1.0
290
     0
  0
ACDBSECTIONVIEWSTYLE
  5
6A2
102
{ACAD_XDICTIONARY
360
146C
102
}
102
{ACAD_REACTORS
330
6A1
102
}
330
6A1
100
AcDbModelDocViewStyle
 70
     0
  3
Metric50
290
     0
100
AcDbSectionViewStyle
 70
     0
 71
     0
 90
      102
 71
     1
340
17
 40
5.0
340
0
340
0
 40
5.0
300
I, O, Q, S, X, Z
 40
10.0
 90
        0
 40
2.5
 90
        0
 71
     2
340
13
 90
       25
340
13
 90
       50
 40
5.0
 40
2.5
 40
5.0
 71
     3
340
17
 40
5.0
 90
        0
 40
15.0
 90
        1
300
%<\AcVar ViewSectionStartId>%-%<\AcVar ViewSectionEndId>% (%<\AcVar ViewScale \f "%sn">%)
 71
     4
300
ANSI31
 40
1.0
 90
        0
290
     0
290
     0
 90
        6
 40
0.0
 40
1.570796326794896
 40
0.2617993877991494
 40
1.308996938995747
 40
-0.2617993877991494
 40
1.832595714594046
  0
TABLESTYLE
  5
68C
102
{ACAD_XDICTIONARY
360
1431
102
}
102
{ACAD_REACTORS
330
68B
102
}
330
68B
100
AcDbTableStyle
  3
Standard
 70
     0
 71
     0
 40
1.5
 41
1.5
280
     0
281
     0
  7
STANDARD
140
4.5
170
     2
 62
     0
 63
     7
283
     0
274
    -2
284
     1
 64
     0
275
    -2
285
     1
 65
     0
276
    -2
286
     1
 66
     0
277
    -2
287
     1
 67
     0
278
    -2
288
     1
 68
     0
279
    -2
289
     1
 69
     0
  7
STANDARD
140
6.0
170
     5
 62
     0
 63
     7
283
     0
274
    -2
284
     1
 64
     0
275
    -2
285
     1
 65
     0
276
    -2
286
     1
 66
     0
277
    -2
287
     1
 67
     0
278
    -2
288
     1
 68
     0
279
    -2
289
     1
 69
     0
  7
STANDARD
140
4.5
170
     5
 62
     0
 63
     7
283
     0
274
    -2
284
     1
 64
     0
275
    -2
285
     1
 65
     0
276
    -2
286
     1
 66
     0
277
    -2
287
     1
 67
     0
278
    -2
288
     1
 68
     0
279
    -2
289
     1
 69
     0
  0
VISUALSTYLE
  5
676
102
{ACAD_XDICTIONARY
360
1444
102
}
102
{ACAD_REACTORS
330
670
102
}
330
670
100
AcDbVisualStyle
  2
2dWireframe
 70
     4
 71
     0
 72
     2
 73
     0
 90
        0
 40
-0.6
 41
-30.0
 62
     5
 63
     7
 74
     1
 91
        4
 64
     7
 65
   257
 75
     1
175
     1
 42
1.0
 92
        0
 66
   257
 43
1.0
 76
     1
 77
     6
 78
     2
 67
     7
 79
     5
170
     0
171
     0
290
     0
174
     0
 93
        1
 44
0.0
173
     0
291
     0
 45
0.0
1001
ACAD
1000
AcDbSavedByObjectVersion
1070
     0
  0
VISUALSTYLE
  5
675
102
{ACAD_XDICTIONARY
360
1442
102
}
102
{ACAD_REACTORS
330
670
102
}
330
670
100
AcDbVisualStyle
  2
Basic
 70
     7
 71
     1
 72
     0
 73
     1
 90
        0
 40
-0.6
 41
-30.0
 62
     5
 63
     7
 74
     0
 91
        4
 64
     7
 65
   257
 75
     1
175
     1
 42
1.0
 92
        8
 66
     7
 43
1.0
 76
     1
 77
     6
 78
     2
 67
     7
 79
     5
170
     0
171
     0
290
     0
174
     0
 93
        1
 44
0.0
173
     0
291
     1
 45
0.0
1001
ACAD
1000
AcDbSavedByObjectVersion
1070
     0
  0
VISUALSTYLE
  5
67C
102
{ACAD_XDICTIONARY
360
1450
102
}
102
{ACAD_REACTORS
330
670
102
}
330
670
100
AcDbVisualStyle
  2
Brighten
 70
    12
 71
     2
 72
     2
 73
     0
 90
        0
 40
-0.6
 41
-30.0
 62
     5
 63
     7
 74
     1
 91
        4
 64
     7
 65
   257
 75
     1
175
     1
 42
1.0
 92
        8
 66
     7
 43
1.0
 76
     1
 77
     6
 78
     2
 67
     7
 79
     5
170
     0
171
     0
290
     0
174
     0
 93
        1
 44
50.0
173
     0
291
     1
 45
0.0
1001
ACAD
1000
AcDbSavedByObjectVersion
1070
     0
  0
VISUALSTYLE
  5
680
102
{ACAD_XDICTIONARY
360
1458
102
}
102
{ACAD_REACTORS
330
670
102
}
330
670
100
AcDbVisualStyle
  2
ColorChange
 70
    16
 71
     2
 72
     2
 73
     3
 90
        0
 40
-0.6
 41
-30.0
 62
     5
 63
     8
 74
     1
 91
        4
 64
     7
 65
   257
 75
     1
175
     1
 42
1.0
 92
        8
 66
     8
 43
1.0
 76
     1
 77
     6
 78
     2
 67
     7
 79
     5
170
     0
171
     0
290
     0
174
     0
 93
        1
 44
0.0
173
     0
291
     1
 45
0.0
1001
ACAD
1000
AcDbSavedByObjectVersion
1070
     0
  0
VISUALSTYLE
  5
679
102
{ACAD_XDICTIONARY
360
144A
102
}
102
{ACAD_REACTORS
330
670
102
}
330
670
100
AcDbVisualStyle
  2
Conceptual
 70
     9
 71
     3
 72
     2
 73
     0
 90
        0
 40
-0.6
 41
-30.0
 62
     5
 63
     7
 74
     2
 91
        2
 64
     7
 65
   257
 75
     1
175
     1
 42
179.0
 92
        8
 66
     7
 43
1.0
 76
     1
 77
     6
 78
     2
 67
     7
 79
     3
170
     0
171
     0
290
     0
174
     0
 93
        1
 44
0.0
173
     0
291
     0
 45
0.0
1001
ACAD
1000
AcDbSavedByObjectVersion
1070
     0
  0
VISUALSTYLE
  5
67B
102
{ACAD_XDICTIONARY
360
144E
102
}
102
{ACAD_REACTORS
330
670
102
}
330
670
100
AcDbVisualStyle
  2
Dim
 70
    11
 71
     2
 72
     2
 73
     0
 90
        0
 40
-0.6
 41
-30.0
 62
     5
 63
     7
 74
     1
 91
        4
 64
     7
 65
   257
 75
     1
175
     1
 42
1.0
 92
        8
 66
     7
 43
1.0
 76
     1
 77
     6
 78
     2
 67
     7
 79
     5
170
     0
171
     0
290
     0
174
     0
 93
        1
 44
-50.0
173
     0
291
     1
 45
0.0
1001
ACAD
1000
AcDbSavedByObjectVersion
1070
     0
  0
VISUALSTYLE
  5
688
102
{ACAD_XDICTIONARY
360
1468
102
}
102
{ACAD_REACTORS
330
670
102
}
330
670
100
AcDbVisualStyle
  2
EdgeColorOff
 70
    22
 71
     2
 72
     2
 73
     0
 90
        0
 40
-0.6
 41
-30.0
 62
     5
 63
     7
 74
     1
 91
        4
 64
     7
 65
   257
 75
     1
175
     1
 42
1.0
 92
        8
 66
     7
 43
1.0
 76
     1
 77
     6
 78
     2
 67
     7
 79
     5
170
     0
171
     0
290
     0
174
     0
 93
        1
 44
0.0
173
     0
291
     1
 45
0.0
1001
ACAD
1000
AcDbSavedByObjectVersion
1070
     0
  0
VISUALSTYLE
  5
67F
102
{ACAD_XDICTIONARY
360
1456
102
}
102
{ACAD_REACTORS
330
670
102
}
330
670
100
AcDbVisualStyle
  2
Facepattern
 70
    15
 71
     2
 72
     2
 73
     0
 90
        0
 40
-0.6
 41
-30.0
 62
     5
 63
     7
 74
     1
 91
        4
 64
     7
 65
   257
 75
     1
175
     1
 42
1.0
 92
        8
 66
     7
 43
1.0
 76
     1
 77
     6
 78
     2
 67
     7
 79
     5
170
     0
171
     0
290
     0
174
     0
 93
        1
 44
0.0
173
     0
291
     1
 45
0.0
1001
ACAD
1000
AcDbSavedByObjectVersion
1070
     0
  0
VISUALSTYLE
  5
671
102
{ACAD_XDICTIONARY
360
143A
102
}
102
{ACAD_REACTORS
330
670
102
}
330
670
100
AcDbVisualStyle
  2
Flat
 70
     0
 71
     2
 72
     1
 73
     1
 90
        2
 40
-0.6
 41
30.0
 62
     5
 63
     7
 74
     0
 91
        0
 64
     7
 65
   257
 75
     1
175
     1
 42
1.0
 92
        8
 66
     7
 43
1.0
 76
     1
 77
     6
 78
     2
 67
     7
 79
     5
170
     0
171
     0
290
     0
174
     0
 93
       13
 44
0.0
173
     0
291
     1
 45
0.0
1001
ACAD
1000
AcDbSavedByObjectVersion
1070
     0
  0
VISUALSTYLE
  5
672
102
{ACAD_XDICTIONARY
360
143C
102
}
102
{ACAD_REACTORS
330
670
102
}
330
670
100
AcDbVisualStyle
  2
FlatWithEdges
 70
     1
 71
     2
 72
     1
 73
     1
 90
        2
 40
-0.6
 41
30.0
 62
     5
 63
     7
 74
     1
 91
        0
 64
     7
 65
   257
 75
     1
175
     1
 42
1.0
 92
        0
 66
   257
 43
1.0
 76
     1
 77
     6
 78
     2
 67
     7
 79
     5
170
     0
171
     0
290
     0
174
     0
 93
       13
 44
0.0
173
     0
291
     1
 45
0.0
1001
ACAD
1000
AcDbSavedByObjectVersion
1070
     0
  0
VISUALSTYLE
  5
673
102
{ACAD_XDICTIONARY
360
143E
102
}
102
{ACAD_REACTORS
330
670
102
}
330
670
100
AcDbVisualStyle
  2
Gouraud
 70
     2
 71
     2
 72
     2
 73
     1
 90
        2
 40
-0.6
 41
30.0
 62
     5
 63
     7
 74
     0
 91
        0
 64
     7
 65
   257
 75
     1
175
     1
 42
1.0
 92
        0
 66
     7
 43
1.0
 76
     1
 77
     6
 78
     2
 67
     7
 79
     5
170
     0
171
     0
290
     0
174
     0
 93
       13
 44
0.0
173
     0
291
     1
 45
0.0
1001
ACAD
1000
AcDbSavedByObjectVersion
1070
     0
  0
VISUALSTYLE
  5
674
102
{ACAD_XDICTIONARY
360
1440
102
}
102
{ACAD_REACTORS
330
670
102
}
330
670
100
AcDbVisualStyle
  2
GouraudWithEdges
 70
     3
 71
     2
 72
     2
 73
     1
 90
        2
 40
-0.6
 41
30.0
 62
     5
 63
     7
 74
     1
 91
        0
 64
     7
 65
   257
 75
     1
175
     1
 42
1.0
 92
        0
 66
   257
 43
1.0
 76
     1
 77
     6
 78
     2
 67
     7
 79
     5
170
     0
171
     0
290
     0
174
     0
 93
       13
 44
0.0
173
     0
291
     1
 45
0.0
1001
ACAD
1000
AcDbSavedByObjectVersion
1070
     0
  0
VISUALSTYLE
  5
678
102
{ACAD_XDICTIONARY
360
1448
102
}
102
{ACAD_REACTORS
330
670
102
}
330
670
100
AcDbVisualStyle
  2
Hidden
 70
     6
 71
     1
 72
     2
 73
     2
 90
        0
 40
-0.6
 41
-30.0
 62
     5
 63
     7
 74
     2
 91
        2
 64
     7
 65
   257
 75
     2
175
     1
 42
40.0
 92
        0
 66
   257
 43
1.0
 76
     1
 77
     6
 78
     2
 67
     7
 79
     3
170
     0
171
     0
290
     0
174
     0
 93
        1
 44
0.0
173
     0
291
     0
 45
0.0
1001
ACAD
1000
AcDbSavedByObjectVersion
1070
     0
  0
VISUALSTYLE
  5
686
102
{ACAD_XDICTIONARY
360
1464
102
}
102
{ACAD_REACTORS
330
670
102
}
330
670
100
AcDbVisualStyle
  2
JitterOff
 70
    20
 71
     2
 72
     2
 73
     0
 90
        0
 40
-0.6
 41
-30.0
 62
     5
 63
     7
 74
     1
 91
        4
 64
     7
 65
   257
 75
     1
175
     1
 42
1.0
 92
       10
 66
     7
 43
1.0
 76
     1
 77
     6
 78
     2
 67
     7
 79
     5
170
     0
171
     0
290
     0
174
     0
 93
        1
 44
0.0
173
     0
291
     1
 45
0.0
1001
ACAD
1000
AcDbSavedByObjectVersion
1070
     0
  0
VISUALSTYLE
  5
67E
102
{ACAD_XDICTIONARY
360
1454
102
}
102
{ACAD_REACTORS
330
670
102
}
330
670
100
AcDbVisualStyle
  2
Linepattern
 70
    14
 71
     2
 72
     2
 73
     0
 90
        0
 40
-0.6
 41
-30.0
 62
     5
 63
     7
 74
     1
 91
        4
 64
     7
 65
   257
 75
     7
175
     7
 42
1.0
 92
        8
 66
     7
 43
1.0
 76
     1
 77
     6
 78
     2
 67
     7
 79
     5
170
     0
171
     0
290
     0
174
     0
 93
        1
 44
0.0
173
     0
291
     1
 45
0.0
1001
ACAD
1000
AcDbSavedByObjectVersion
1070
     0
  0
VISUALSTYLE
  5
687
102
{ACAD_XDICTIONARY
360
1466
102
}
102
{ACAD_REACTORS
330
670
102
}
330
670
100
AcDbVisualStyle
  2
OverhangOff
 70
    21
 71
     2
 72
     2
 73
     0
 90
        0
 40
-0.6
 41
-30.0
 62
     5
 63
     7
 74
     1
 91
        4
 64
     7
 65
   257
 75
     1
175
     1
 42
1.0
 92
        9
 66
     7
 43
1.0
 76
     1
 77
     6
 78
     2
 67
     7
 79
     5
170
     0
171
     0
290
     0
174
     0
 93
        1
 44
0.0
173
     0
291
     1
 45
0.0
1001
ACAD
1000
AcDbSavedByObjectVersion
1070
     0
  0
VISUALSTYLE
  5
67A
102
{ACAD_XDICTIONARY
360
144C
102
}
102
{ACAD_REACTORS
330
670
102
}
330
670
100
AcDbVisualStyle
  2
Realistic
 70
     8
 71
     2
 72
     3
 73
     0
 90
        2
 40
-0.6
 41
30.0
 62
     5
 63
     7
 74
     0
 91
        0
 64
     7
 65
   257
 75
     1
175
     1
 42
1.0
 92
        8
 66
   257
 43
1.0
 76
     1
 77
     6
 78
     2
 67
     7
 79
     3
170
     0
171
     0
290
     0
174
     0
 93
       13
 44
0.0
173
     0
291
     0
 45
0.0
1001
ACAD
1000
AcDbSavedByObjectVersion
1070
     0
  0
VISUALSTYLE
  5
685
102
{ACAD_XDICTIONARY
360
1462
102
}
102
{ACAD_REACTORS
330
670
102
}
330
670
100
AcDbVisualStyle
  2
Shaded
 70
    27
 71
     2
 72
     2
 73
     1
 90
        2
 40
-0.6
 41
30.0
 62
     5
 63
     7
 74
     0
 91
        4
 64
     7
 65
   257
 75
     1
175
     1
 42
1.0
 92
        8
 66
   257
 43
1.0
 76
     1
 77
     6
 78
     2
 67
     8
 79
     3
170
     0
171
     0
290
     0
174
     0
 93
        5
 44
0.0
173
     0
291
     0
 45
0.0
1001
ACAD
1000
AcDbSavedByObjectVersion
1070
     0
  0
VISUALSTYLE
  5
684
102
{ACAD_XDICTIONARY
360
1460
102
}
102
{ACAD_REACTORS
330
670
102
}
330
670
100
AcDbVisualStyle
  2
Shaded with edges
 70
    26
 71
     2
 72
     2
 73
     1
 90
        2
 40
-0.6
 41
30.0
 62
     5
 63
     7
 74
     1
 91
        2
 64
     7
 65
   257
 75
     2
175
     1
 42
1.0
 92
        8
 66
   257
 43
1.0
 76
     1
 77
     6
 78
     2
 67
     7
 79
     3
170
     0
171
     0
290
     0
174
     0
 93
        5
 44
0.0
173
     0
291
     0
 45
0.0
1001
ACAD
1000
AcDbSavedByObjectVersion
1070
     0
  0
VISUALSTYLE
  5
681
102
{ACAD_XDICTIONARY
360
145A
102
}
102
{ACAD_REACTORS
330
670
102
}
330
670
100
AcDbVisualStyle
  2
Shades of Gray
 70
    23
 71
     2
 72
     2
 73
     3
 90
        0
 40
-0.6
 41
-30.0
 62
     5
 63
     7
 74
     2
 91
        2
 64
     7
 65
     7
 75
     1
175
     1
 42
40.0
 92
        8
 66
     7
 43
1.0
 76
     1
 77
     6
 78
     2
 67
     7
 79
     3
170
     0
171
     0
290
     0
174
     0
 93
        1
 44
0.0
173
     0
291
     0
 45
0.0
1001
ACAD
1000
AcDbSavedByObjectVersion
1070
     0
  0
VISUALSTYLE
  5
682
102
{ACAD_XDICTIONARY
360
145C
102
}
102
{ACAD_REACTORS
330
670
102
}
330
670
100
AcDbVisualStyle
  2
Sketchy
 70
    24
 71
     1
 72
     2
 73
     2
 90
        0
 40
-0.6
 41
-30.0
 62
     5
 63
     7
 74
     2
 91
        2
 64
     7
 65
     7
 75
     1
175
     1
 42
40.0
 92
       11
 66
     7
 43
1.0
 76
     1
 77
     6
 78
     2
 67
     7
 79
     6
170
     0
171
     0
290
     0
174
     0
 93
        1
 44
0.0
173
     0
291
     0
 45
0.0
1001
ACAD
1000
AcDbSavedByObjectVersion
1070
     0
  0
VISUALSTYLE
  5
67D
102
{ACAD_XDICTIONARY
360
1452
102
}
102
{ACAD_REACTORS
330
670
102
}
330
670
100
AcDbVisualStyle
  2
Thicken
 70
    13
 71
     2
 72
     2
 73
     0
 90
        0
 40
-0.6
 41
-30.0
 62
     5
 63
     7
 74
     1
 91
        4
 64
     7
 65
   257
 75
     1
175
     1
 42
1.0
 92
       12
 66
     7
 43
1.0
 76
     1
 77
     6
 78
     2
 67
     7
 79
     5
170
     0
171
     0
290
     0
174
     0
 93
        1
 44
0.0
173
     0
291
     1
 45
0.0
1001
ACAD
1000
AcDbSavedByObjectVersion
1070
     0
  0
VISUALSTYLE
  5
677
102
{ACAD_XDICTIONARY
360
1446
102
}
102
{ACAD_REACTORS
330
670
102
}
330
670
100
AcDbVisualStyle
  2
Wireframe
 70
     5
 71
     0
 72
     2
 73
     0
 90
        0
 40
-0.6
 41
-30.0
 62
     5
 63
     7
 74
     1
 91
        4
 64
     7
 65
   257
 75
     1
175
     1
 42
1.0
 92
        0
 66
   257
 43
1.0
 76
     1
 77
     6
 78
     2
 67
     7
 79
     3
170
     0
171
     0
290
     0
174
     0
 93
        1
 44
0.0
173
     0
291
     0
 45
0.0
1001
ACAD
1000
AcDbSavedByObjectVersion
1070
     0
  0
VISUALSTYLE
  5
683
102
{ACAD_XDICTIONARY
360
145E
102
}
102
{ACAD_REACTORS
330
670
102
}
330
670
100
AcDbVisualStyle
  2
X-Ray
 70
    25
 71
     2
 72
     2
 73
     1
 90
        1
 40
0.5
 41
-30.0
 62
     5
 63
     7
 74
     1
 91
        0
 64
     7
 65
   257
 75
     1
175
     1
 42
1.0
 92
        8
 66
     7
 43
1.0
 76
     1
 77
     6
 78
     2
 67
     7
 79
     3
170
     0
171
     0
290
     0
174
     0
 93
       13
 44
0.0
173
     0
291
     0
 45
0.0
1001
ACAD
1000
AcDbSavedByObjectVersion
1070
     0
  0
DICTIONARYVAR
  5
6DD
102
{ACAD_REACTORS
330
6D8
102
}
330
6D8
100
DictionaryVariables
280
     0
  1
1:1
  0
DICTIONARYVAR
  5
6DA
102
{ACAD_REACTORS
330
6D8
102
}
330
6D8
100
DictionaryVariables
280
     0
  1
STANDARD
  0
DICTIONARYVAR
  5
6D9
102
{ACAD_REACTORS
330
6D8
102
}
330
6D8
100
DictionaryVariables
280
     0
  1
STANDARD
  0
DICTIONARYVAR
  5
6DB
102
{ACAD_REACTORS
330
6D8
102
}
330
6D8
100
DictionaryVariables
280
     0
  1
Metric50
  0
DICTIONARYVAR
  5
6DC
102
{ACAD_REACTORS
330
6D8
102
}
330
6D8
100
DictionaryVariables
280
     0
  1
Metric50
  0
DICTIONARYVAR
  5
6E0
102
{ACAD_REACTORS
330
6D8
102
}
330
6D8
100
DictionaryVariables
280
     0
  1
1
  0
DICTIONARYVAR
  5
6DF
102
{ACAD_REACTORS
330
6D8
102
}
330
6D8
100
DictionaryVariables
280
     0
  1
0
  0
DICTIONARYVAR
  5
6DE
102
{ACAD_REACTORS
330
6D8
102
}
330
6D8
100
DictionaryVariables
280
     0
  1
127
  0
DICTIONARYVAR
  5
6E1
102
{ACAD_REACTORS
330
6D8
102
}
330
6D8
100
DictionaryVariables
280
     0
  1
2
  0
XRECORD
  5
6D7
102
{ACAD_REACTORS
330
6D5
102
}
330
6D5
100
AcDbXrecord
280
     1
  0
DICTIONARY
  5
146E
330
6A4
100
AcDbDictionary
280
     1
281
     1
  3
ACAD_XREC_ROUNDTRIP
360
146F
  0
DICTIONARY
  5
1472
330
6A7
100
AcDbDictionary
280
     1
281
     1
  3
ACAD_XREC_ROUNDTRIP
360
1473
  0
DICTIONARY
  5
1470
330
6A6
100
AcDbDictionary
280
     1
281
     1
  3
ACAD_XREC_ROUNDTRIP
360
1471
  0
DICTIONARY
  5
661
330
660
100
AcDbDictionary
280
     1
281
     1
  3
ACAD_XREC_ROUNDTRIP
360
1438
  3
BUMPTILE
360
663
  3
DIFFUSETILE
360
662
  3
OPACITYTILE
360
666
  3
REFLECTIONTILE
360
665
  3
REFRACTIONTILE
360
667
  3
SPECULARTILE
360
664
  0
DICTIONARY
  5
659
330
658
100
AcDbDictionary
280
     1
281
     1
  3
ACAD_XREC_ROUNDTRIP
360
1437
  3
BUMPTILE
360
65B
  3
DIFFUSETILE
360
65A
  3
OPACITYTILE
360
65E
  3
REFLECTIONTILE
360
65D
  3
REFRACTIONTILE
360
65F
  3
SPECULARTILE
360
65C
  0
DICTIONARY
  5
669
330
668
100
AcDbDictionary
280
     1
281
     1
  3
ACAD_XREC_ROUNDTRIP
360
1439
  3
BUMPTILE
360
66B
  3
DIFFUSETILE
360
66A
  3
OPACITYTILE
360
66E
  3
REFLECTIONTILE
360
66D
  3
REFRACTIONTILE
360
66F
  3
SPECULARTILE
360
66C
  0
DICTIONARY
  5
146C
330
6A2
100
AcDbDictionary
280
     1
281
     1
  3
ACAD_XREC_ROUNDTRIP
360
146D
  0
DICTIONARY
  5
1431
330
68C
100
AcDbDictionary
280
     1
281
     1
  3
ACAD_ROUNDTRIP_2008_TABLESTYLE_CELLSTYLEMAP
360
1432
  3
ACAD_XREC_ROUNDTRIP
360
146A
  0
DICTIONARY
  5
1444
330
676
100
AcDbDictionary
280
     1
281
     1
  3
ACAD_XREC_ROUNDTRIP
360
1445
  0
DICTIONARY
  5
1442
330
675
100
AcDbDictionary
280
     1
281
     1
  3
ACAD_XREC_ROUNDTRIP
360
1443
  0
DICTIONARY
  5
1450
330
67C
100
AcDbDictionary
280
     1
281
     1
  3
ACAD_XREC_ROUNDTRIP
360
1451
  0
DICTIONARY
  5
1458
330
680
100
AcDbDictionary
280
     1
281
     1
  3
ACAD_XREC_ROUNDTRIP
360
1459
  0
DICTIONARY
  5
144A
330
679
100
AcDbDictionary
280
     1
281
     1
  3
ACAD_XREC_ROUNDTRIP
360
144B
  0
DICTIONARY
  5
144E
330
67B
100
AcDbDictionary
280
     1
281
     1
  3
ACAD_XREC_ROUNDTRIP
360
144F
  0
DICTIONARY
  5
1468
330
688
100
AcDbDictionary
280
     1
281
     1
  3
ACAD_XREC_ROUNDTRIP
360
1469
  0
DICTIONARY
  5
1456
330
67F
100
AcDbDictionary
280
     1
281
     1
  3
ACAD_XREC_ROUNDTRIP
360
1457
  0
DICTIONARY
  5
143A
330
671
100
AcDbDictionary
280
     1
281
     1
  3
ACAD_XREC_ROUNDTRIP
360
143B
  0
DICTIONARY
  5
143C
330
672
100
AcDbDictionary
280
     1
281
     1
  3
ACAD_XREC_ROUNDTRIP
360
143D
  0
DICTIONARY
  5
143E
330
673
100
AcDbDictionary
280
     1
281
     1
  3
ACAD_XREC_ROUNDTRIP
360
143F
  0
DICTIONARY
  5
1440
330
674
100
AcDbDictionary
280
     1
281
     1
  3
ACAD_XREC_ROUNDTRIP
360
1441
  0
DICTIONARY
  5
1448
330
678
100
AcDbDictionary
280
     1
281
     1
  3
ACAD_XREC_ROUNDTRIP
360
1449
  0
DICTIONARY
  5
1464
330
686
100
AcDbDictionary
280
     1
281
     1
  3
ACAD_XREC_ROUNDTRIP
360
1465
  0
DICTIONARY
  5
1454
330
67E
100
AcDbDictionary
280
     1
281
     1
  3
ACAD_XREC_ROUNDTRIP
360
1455
  0
DICTIONARY
  5
1466
330
687
100
AcDbDictionary
280
     1
281
     1
  3
ACAD_XREC_ROUNDTRIP
360
1467
  0
DICTIONARY
  5
144C
330
67A
100
AcDbDictionary
280
     1
281
     1
  3
ACAD_XREC_ROUNDTRIP
360
144D
  0
DICTIONARY
  5
1462
330
685
100
AcDbDictionary
280
     1
281
     1
  3
ACAD_XREC_ROUNDTRIP
360
1463
  0
DICTIONARY
  5
1460
330
684
100
AcDbDictionary
280
     1
281
     1
  3
ACAD_XREC_ROUNDTRIP
360
1461
  0
DICTIONARY
  5
145A
330
681
100
AcDbDictionary
280
     1
281
     1
  3
ACAD_XREC_ROUNDTRIP
360
145B
  0
DICTIONARY
  5
145C
330
682
100
AcDbDictionary
280
     1
281
     1
  3
ACAD_XREC_ROUNDTRIP
360
145D
  0
DICTIONARY
  5
1452
330
67D
100
AcDbDictionary
280
     1
281
     1
  3
ACAD_XREC_ROUNDTRIP
360
1453
  0
DICTIONARY
  5
1446
330
677
100
AcDbDictionary
280
     1
281
     1
  3
ACAD_XREC_ROUNDTRIP
360
1447
  0
DICTIONARY
  5
145E
330
683
100
AcDbDictionary
280
     1
281
     1
  3
ACAD_XREC_ROUNDTRIP
360
145F
  0
XRECORD
  5
146F
102
{ACAD_REACTORS
330
146E
102
}
330
146E
100
AcDbXrecord
280
     1
102
DISPLAYNAME
  1
Metric50
102
FLAGS
 90
        0
  0
XRECORD
  5
1473
102
{ACAD_REACTORS
330
1472
102
}
330
1472
100
AcDbXrecord
280
     1
102
SHADEPLOT
 70
     0
102
SHADEPLOTRESLEVEL
 70
     2
102
SHADEPLOTCUSTOMDPI
 70
   300
  0
XRECORD
  5
1471
102
{ACAD_REACTORS
330
1470
102
}
330
1470
100
AcDbXrecord
280
     1
102
SHADEPLOT
 70
     0
102
SHADEPLOTRESLEVEL
 70
     2
102
SHADEPLOTCUSTOMDPI
 70
   300
  0
XRECORD
  5
1438
102
{ACAD_REACTORS
330
661
102
}
330
661
100
AcDbXrecord
280
     1
102
MATERIAL
148
0.0
149
0.0
149
0.0
 93
        0
 94
      127
282
     0
 72
     0
 77
     0
171
     0
175
     0
179
     0
273
     0
  0
XRECORD
  5
663
102
{ACAD_REACTORS
330
661
102
}
330
661
100
AcDbXrecord
280
     1
270
     1
271
     1
  0
XRECORD
  5
662
102
{ACAD_REACTORS
330
661
102
}
330
661
100
AcDbXrecord
280
     1
270
     1
271
     1
  0
XRECORD
  5
666
102
{ACAD_REACTORS
330
661
102
}
330
661
100
AcDbXrecord
280
     1
270
     1
271
     1
  0
XRECORD
  5
665
102
{ACAD_REACTORS
330
661
102
}
330
661
100
AcDbXrecord
280
     1
270
     1
271
     1
  0
XRECORD
  5
667
102
{ACAD_REACTORS
330
661
102
}
330
661
100
AcDbXrecord
280
     1
270
     1
271
     1
  0
XRECORD
  5
664
102
{ACAD_REACTORS
330
661
102
}
330
661
100
AcDbXrecord
280
     1
270
     1
271
     1
  0
XRECORD
  5
1437
102
{ACAD_REACTORS
330
659
102
}
330
659
100
AcDbXrecord
280
     1
102
MATERIAL
148
0.0
149
0.0
149
0.0
 93
        0
 94
      127
282
     0
 72
     0
 77
     0
171
     0
175
     0
179
     0
273
     0
  0
XRECORD
  5
65B
102
{ACAD_REACTORS
330
659
102
}
330
659
100
AcDbXrecord
280
     1
270
     1
271
     1
  0
XRECORD
  5
65A
102
{ACAD_REACTORS
330
659
102
}
330
659
100
AcDbXrecord
280
     1
270
     1
271
     1
  0
XRECORD
  5
65E
102
{ACAD_REACTORS
330
659
102
}
330
659
100
AcDbXrecord
280
     1
270
     1
271
     1
  0
XRECORD
  5
65D
102
{ACAD_REACTORS
330
659
102
}
330
659
100
AcDbXrecord
280
     1
270
     1
271
     1
  0
XRECORD
  5
65F
102
{ACAD_REACTORS
330
659
102
}
330
659
100
AcDbXrecord
280
     1
270
     1
271
     1
  0
XRECORD
  5
65C
102
{ACAD_REACTORS
330
659
102
}
330
659
100
AcDbXrecord
280
     1
270
     1
271
     1
  0
XRECORD
  5
1439
102
{ACAD_REACTORS
330
669
102
}
330
669
100
AcDbXrecord
280
     1
102
MATERIAL
148
0.0
149
0.0
149
0.0
 93
        0
 94
      127
282
     0
 72
     0
 77
     0
171
     0
175
     0
179
     0
273
     0
  0
XRECORD
  5
66B
102
{ACAD_REACTORS
330
669
102
}
330
669
100
AcDbXrecord
280
     1
270
     1
271
     1
  0
XRECORD
  5
66A
102
{ACAD_REACTORS
330
669
102
}
330
669
100
AcDbXrecord
280
     1
270
     1
271
     1
  0
XRECORD
  5
66E
102
{ACAD_REACTORS
330
669
102
}
330
669
100
AcDbXrecord
280
     1
270
     1
271
     1
  0
XRECORD
  5
66D
102
{ACAD_REACTORS
330
669
102
}
330
669
100
AcDbXrecord
280
     1
270
     1
271
     1
  0
XRECORD
  5
66F
102
{ACAD_REACTORS
330
669
102
}
330
669
100
AcDbXrecord
280
     1
270
     1
271
     1
  0
XRECORD
  5
66C
102
{ACAD_REACTORS
330
669
102
}
330
669
100
AcDbXrecord
280
     1
270
     1
271
     1
  0
XRECORD
  5
146D
102
{ACAD_REACTORS
330
146C
102
}
330
146C
100
AcDbXrecord
280
     1
102
DISPLAYNAME
  1
Metric50
102
FLAGS
 90
        0
  0
CELLSTYLEMAP
  5
1432
102
{ACAD_REACTORS
330
1431
102
}
330
1431
100
AcDbCellStyleMap
 90
        3
300
CELLSTYLE
  1
TABLEFORMAT_BEGIN
 90
        5
170
     1
 91
        0
 92
    32768
 62
   257
 93
        1
300
CONTENTFORMAT
  1
CONTENTFORMAT_BEGIN
 90
        0
 91
        0
 92
      512
 93
        0
300

 40
0.0
140
1.0
 94
        5
 62
     0
340
17
144
6.0
309
CONTENTFORMAT_END
171
     1
301
MARGIN
  1
CELLMARGIN_BEGIN
 40
1.5
 40
1.5
 40
1.5
 40
1.5
 40
4.5
 40
4.5
309
CELLMARGIN_END
 94
        6
 95
        1
302
GRIDFORMAT
  1
GRIDFORMAT_BEGIN
 90
        0
 91
        1
 62
     0
 92
       -2
340
0
 93
        0
 40
1.125
309
GRIDFORMAT_END
 95
        2
302
GRIDFORMAT
  1
GRIDFORMAT_BEGIN
 90
        0
 91
        1
 62
     0
 92
       -2
340
0
 93
        0
 40
1.125
309
GRIDFORMAT_END
 95
        4
302
GRIDFORMAT
  1
GRIDFORMAT_BEGIN
 90
        0
 91
        1
 62
     0
 92
       -2
340
0
 93
        0
 40
1.125
309
GRIDFORMAT_END
 95
        8
302
GRIDFORMAT
  1
GRIDFORMAT_BEGIN
 90
        0
 91
        1
 62
     0
 92
       -2
340
0
 93
        0
 40
1.125
309
GRIDFORMAT_END
 95
       16
302
GRIDFORMAT
  1
GRIDFORMAT_BEGIN
 90
        0
 91
        1
 62
     0
 92
       -2
340
0
 93
        0
 40
1.125
309
GRIDFORMAT_END
 95
       32
302
GRIDFORMAT
  1
GRIDFORMAT_BEGIN
 90
        0
 91
        1
 62
     0
 92
       -2
340
0
 93
        0
 40
1.125
309
GRIDFORMAT_END
309
TABLEFORMAT_END
  1
CELLSTYLE_BEGIN
 90
        1
 91
        1
300
_TITLE
309
CELLSTYLE_END
300
CELLSTYLE
  1
TABLEFORMAT_BEGIN
 90
        5
170
     1
 91
        0
 92
        0
 62
   257
 93
        1
300
CONTENTFORMAT
  1
CONTENTFORMAT_BEGIN
 90
        0
 91
        0
 92
      512
 93
        0
300

 40
0.0
140
1.0
 94
        5
 62
     0
340
17
144
4.5
309
CONTENTFORMAT_END
171
     1
301
MARGIN
  1
CELLMARGIN_BEGIN
 40
1.5
 40
1.5
 40
1.5
 40
1.5
 40
4.5
 40
4.5
309
CELLMARGIN_END
 94
        6
 95
        1
302
GRIDFORMAT
  1
GRIDFORMAT_BEGIN
 90
        0
 91
        1
 62
     0
 92
       -2
340
0
 93
        0
 40
1.125
309
GRIDFORMAT_END
 95
        2
302
GRIDFORMAT
  1
GRIDFORMAT_BEGIN
 90
        0
 91
        1
 62
     0
 92
       -2
340
0
 93
        0
 40
1.125
309
GRIDFORMAT_END
 95
        4
302
GRIDFORMAT
  1
GRIDFORMAT_BEGIN
 90
        0
 91
        1
 62
     0
 92
       -2
340
0
 93
        0
 40
1.125
309
GRIDFORMAT_END
 95
        8
302
GRIDFORMAT
  1
GRIDFORMAT_BEGIN
 90
        0
 91
        1
 62
     0
 92
       -2
340
0
 93
        0
 40
1.125
309
GRIDFORMAT_END
 95
       16
302
GRIDFORMAT
  1
GRIDFORMAT_BEGIN
 90
        0
 91
        1
 62
     0
 92
       -2
340
0
 93
        0
 40
1.125
309
GRIDFORMAT_END
 95
       32
302
GRIDFORMAT
  1
GRIDFORMAT_BEGIN
 90
        0
 91
        1
 62
     0
 92
       -2
340
0
 93
        0
 40
1.125
309
GRIDFORMAT_END
309
TABLEFORMAT_END
  1
CELLSTYLE_BEGIN
 90
        2
 91
        1
300
_HEADER
309
CELLSTYLE_END
300
CELLSTYLE
  1
TABLEFORMAT_BEGIN
 90
        5
170
     1
 91
        0
 92
        0
 62
   257
 93
        1
300
CONTENTFORMAT
  1
CONTENTFORMAT_BEGIN
 90
        0
 91
        0
 92
      512
 93
        0
300

 40
0.0
140
1.0
 94
        2
 62
     0
340
17
144
4.5
309
CONTENTFORMAT_END
171
     1
301
MARGIN
  1
CELLMARGIN_BEGIN
 40
1.5
 40
1.5
 40
1.5
 40
1.5
 40
4.5
 40
4.5
309
CELLMARGIN_END
 94
        6
 95
        1
302
GRIDFORMAT
  1
GRIDFORMAT_BEGIN
 90
        0
 91
        1
 62
     0
 92
       -2
340
0
 93
        0
 40
1.125
309
GRIDFORMAT_END
 95
        2
302
GRIDFORMAT
  1
GRIDFORMAT_BEGIN
 90
        0
 91
        1
 62
     0
 92
       -2
340
0
 93
        0
 40
1.125
309
GRIDFORMAT_END
 95
        4
302
GRIDFORMAT
  1
GRIDFORMAT_BEGIN
 90
        0
 91
        1
 62
     0
 92
       -2
340
0
 93
        0
 40
1.125
309
GRIDFORMAT_END
 95
        8
302
GRIDFORMAT
  1
GRIDFORMAT_BEGIN
 90
        0
 91
        1
 62
     0
 92
       -2
340
0
 93
        0
 40
1.125
309
GRIDFORMAT_END
 95
       16
302
GRIDFORMAT
  1
GRIDFORMAT_BEGIN
 90
        0
 91
        1
 62
     0
 92
       -2
340
0
 93
        0
 40
1.125
309
GRIDFORMAT_END
 95
       32
302
GRIDFORMAT
  1
GRIDFORMAT_BEGIN
 90
        0
 91
        1
 62
     0
 92
       -2
340
0
 93
        0
 40
1.125
309
GRIDFORMAT_END
309
TABLEFORMAT_END
  1
CELLSTYLE_BEGIN
 90
        3
 91
        2
300
_DATA
309
CELLSTYLE_END
  0
XRECORD
  5
146A
102
{ACAD_REACTORS
330
1431
102
}
330
1431
100
AcDbXrecord
280
     1
102
ACAD_ROUNDTRIP_PRE2007_TABLESTYLE
 90
      512
 91
        0
  1

 92
      512
 93
        0
  2

 94
      512
 95
        0
  3

  0
XRECORD
  5
1445
102
{ACAD_REACTORS
330
1444
102
}
330
1444
100
AcDbXrecord
280
     1
102
RTVSPost2010Prop28
280
     1
102
RTVSPost2010PropOp28
 70
     1
102
RTVSPost2010Prop29
280
     1
102
RTVSPost2010PropOp29
 70
     1
102
RTVSPost2010Prop30
280
     0
102
RTVSPost2010PropOp30
 70
     1
102
RTVSPost2010Prop31
280
     0
102
RTVSPost2010PropOp31
 70
     1
102
RTVSPost2010Prop32
280
     0
102
RTVSPost2010PropOp32
 70
     1
102
RTVSPost2010Prop33
280
     0
102
RTVSPost2010PropOp33
 70
     1
102
RTVSPost2010Prop34
280
     0
102
RTVSPost2010PropOp34
 70
     1
102
RTVSPost2010Prop35
280
     0
102
RTVSPost2010PropOp35
 70
     1
102
RTVSPost2010Prop36
280
     0
102
RTVSPost2010PropOp36
 70
     1
102
RTVSPost2010Prop37
 90
       50
102
RTVSPost2010PropOp37
 70
     1
102
RTVSPost2010Prop38
140
0.0
102
RTVSPost2010PropOp38
 70
     1
102
RTVSPost2010Prop39
140
1.0
102
RTVSPost2010PropOp39
 70
     1
102
RTVSPost2010Prop40
 90
        0
102
RTVSPost2010PropOp40
 70
     1
102
RTVSPost2010Prop41ColorIndex
 90
       18
102
RTVSPost2010Prop41ColorRGB
 90
        0
102
RTVSPost2010PropOp41
 70
     1
102
RTVSPost2010Prop42
 90
       50
102
RTVSPost2010PropOp42
 70
     1
102
RTVSPost2010Prop43
 90
        3
102
RTVSPost2010PropOp43
 70
     1
102
RTVSPost2010Prop44ColorIndex
 90
        5
102
RTVSPost2010Prop44ColorRGB
 90
      255
102
RTVSPost2010PropOp44
 70
     1
102
RTVSPost2010Prop45
280
     0
102
RTVSPost2010PropOp45
 70
     1
102
RTVSPost2010Prop46
 90
       50
102
RTVSPost2010PropOp46
 70
     1
102
RTVSPost2010Prop47
 90
       50
102
RTVSPost2010PropOp47
 70
     1
102
RTVSPost2010Prop48
 90
       50
102
RTVSPost2010PropOp48
 70
     1
102
RTVSPost2010Prop49
280
     0
102
RTVSPost2010PropOp49
 70
     1
102
RTVSPost2010Prop50
 90
       50
102
RTVSPost2010PropOp50
 70
     1
102
RTVSPost2010Prop51ColorIndex
 90
      256
102
RTVSPost2010Prop51ColorRGB
 90
-16777216
102
RTVSPost2010PropOp51
 70
     0
102
RTVSPost2010Prop52
140
1.0
102
RTVSPost2010PropOp52
 70
     0
102
RTVSPost2010Prop53
 90
        2
102
RTVSPost2010PropOp53
 70
     1
102
RTVSPost2010Prop54
  1
strokes_ogs.tif
102
RTVSPost2010PropOp54
 70
     1
102
RTVSPost2010Prop55
280
     0
102
RTVSPost2010PropOp55
 70
     1
102
RTVSPost2010Prop56
140
1.0
102
RTVSPost2010PropOp56
 70
     1
102
RTVSPost2010Prop57
140
1.0
102
RTVSPost2010PropOp57
 70
     1
102
RTVSPropertyOp0
 70
     1
102
RTVSPropertyOp1
 70
     1
102
RTVSPropertyOp2
 70
     1
102
RTVSPropertyOp3
 70
     1
102
RTVSPropertyOp4
 70
     1
102
RTVSPropertyOp5
 70
     1
102
RTVSPropertyOp6
 70
     1
102
RTVSPropertyOp7
 70
     1
102
RTVSPropertyOp8
 70
     1
102
RTVSPropertyOp9
 70
     1
102
RTVSPropertyOp10
 70
     1
102
RTVSPropertyOp11
 70
     1
102
RTVSPropertyOp12
 70
     1
102
RTVSPropertyOp13
 70
     1
102
RTVSPropertyOp14
 70
     1
102
RTVSPropertyOp15
 70
     1
102
RTVSPropertyOp16
 70
     1
102
RTVSPropertyOp17
 70
     1
102
RTVSPropertyOp18
 70
     1
102
RTVSPropertyOp19
 70
     1
102
RTVSPropertyOp20
 70
     1
102
RTVSPropertyOp21
 70
     1
102
RTVSPropertyOp22
 70
     1
102
RTVSPropertyOp23
 70
     1
102
RTVSPropertyOp24
 70
     1
102
RTVSPropertyOp25
 70
     1
102
RTVSPropertyOp26
 70
     1
102
RTVSPropertyOp27
 70
     1
102
RTVSPropertyOp28
 70
     1
102
RTVSPropertyOp29
 70
     1
102
RTVSPropertyOp30
 70
     1
102
RTVSPropertyOp31
 70
     1
102
RTVSPropertyOp32
 70
     1
102
RTVSPropertyOp33
 70
     1
102
RTVSPropertyOp34
 70
     1
102
RTVSPropertyOp35
 70
     1
102
RTVSPropertyOp36
 70
     1
102
RTVSPropertyOp37
 70
     1
102
RTVSPropertyOp38
 70
     1
102
RTVSPropertyOp39
 70
     1
102
RTVSPropertyOp40
 70
     1
102
RTVSPropertyOp41
 70
     1
102
RTVSPropertyOp42
 70
     1
102
RTVSPropertyOp43
 70
     1
102
RTVSPropertyOp44
 70
     1
102
RTVSPropertyOp45
 70
     1
102
RTVSPropertyOp46
 70
     1
102
RTVSPropertyOp47
 70
     1
102
RTVSPropertyOp48
 70
     1
102
RTVSPropertyOp49
 70
     1
102
RTVSPropertyOp50
 70
     1
102
RTVSPropertyOp51
 70
     0
102
RTVSPropertyOp52
 70
     0
102
RTVSPropertyOp53
 70
     1
102
RTVSPropertyOp54
 70
     1
102
RTVSPropertyOp55
 70
     1
102
RTVSPropertyOp56
 70
     1
102
RTVSPropertyOp57
 70
     1
102
RTVSPropertyOp58
 70
     1
102
RTVSPropertyOp59
 70
     1
102
RTVSPropertyOp60
 70
     1
102
RTVSPropertyOp61
 70
     1
102
RTVSPropertyOp62
 70
     1
  0
XRECORD
  5
1443
102
{ACAD_REACTORS
330
1442
102
}
330
1442
100
AcDbXrecord
280
     1
102
RTVSPost2010Prop28
280
     0
102
RTVSPost2010PropOp28
 70
     1
102
RTVSPost2010Prop29
280
     1
102
RTVSPost2010PropOp29
 70
     1
102
RTVSPost2010Prop30
280
     1
102
RTVSPost2010PropOp30
 70
     1
102
RTVSPost2010Prop31
280
     0
102
RTVSPost2010PropOp31
 70
     1
102
RTVSPost2010Prop32
280
     0
102
RTVSPost2010PropOp32
 70
     1
102
RTVSPost2010Prop33
280
     0
102
RTVSPost2010PropOp33
 70
     1
102
RTVSPost2010Prop34
280
     0
102
RTVSPost2010PropOp34
 70
     1
102
RTVSPost2010Prop35
280
     0
102
RTVSPost2010PropOp35
 70
     1
102
RTVSPost2010Prop36
280
     0
102
RTVSPost2010PropOp36
 70
     1
102
RTVSPost2010Prop37
 90
       50
102
RTVSPost2010PropOp37
 70
     1
102
RTVSPost2010Prop38
140
0.0
102
RTVSPost2010PropOp38
 70
     1
102
RTVSPost2010Prop39
140
1.0
102
RTVSPost2010PropOp39
 70
     1
102
RTVSPost2010Prop40
 90
        0
102
RTVSPost2010PropOp40
 70
     1
102
RTVSPost2010Prop41ColorIndex
 90
       18
102
RTVSPost2010Prop41ColorRGB
 90
        0
102
RTVSPost2010PropOp41
 70
     1
102
RTVSPost2010Prop42
 90
       50
102
RTVSPost2010PropOp42
 70
     1
102
RTVSPost2010Prop43
 90
        3
102
RTVSPost2010PropOp43
 70
     1
102
RTVSPost2010Prop44ColorIndex
 90
        5
102
RTVSPost2010Prop44ColorRGB
 90
      255
102
RTVSPost2010PropOp44
 70
     1
102
RTVSPost2010Prop45
280
     0
102
RTVSPost2010PropOp45
 70
     1
102
RTVSPost2010Prop46
 90
       50
102
RTVSPost2010PropOp46
 70
     1
102
RTVSPost2010Prop47
 90
       50
102
RTVSPost2010PropOp47
 70
     1
102
RTVSPost2010Prop48
 90
       50
102
RTVSPost2010PropOp48
 70
     1
102
RTVSPost2010Prop49
280
     0
102
RTVSPost2010PropOp49
 70
     1
102
RTVSPost2010Prop50
 90
       50
102
RTVSPost2010PropOp50
 70
     1
102
RTVSPost2010Prop51ColorIndex
 90
      256
102
RTVSPost2010Prop51ColorRGB
 90
-16777216
102
RTVSPost2010PropOp51
 70
     0
102
RTVSPost2010Prop52
140
1.0
102
RTVSPost2010PropOp52
 70
     0
102
RTVSPost2010Prop53
 90
        2
102
RTVSPost2010PropOp53
 70
     1
102
RTVSPost2010Prop54
  1
strokes_ogs.tif
102
RTVSPost2010PropOp54
 70
     1
102
RTVSPost2010Prop55
280
     0
102
RTVSPost2010PropOp55
 70
     1
102
RTVSPost2010Prop56
140
1.0
102
RTVSPost2010PropOp56
 70
     1
102
RTVSPost2010Prop57
140
1.0
102
RTVSPost2010PropOp57
 70
     1
102
RTVSPropertyOp0
 70
     1
102
RTVSPropertyOp1
 70
     1
102
RTVSPropertyOp2
 70
     1
102
RTVSPropertyOp3
 70
     1
102
RTVSPropertyOp4
 70
     1
102
RTVSPropertyOp5
 70
     1
102
RTVSPropertyOp6
 70
     1
102
RTVSPropertyOp7
 70
     1
102
RTVSPropertyOp8
 70
     1
102
RTVSPropertyOp9
 70
     1
102
RTVSPropertyOp10
 70
     1
102
RTVSPropertyOp11
 70
     1
102
RTVSPropertyOp12
 70
     1
102
RTVSPropertyOp13
 70
     1
102
RTVSPropertyOp14
 70
     1
102
RTVSPropertyOp15
 70
     1
102
RTVSPropertyOp16
 70
     1
102
RTVSPropertyOp17
 70
     1
102
RTVSPropertyOp18
 70
     1
102
RTVSPropertyOp19
 70
     1
102
RTVSPropertyOp20
 70
     1
102
RTVSPropertyOp21
 70
     1
102
RTVSPropertyOp22
 70
     1
102
RTVSPropertyOp23
 70
     1
102
RTVSPropertyOp24
 70
     1
102
RTVSPropertyOp25
 70
     1
102
RTVSPropertyOp26
 70
     1
102
RTVSPropertyOp27
 70
     1
102
RTVSPropertyOp28
 70
     1
102
RTVSPropertyOp29
 70
     1
102
RTVSPropertyOp30
 70
     1
102
RTVSPropertyOp31
 70
     1
102
RTVSPropertyOp32
 70
     1
102
RTVSPropertyOp33
 70
     1
102
RTVSPropertyOp34
 70
     1
102
RTVSPropertyOp35
 70
     1
102
RTVSPropertyOp36
 70
     1
102
RTVSPropertyOp37
 70
     1
102
RTVSPropertyOp38
 70
     1
102
RTVSPropertyOp39
 70
     1
102
RTVSPropertyOp40
 70
     1
102
RTVSPropertyOp41
 70
     1
102
RTVSPropertyOp42
 70
     1
102
RTVSPropertyOp43
 70
     1
102
RTVSPropertyOp44
 70
     1
102
RTVSPropertyOp45
 70
     1
102
RTVSPropertyOp46
 70
     1
102
RTVSPropertyOp47
 70
     1
102
RTVSPropertyOp48
 70
     1
102
RTVSPropertyOp49
 70
     1
102
RTVSPropertyOp50
 70
     1
102
RTVSPropertyOp51
 70
     0
102
RTVSPropertyOp52
 70
     0
102
RTVSPropertyOp53
 70
     1
102
RTVSPropertyOp54
 70
     1
102
RTVSPropertyOp55
 70
     1
102
RTVSPropertyOp56
 70
     1
102
RTVSPropertyOp57
 70
     1
102
RTVSPropertyOp58
 70
     1
102
RTVSPropertyOp59
 70
     1
102
RTVSPropertyOp60
 70
     1
102
RTVSPropertyOp61
 70
     1
102
RTVSPropertyOp62
 70
     1
  0
XRECORD
  5
1451
102
{ACAD_REACTORS
330
1450
102
}
330
1450
100
AcDbXrecord
280
     1
102
RTVSPost2010Prop28
280
     0
102
RTVSPost2010PropOp28
 70
     1
102
RTVSPost2010Prop29
280
     1
102
RTVSPost2010PropOp29
 70
     1
102
RTVSPost2010Prop30
280
     1
102
RTVSPost2010PropOp30
 70
     1
102
RTVSPost2010Prop31
280
     0
102
RTVSPost2010PropOp31
 70
     1
102
RTVSPost2010Prop32
280
     0
102
RTVSPost2010PropOp32
 70
     1
102
RTVSPost2010Prop33
280
     0
102
RTVSPost2010PropOp33
 70
     1
102
RTVSPost2010Prop34
280
     0
102
RTVSPost2010PropOp34
 70
     1
102
RTVSPost2010Prop35
280
     0
102
RTVSPost2010PropOp35
 70
     1
102
RTVSPost2010Prop36
280
     0
102
RTVSPost2010PropOp36
 70
     1
102
RTVSPost2010Prop37
 90
       50
102
RTVSPost2010PropOp37
 70
     1
102
RTVSPost2010Prop38
140
0.0
102
RTVSPost2010PropOp38
 70
     1
102
RTVSPost2010Prop39
140
1.0
102
RTVSPost2010PropOp39
 70
     1
102
RTVSPost2010Prop40
 90
        0
102
RTVSPost2010PropOp40
 70
     1
102
RTVSPost2010Prop41ColorIndex
 90
       18
102
RTVSPost2010Prop41ColorRGB
 90
        0
102
RTVSPost2010PropOp41
 70
     1
102
RTVSPost2010Prop42
 90
       50
102
RTVSPost2010PropOp42
 70
     1
102
RTVSPost2010Prop43
 90
        3
102
RTVSPost2010PropOp43
 70
     1
102
RTVSPost2010Prop44ColorIndex
 90
        5
102
RTVSPost2010Prop44ColorRGB
 90
      255
102
RTVSPost2010PropOp44
 70
     1
102
RTVSPost2010Prop45
280
     0
102
RTVSPost2010PropOp45
 70
     1
102
RTVSPost2010Prop46
 90
       50
102
RTVSPost2010PropOp46
 70
     1
102
RTVSPost2010Prop47
 90
       50
102
RTVSPost2010PropOp47
 70
     1
102
RTVSPost2010Prop48
 90
       50
102
RTVSPost2010PropOp48
 70
     1
102
RTVSPost2010Prop49
280
     0
102
RTVSPost2010PropOp49
 70
     1
102
RTVSPost2010Prop50
 90
       50
102
RTVSPost2010PropOp50
 70
     1
102
RTVSPost2010Prop51ColorIndex
 90
      256
102
RTVSPost2010Prop51ColorRGB
 90
-16777216
102
RTVSPost2010PropOp51
 70
     0
102
RTVSPost2010Prop52
140
1.0
102
RTVSPost2010PropOp52
 70
     0
102
RTVSPost2010Prop53
 90
        2
102
RTVSPost2010PropOp53
 70
     1
102
RTVSPost2010Prop54
  1
strokes_ogs.tif
102
RTVSPost2010PropOp54
 70
     1
102
RTVSPost2010Prop55
280
     0
102
RTVSPost2010PropOp55
 70
     1
102
RTVSPost2010Prop56
140
1.0
102
RTVSPost2010PropOp56
 70
     1
102
RTVSPost2010Prop57
140
1.0
102
RTVSPost2010PropOp57
 70
     1
102
RTVSPropertyOp0
 70
     1
102
RTVSPropertyOp1
 70
     1
102
RTVSPropertyOp2
 70
     1
102
RTVSPropertyOp3
 70
     1
102
RTVSPropertyOp4
 70
     1
102
RTVSPropertyOp5
 70
     1
102
RTVSPropertyOp6
 70
     1
102
RTVSPropertyOp7
 70
     1
102
RTVSPropertyOp8
 70
     1
102
RTVSPropertyOp9
 70
     1
102
RTVSPropertyOp10
 70
     1
102
RTVSPropertyOp11
 70
     1
102
RTVSPropertyOp12
 70
     1
102
RTVSPropertyOp13
 70
     1
102
RTVSPropertyOp14
 70
     1
102
RTVSPropertyOp15
 70
     1
102
RTVSPropertyOp16
 70
     1
102
RTVSPropertyOp17
 70
     1
102
RTVSPropertyOp18
 70
     1
102
RTVSPropertyOp19
 70
     1
102
RTVSPropertyOp20
 70
     1
102
RTVSPropertyOp21
 70
     1
102
RTVSPropertyOp22
 70
     1
102
RTVSPropertyOp23
 70
     1
102
RTVSPropertyOp24
 70
     1
102
RTVSPropertyOp25
 70
     1
102
RTVSPropertyOp26
 70
     1
102
RTVSPropertyOp27
 70
     1
102
RTVSPropertyOp28
 70
     1
102
RTVSPropertyOp29
 70
     1
102
RTVSPropertyOp30
 70
     1
102
RTVSPropertyOp31
 70
     1
102
RTVSPropertyOp32
 70
     1
102
RTVSPropertyOp33
 70
     1
102
RTVSPropertyOp34
 70
     1
102
RTVSPropertyOp35
 70
     1
102
RTVSPropertyOp36
 70
     1
102
RTVSPropertyOp37
 70
     1
102
RTVSPropertyOp38
 70
     1
102
RTVSPropertyOp39
 70
     1
102
RTVSPropertyOp40
 70
     1
102
RTVSPropertyOp41
 70
     1
102
RTVSPropertyOp42
 70
     1
102
RTVSPropertyOp43
 70
     1
102
RTVSPropertyOp44
 70
     1
102
RTVSPropertyOp45
 70
     1
102
RTVSPropertyOp46
 70
     1
102
RTVSPropertyOp47
 70
     1
102
RTVSPropertyOp48
 70
     1
102
RTVSPropertyOp49
 70
     1
102
RTVSPropertyOp50
 70
     1
102
RTVSPropertyOp51
 70
     0
102
RTVSPropertyOp52
 70
     0
102
RTVSPropertyOp53
 70
     1
102
RTVSPropertyOp54
 70
     1
102
RTVSPropertyOp55
 70
     1
102
RTVSPropertyOp56
 70
     1
102
RTVSPropertyOp57
 70
     1
102
RTVSPropertyOp58
 70
     1
102
RTVSPropertyOp59
 70
     1
102
RTVSPropertyOp60
 70
     1
102
RTVSPropertyOp61
 70
     1
102
RTVSPropertyOp62
 70
     1
  0
XRECORD
  5
1459
102
{ACAD_REACTORS
330
1458
102
}
330
1458
100
AcDbXrecord
280
     1
102
RTVSPost2010Prop28
280
     0
102
RTVSPost2010PropOp28
 70
     1
102
RTVSPost2010Prop29
280
     1
102
RTVSPost2010PropOp29
 70
     1
102
RTVSPost2010Prop30
280
     1
102
RTVSPost2010PropOp30
 70
     1
102
RTVSPost2010Prop31
280
     0
102
RTVSPost2010PropOp31
 70
     1
102
RTVSPost2010Prop32
280
     0
102
RTVSPost2010PropOp32
 70
     1
102
RTVSPost2010Prop33
280
     0
102
RTVSPost2010PropOp33
 70
     1
102
RTVSPost2010Prop34
280
     0
102
RTVSPost2010PropOp34
 70
     1
102
RTVSPost2010Prop35
280
     0
102
RTVSPost2010PropOp35
 70
     1
102
RTVSPost2010Prop36
280
     0
102
RTVSPost2010PropOp36
 70
     1
102
RTVSPost2010Prop37
 90
       50
102
RTVSPost2010PropOp37
 70
     1
102
RTVSPost2010Prop38
140
0.0
102
RTVSPost2010PropOp38
 70
     1
102
RTVSPost2010Prop39
140
1.0
102
RTVSPost2010PropOp39
 70
     1
102
RTVSPost2010Prop40
 90
        0
102
RTVSPost2010PropOp40
 70
     1
102
RTVSPost2010Prop41ColorIndex
 90
       18
102
RTVSPost2010Prop41ColorRGB
 90
        0
102
RTVSPost2010PropOp41
 70
     1
102
RTVSPost2010Prop42
 90
       50
102
RTVSPost2010PropOp42
 70
     1
102
RTVSPost2010Prop43
 90
        3
102
RTVSPost2010PropOp43
 70
     1
102
RTVSPost2010Prop44ColorIndex
 90
        5
102
RTVSPost2010Prop44ColorRGB
 90
      255
102
RTVSPost2010PropOp44
 70
     1
102
RTVSPost2010Prop45
280
     0
102
RTVSPost2010PropOp45
 70
     1
102
RTVSPost2010Prop46
 90
       50
102
RTVSPost2010PropOp46
 70
     1
102
RTVSPost2010Prop47
 90
       50
102
RTVSPost2010PropOp47
 70
     1
102
RTVSPost2010Prop48
 90
       50
102
RTVSPost2010PropOp48
 70
     1
102
RTVSPost2010Prop49
280
     0
102
RTVSPost2010PropOp49
 70
     1
102
RTVSPost2010Prop50
 90
       50
102
RTVSPost2010PropOp50
 70
     1
102
RTVSPost2010Prop51ColorIndex
 90
      256
102
RTVSPost2010Prop51ColorRGB
 90
-16777216
102
RTVSPost2010PropOp51
 70
     0
102
RTVSPost2010Prop52
140
1.0
102
RTVSPost2010PropOp52
 70
     0
102
RTVSPost2010Prop53
 90
        2
102
RTVSPost2010PropOp53
 70
     1
102
RTVSPost2010Prop54
  1
strokes_ogs.tif
102
RTVSPost2010PropOp54
 70
     1
102
RTVSPost2010Prop55
280
     0
102
RTVSPost2010PropOp55
 70
     1
102
RTVSPost2010Prop56
140
1.0
102
RTVSPost2010PropOp56
 70
     1
102
RTVSPost2010Prop57
140
1.0
102
RTVSPost2010PropOp57
 70
     1
102
RTVSPropertyOp0
 70
     1
102
RTVSPropertyOp1
 70
     1
102
RTVSPropertyOp2
 70
     1
102
RTVSPropertyOp3
 70
     1
102
RTVSPropertyOp4
 70
     1
102
RTVSPropertyOp5
 70
     1
102
RTVSPropertyOp6
 70
     1
102
RTVSPropertyOp7
 70
     1
102
RTVSPropertyOp8
 70
     1
102
RTVSPropertyOp9
 70
     1
102
RTVSPropertyOp10
 70
     1
102
RTVSPropertyOp11
 70
     1
102
RTVSPropertyOp12
 70
     1
102
RTVSPropertyOp13
 70
     1
102
RTVSPropertyOp14
 70
     1
102
RTVSPropertyOp15
 70
     1
102
RTVSPropertyOp16
 70
     1
102
RTVSPropertyOp17
 70
     1
102
RTVSPropertyOp18
 70
     1
102
RTVSPropertyOp19
 70
     1
102
RTVSPropertyOp20
 70
     1
102
RTVSPropertyOp21
 70
     1
102
RTVSPropertyOp22
 70
     1
102
RTVSPropertyOp23
 70
     1
102
RTVSPropertyOp24
 70
     1
102
RTVSPropertyOp25
 70
     1
102
RTVSPropertyOp26
 70
     1
102
RTVSPropertyOp27
 70
     1
102
RTVSPropertyOp28
 70
     1
102
RTVSPropertyOp29
 70
     1
102
RTVSPropertyOp30
 70
     1
102
RTVSPropertyOp31
 70
     1
102
RTVSPropertyOp32
 70
     1
102
RTVSPropertyOp33
 70
     1
102
RTVSPropertyOp34
 70
     1
102
RTVSPropertyOp35
 70
     1
102
RTVSPropertyOp36
 70
     1
102
RTVSPropertyOp37
 70
     1
102
RTVSPropertyOp38
 70
     1
102
RTVSPropertyOp39
 70
     1
102
RTVSPropertyOp40
 70
     1
102
RTVSPropertyOp41
 70
     1
102
RTVSPropertyOp42
 70
     1
102
RTVSPropertyOp43
 70
     1
102
RTVSPropertyOp44
 70
     1
102
RTVSPropertyOp45
 70
     1
102
RTVSPropertyOp46
 70
     1
102
RTVSPropertyOp47
 70
     1
102
RTVSPropertyOp48
 70
     1
102
RTVSPropertyOp49
 70
     1
102
RTVSPropertyOp50
 70
     1
102
RTVSPropertyOp51
 70
     0
102
RTVSPropertyOp52
 70
     0
102
RTVSPropertyOp53
 70
     1
102
RTVSPropertyOp54
 70
     1
102
RTVSPropertyOp55
 70
     1
102
RTVSPropertyOp56
 70
     1
102
RTVSPropertyOp57
 70
     1
102
RTVSPropertyOp58
 70
     1
102
RTVSPropertyOp59
 70
     1
102
RTVSPropertyOp60
 70
     1
102
RTVSPropertyOp61
 70
     1
102
RTVSPropertyOp62
 70
     1
  0
XRECORD
  5
144B
102
{ACAD_REACTORS
330
144A
102
}
330
144A
100
AcDbXrecord
280
     1
102
RTVSPost2010Prop28
280
     0
102
RTVSPost2010PropOp28
 70
     1
102
RTVSPost2010Prop29
280
     1
102
RTVSPost2010PropOp29
 70
     1
102
RTVSPost2010Prop30
280
     1
102
RTVSPost2010PropOp30
 70
     1
102
RTVSPost2010Prop31
280
     0
102
RTVSPost2010PropOp31
 70
     1
102
RTVSPost2010Prop32
280
     0
102
RTVSPost2010PropOp32
 70
     1
102
RTVSPost2010Prop33
280
     0
102
RTVSPost2010PropOp33
 70
     1
102
RTVSPost2010Prop34
280
     0
102
RTVSPost2010PropOp34
 70
     1
102
RTVSPost2010Prop35
280
     0
102
RTVSPost2010PropOp35
 70
     1
102
RTVSPost2010Prop36
280
     0
102
RTVSPost2010PropOp36
 70
     1
102
RTVSPost2010Prop37
 90
       50
102
RTVSPost2010PropOp37
 70
     1
102
RTVSPost2010Prop38
140
0.0
102
RTVSPost2010PropOp38
 70
     1
102
RTVSPost2010Prop39
140
1.0
102
RTVSPost2010PropOp39
 70
     1
102
RTVSPost2010Prop40
 90
        0
102
RTVSPost2010PropOp40
 70
     1
102
RTVSPost2010Prop41ColorIndex
 90
       18
102
RTVSPost2010Prop41ColorRGB
 90
        0
102
RTVSPost2010PropOp41
 70
     1
102
RTVSPost2010Prop42
 90
       50
102
RTVSPost2010PropOp42
 70
     1
102
RTVSPost2010Prop43
 90
        3
102
RTVSPost2010PropOp43
 70
     1
102
RTVSPost2010Prop44ColorIndex
 90
        5
102
RTVSPost2010Prop44ColorRGB
 90
      255
102
RTVSPost2010PropOp44
 70
     1
102
RTVSPost2010Prop45
280
     0
102
RTVSPost2010PropOp45
 70
     1
102
RTVSPost2010Prop46
 90
       50
102
RTVSPost2010PropOp46
 70
     1
102
RTVSPost2010Prop47
 90
       50
102
RTVSPost2010PropOp47
 70
     1
102
RTVSPost2010Prop48
 90
       50
102
RTVSPost2010PropOp48
 70
     1
102
RTVSPost2010Prop49
280
     0
102
RTVSPost2010PropOp49
 70
     1
102
RTVSPost2010Prop50
 90
       50
102
RTVSPost2010PropOp50
 70
     1
102
RTVSPost2010Prop51ColorIndex
 90
      256
102
RTVSPost2010Prop51ColorRGB
 90
-16777216
102
RTVSPost2010PropOp51
 70
     0
102
RTVSPost2010Prop52
140
1.0
102
RTVSPost2010PropOp52
 70
     0
102
RTVSPost2010Prop53
 90
        2
102
RTVSPost2010PropOp53
 70
     1
102
RTVSPost2010Prop54
  1
strokes_ogs.tif
102
RTVSPost2010PropOp54
 70
     1
102
RTVSPost2010Prop55
280
     0
102
RTVSPost2010PropOp55
 70
     1
102
RTVSPost2010Prop56
140
1.0
102
RTVSPost2010PropOp56
 70
     1
102
RTVSPost2010Prop57
140
1.0
102
RTVSPost2010PropOp57
 70
     1
102
RTVSPropertyOp0
 70
     1
102
RTVSPropertyOp1
 70
     1
102
RTVSPropertyOp2
 70
     1
102
RTVSPropertyOp3
 70
     1
102
RTVSPropertyOp4
 70
     1
102
RTVSPropertyOp5
 70
     1
102
RTVSPropertyOp6
 70
     1
102
RTVSPropertyOp7
 70
     1
102
RTVSPropertyOp8
 70
     1
102
RTVSPropertyOp9
 70
     1
102
RTVSPropertyOp10
 70
     1
102
RTVSPropertyOp11
 70
     1
102
RTVSPropertyOp12
 70
     1
102
RTVSPropertyOp13
 70
     1
102
RTVSPropertyOp14
 70
     1
102
RTVSPropertyOp15
 70
     1
102
RTVSPropertyOp16
 70
     1
102
RTVSPropertyOp17
 70
     1
102
RTVSPropertyOp18
 70
     1
102
RTVSPropertyOp19
 70
     1
102
RTVSPropertyOp20
 70
     1
102
RTVSPropertyOp21
 70
     1
102
RTVSPropertyOp22
 70
     1
102
RTVSPropertyOp23
 70
     1
102
RTVSPropertyOp24
 70
     1
102
RTVSPropertyOp25
 70
     1
102
RTVSPropertyOp26
 70
     1
102
RTVSPropertyOp27
 70
     1
102
RTVSPropertyOp28
 70
     1
102
RTVSPropertyOp29
 70
     1
102
RTVSPropertyOp30
 70
     1
102
RTVSPropertyOp31
 70
     1
102
RTVSPropertyOp32
 70
     1
102
RTVSPropertyOp33
 70
     1
102
RTVSPropertyOp34
 70
     1
102
RTVSPropertyOp35
 70
     1
102
RTVSPropertyOp36
 70
     1
102
RTVSPropertyOp37
 70
     1
102
RTVSPropertyOp38
 70
     1
102
RTVSPropertyOp39
 70
     1
102
RTVSPropertyOp40
 70
     1
102
RTVSPropertyOp41
 70
     1
102
RTVSPropertyOp42
 70
     1
102
RTVSPropertyOp43
 70
     1
102
RTVSPropertyOp44
 70
     1
102
RTVSPropertyOp45
 70
     1
102
RTVSPropertyOp46
 70
     1
102
RTVSPropertyOp47
 70
     1
102
RTVSPropertyOp48
 70
     1
102
RTVSPropertyOp49
 70
     1
102
RTVSPropertyOp50
 70
     1
102
RTVSPropertyOp51
 70
     0
102
RTVSPropertyOp52
 70
     0
102
RTVSPropertyOp53
 70
     1
102
RTVSPropertyOp54
 70
     1
102
RTVSPropertyOp55
 70
     1
102
RTVSPropertyOp56
 70
     1
102
RTVSPropertyOp57
 70
     1
102
RTVSPropertyOp58
 70
     1
102
RTVSPropertyOp59
 70
     1
102
RTVSPropertyOp60
 70
     1
102
RTVSPropertyOp61
 70
     1
102
RTVSPropertyOp62
 70
     1
  0
XRECORD
  5
144F
102
{ACAD_REACTORS
330
144E
102
}
330
144E
100
AcDbXrecord
280
     1
102
RTVSPost2010Prop28
280
     0
102
RTVSPost2010PropOp28
 70
     1
102
RTVSPost2010Prop29
280
     1
102
RTVSPost2010PropOp29
 70
     1
102
RTVSPost2010Prop30
280
     1
102
RTVSPost2010PropOp30
 70
     1
102
RTVSPost2010Prop31
280
     0
102
RTVSPost2010PropOp31
 70
     1
102
RTVSPost2010Prop32
280
     0
102
RTVSPost2010PropOp32
 70
     1
102
RTVSPost2010Prop33
280
     0
102
RTVSPost2010PropOp33
 70
     1
102
RTVSPost2010Prop34
280
     0
102
RTVSPost2010PropOp34
 70
     1
102
RTVSPost2010Prop35
280
     0
102
RTVSPost2010PropOp35
 70
     1
102
RTVSPost2010Prop36
280
     0
102
RTVSPost2010PropOp36
 70
     1
102
RTVSPost2010Prop37
 90
       50
102
RTVSPost2010PropOp37
 70
     1
102
RTVSPost2010Prop38
140
0.0
102
RTVSPost2010PropOp38
 70
     1
102
RTVSPost2010Prop39
140
1.0
102
RTVSPost2010PropOp39
 70
     1
102
RTVSPost2010Prop40
 90
        0
102
RTVSPost2010PropOp40
 70
     1
102
RTVSPost2010Prop41ColorIndex
 90
       18
102
RTVSPost2010Prop41ColorRGB
 90
        0
102
RTVSPost2010PropOp41
 70
     1
102
RTVSPost2010Prop42
 90
       50
102
RTVSPost2010PropOp42
 70
     1
102
RTVSPost2010Prop43
 90
        3
102
RTVSPost2010PropOp43
 70
     1
102
RTVSPost2010Prop44ColorIndex
 90
        5
102
RTVSPost2010Prop44ColorRGB
 90
      255
102
RTVSPost2010PropOp44
 70
     1
102
RTVSPost2010Prop45
280
     0
102
RTVSPost2010PropOp45
 70
     1
102
RTVSPost2010Prop46
 90
       50
102
RTVSPost2010PropOp46
 70
     1
102
RTVSPost2010Prop47
 90
       50
102
RTVSPost2010PropOp47
 70
     1
102
RTVSPost2010Prop48
 90
       50
102
RTVSPost2010PropOp48
 70
     1
102
RTVSPost2010Prop49
280
     0
102
RTVSPost2010PropOp49
 70
     1
102
RTVSPost2010Prop50
 90
       50
102
RTVSPost2010PropOp50
 70
     1
102
RTVSPost2010Prop51ColorIndex
 90
      256
102
RTVSPost2010Prop51ColorRGB
 90
-16777216
102
RTVSPost2010PropOp51
 70
     0
102
RTVSPost2010Prop52
140
1.0
102
RTVSPost2010PropOp52
 70
     0
102
RTVSPost2010Prop53
 90
        2
102
RTVSPost2010PropOp53
 70
     1
102
RTVSPost2010Prop54
  1
strokes_ogs.tif
102
RTVSPost2010PropOp54
 70
     1
102
RTVSPost2010Prop55
280
     0
102
RTVSPost2010PropOp55
 70
     1
102
RTVSPost2010Prop56
140
1.0
102
RTVSPost2010PropOp56
 70
     1
102
RTVSPost2010Prop57
140
1.0
102
RTVSPost2010PropOp57
 70
     1
102
RTVSPropertyOp0
 70
     1
102
RTVSPropertyOp1
 70
     1
102
RTVSPropertyOp2
 70
     1
102
RTVSPropertyOp3
 70
     1
102
RTVSPropertyOp4
 70
     1
102
RTVSPropertyOp5
 70
     1
102
RTVSPropertyOp6
 70
     1
102
RTVSPropertyOp7
 70
     1
102
RTVSPropertyOp8
 70
     1
102
RTVSPropertyOp9
 70
     1
102
RTVSPropertyOp10
 70
     1
102
RTVSPropertyOp11
 70
     1
102
RTVSPropertyOp12
 70
     1
102
RTVSPropertyOp13
 70
     1
102
RTVSPropertyOp14
 70
     1
102
RTVSPropertyOp15
 70
     1
102
RTVSPropertyOp16
 70
     1
102
RTVSPropertyOp17
 70
     1
102
RTVSPropertyOp18
 70
     1
102
RTVSPropertyOp19
 70
     1
102
RTVSPropertyOp20
 70
     1
102
RTVSPropertyOp21
 70
     1
102
RTVSPropertyOp22
 70
     1
102
RTVSPropertyOp23
 70
     1
102
RTVSPropertyOp24
 70
     1
102
RTVSPropertyOp25
 70
     1
102
RTVSPropertyOp26
 70
     1
102
RTVSPropertyOp27
 70
     1
102
RTVSPropertyOp28
 70
     1
102
RTVSPropertyOp29
 70
     1
102
RTVSPropertyOp30
 70
     1
102
RTVSPropertyOp31
 70
     1
102
RTVSPropertyOp32
 70
     1
102
RTVSPropertyOp33
 70
     1
102
RTVSPropertyOp34
 70
     1
102
RTVSPropertyOp35
 70
     1
102
RTVSPropertyOp36
 70
     1
102
RTVSPropertyOp37
 70
     1
102
RTVSPropertyOp38
 70
     1
102
RTVSPropertyOp39
 70
     1
102
RTVSPropertyOp40
 70
     1
102
RTVSPropertyOp41
 70
     1
102
RTVSPropertyOp42
 70
     1
102
RTVSPropertyOp43
 70
     1
102
RTVSPropertyOp44
 70
     1
102
RTVSPropertyOp45
 70
     1
102
RTVSPropertyOp46
 70
     1
102
RTVSPropertyOp47
 70
     1
102
RTVSPropertyOp48
 70
     1
102
RTVSPropertyOp49
 70
     1
102
RTVSPropertyOp50
 70
     1
102
RTVSPropertyOp51
 70
     0
102
RTVSPropertyOp52
 70
     0
102
RTVSPropertyOp53
 70
     1
102
RTVSPropertyOp54
 70
     1
102
RTVSPropertyOp55
 70
     1
102
RTVSPropertyOp56
 70
     1
102
RTVSPropertyOp57
 70
     1
102
RTVSPropertyOp58
 70
     1
102
RTVSPropertyOp59
 70
     1
102
RTVSPropertyOp60
 70
     1
102
RTVSPropertyOp61
 70
     1
102
RTVSPropertyOp62
 70
     1
  0
XRECORD
  5
1469
102
{ACAD_REACTORS
330
1468
102
}
330
1468
100
AcDbXrecord
280
     1
102
RTVSPost2010Prop28
280
     0
102
RTVSPost2010PropOp28
 70
     1
102
RTVSPost2010Prop29
280
     1
102
RTVSPost2010PropOp29
 70
     1
102
RTVSPost2010Prop30
280
     1
102
RTVSPost2010PropOp30
 70
     1
102
RTVSPost2010Prop31
280
     0
102
RTVSPost2010PropOp31
 70
     1
102
RTVSPost2010Prop32
280
     0
102
RTVSPost2010PropOp32
 70
     1
102
RTVSPost2010Prop33
280
     0
102
RTVSPost2010PropOp33
 70
     1
102
RTVSPost2010Prop34
280
     0
102
RTVSPost2010PropOp34
 70
     1
102
RTVSPost2010Prop35
280
     0
102
RTVSPost2010PropOp35
 70
     1
102
RTVSPost2010Prop36
280
     0
102
RTVSPost2010PropOp36
 70
     1
102
RTVSPost2010Prop37
 90
       50
102
RTVSPost2010PropOp37
 70
     0
102
RTVSPost2010Prop38
140
0.0
102
RTVSPost2010PropOp38
 70
     0
102
RTVSPost2010Prop39
140
1.0
102
RTVSPost2010PropOp39
 70
     0
102
RTVSPost2010Prop40
 90
        0
102
RTVSPost2010PropOp40
 70
     0
102
RTVSPost2010Prop41ColorIndex
 90
       18
102
RTVSPost2010Prop41ColorRGB
 90
        0
102
RTVSPost2010PropOp41
 70
     0
102
RTVSPost2010Prop42
 90
       50
102
RTVSPost2010PropOp42
 70
     0
102
RTVSPost2010Prop43
 90
        3
102
RTVSPost2010PropOp43
 70
     0
102
RTVSPost2010Prop44ColorIndex
 90
        5
102
RTVSPost2010Prop44ColorRGB
 90
      255
102
RTVSPost2010PropOp44
 70
     0
102
RTVSPost2010Prop45
280
     0
102
RTVSPost2010PropOp45
 70
     1
102
RTVSPost2010Prop46
 90
       50
102
RTVSPost2010PropOp46
 70
     0
102
RTVSPost2010Prop47
 90
       50
102
RTVSPost2010PropOp47
 70
     0
102
RTVSPost2010Prop48
 90
       50
102
RTVSPost2010PropOp48
 70
     0
102
RTVSPost2010Prop49
280
     0
102
RTVSPost2010PropOp49
 70
     1
102
RTVSPost2010Prop50
 90
       50
102
RTVSPost2010PropOp50
 70
     0
102
RTVSPost2010Prop51ColorIndex
 90
      256
102
RTVSPost2010Prop51ColorRGB
 90
-16777216
102
RTVSPost2010PropOp51
 70
     0
102
RTVSPost2010Prop52
140
1.0
102
RTVSPost2010PropOp52
 70
     0
102
RTVSPost2010Prop53
 90
        2
102
RTVSPost2010PropOp53
 70
     0
102
RTVSPost2010Prop54
  1
strokes_ogs.tif
102
RTVSPost2010PropOp54
 70
     0
102
RTVSPost2010Prop55
280
     0
102
RTVSPost2010PropOp55
 70
     1
102
RTVSPost2010Prop56
140
1.0
102
RTVSPost2010PropOp56
 70
     0
102
RTVSPost2010Prop57
140
1.0
102
RTVSPost2010PropOp57
 70
     0
102
RTVSPropertyOp0
 70
     0
102
RTVSPropertyOp1
 70
     0
102
RTVSPropertyOp2
 70
     0
102
RTVSPropertyOp3
 70
     0
102
RTVSPropertyOp4
 70
     0
102
RTVSPropertyOp5
 70
     0
102
RTVSPropertyOp6
 70
     0
102
RTVSPropertyOp7
 70
     0
102
RTVSPropertyOp8
 70
     0
102
RTVSPropertyOp9
 70
     0
102
RTVSPropertyOp10
 70
     0
102
RTVSPropertyOp11
 70
     0
102
RTVSPropertyOp12
 70
     0
102
RTVSPropertyOp13
 70
     0
102
RTVSPropertyOp14
 70
     2
102
RTVSPropertyOp15
 70
     0
102
RTVSPropertyOp16
 70
     0
102
RTVSPropertyOp17
 70
     0
102
RTVSPropertyOp18
 70
     0
102
RTVSPropertyOp19
 70
     0
102
RTVSPropertyOp20
 70
     0
102
RTVSPropertyOp21
 70
     0
102
RTVSPropertyOp22
 70
     0
102
RTVSPropertyOp23
 70
     0
102
RTVSPropertyOp24
 70
     0
102
RTVSPropertyOp25
 70
     0
102
RTVSPropertyOp26
 70
     0
102
RTVSPropertyOp27
 70
     0
102
RTVSPropertyOp28
 70
     1
102
RTVSPropertyOp29
 70
     1
102
RTVSPropertyOp30
 70
     1
102
RTVSPropertyOp31
 70
     1
102
RTVSPropertyOp32
 70
     1
102
RTVSPropertyOp33
 70
     1
102
RTVSPropertyOp34
 70
     1
102
RTVSPropertyOp35
 70
     1
102
RTVSPropertyOp36
 70
     1
102
RTVSPropertyOp37
 70
     0
102
RTVSPropertyOp38
 70
     0
102
RTVSPropertyOp39
 70
     0
102
RTVSPropertyOp40
 70
     0
102
RTVSPropertyOp41
 70
     0
102
RTVSPropertyOp42
 70
     0
102
RTVSPropertyOp43
 70
     0
102
RTVSPropertyOp44
 70
     0
102
RTVSPropertyOp45
 70
     1
102
RTVSPropertyOp46
 70
     0
102
RTVSPropertyOp47
 70
     0
102
RTVSPropertyOp48
 70
     0
102
RTVSPropertyOp49
 70
     1
102
RTVSPropertyOp50
 70
     0
102
RTVSPropertyOp51
 70
     0
102
RTVSPropertyOp52
 70
     0
102
RTVSPropertyOp53
 70
     0
102
RTVSPropertyOp54
 70
     0
102
RTVSPropertyOp55
 70
     1
102
RTVSPropertyOp56
 70
     0
102
RTVSPropertyOp57
 70
     0
102
RTVSPropertyOp58
 70
     0
102
RTVSPropertyOp59
 70
     0
102
RTVSPropertyOp60
 70
     0
102
RTVSPropertyOp61
 70
     0
102
RTVSPropertyOp62
 70
     0
  0
XRECORD
  5
1457
102
{ACAD_REACTORS
330
1456
102
}
330
1456
100
AcDbXrecord
280
     1
102
RTVSPost2010Prop28
280
     0
102
RTVSPost2010PropOp28
 70
     1
102
RTVSPost2010Prop29
280
     1
102
RTVSPost2010PropOp29
 70
     1
102
RTVSPost2010Prop30
280
     1
102
RTVSPost2010PropOp30
 70
     1
102
RTVSPost2010Prop31
280
     0
102
RTVSPost2010PropOp31
 70
     1
102
RTVSPost2010Prop32
280
     0
102
RTVSPost2010PropOp32
 70
     1
102
RTVSPost2010Prop33
280
     0
102
RTVSPost2010PropOp33
 70
     1
102
RTVSPost2010Prop34
280
     0
102
RTVSPost2010PropOp34
 70
     1
102
RTVSPost2010Prop35
280
     0
102
RTVSPost2010PropOp35
 70
     1
102
RTVSPost2010Prop36
280
     0
102
RTVSPost2010PropOp36
 70
     1
102
RTVSPost2010Prop37
 90
       50
102
RTVSPost2010PropOp37
 70
     1
102
RTVSPost2010Prop38
140
0.0
102
RTVSPost2010PropOp38
 70
     1
102
RTVSPost2010Prop39
140
1.0
102
RTVSPost2010PropOp39
 70
     1
102
RTVSPost2010Prop40
 90
        0
102
RTVSPost2010PropOp40
 70
     1
102
RTVSPost2010Prop41ColorIndex
 90
       18
102
RTVSPost2010Prop41ColorRGB
 90
        0
102
RTVSPost2010PropOp41
 70
     1
102
RTVSPost2010Prop42
 90
       50
102
RTVSPost2010PropOp42
 70
     1
102
RTVSPost2010Prop43
 90
        3
102
RTVSPost2010PropOp43
 70
     1
102
RTVSPost2010Prop44ColorIndex
 90
        5
102
RTVSPost2010Prop44ColorRGB
 90
      255
102
RTVSPost2010PropOp44
 70
     1
102
RTVSPost2010Prop45
280
     0
102
RTVSPost2010PropOp45
 70
     1
102
RTVSPost2010Prop46
 90
       50
102
RTVSPost2010PropOp46
 70
     1
102
RTVSPost2010Prop47
 90
       50
102
RTVSPost2010PropOp47
 70
     1
102
RTVSPost2010Prop48
 90
       50
102
RTVSPost2010PropOp48
 70
     1
102
RTVSPost2010Prop49
280
     0
102
RTVSPost2010PropOp49
 70
     1
102
RTVSPost2010Prop50
 90
       50
102
RTVSPost2010PropOp50
 70
     1
102
RTVSPost2010Prop51ColorIndex
 90
      256
102
RTVSPost2010Prop51ColorRGB
 90
-16777216
102
RTVSPost2010PropOp51
 70
     0
102
RTVSPost2010Prop52
140
1.0
102
RTVSPost2010PropOp52
 70
     0
102
RTVSPost2010Prop53
 90
        2
102
RTVSPost2010PropOp53
 70
     1
102
RTVSPost2010Prop54
  1
strokes_ogs.tif
102
RTVSPost2010PropOp54
 70
     1
102
RTVSPost2010Prop55
280
     0
102
RTVSPost2010PropOp55
 70
     1
102
RTVSPost2010Prop56
140
1.0
102
RTVSPost2010PropOp56
 70
     1
102
RTVSPost2010Prop57
140
1.0
102
RTVSPost2010PropOp57
 70
     1
102
RTVSPropertyOp0
 70
     1
102
RTVSPropertyOp1
 70
     1
102
RTVSPropertyOp2
 70
     1
102
RTVSPropertyOp3
 70
     1
102
RTVSPropertyOp4
 70
     1
102
RTVSPropertyOp5
 70
     1
102
RTVSPropertyOp6
 70
     1
102
RTVSPropertyOp7
 70
     1
102
RTVSPropertyOp8
 70
     1
102
RTVSPropertyOp9
 70
     1
102
RTVSPropertyOp10
 70
     1
102
RTVSPropertyOp11
 70
     1
102
RTVSPropertyOp12
 70
     1
102
RTVSPropertyOp13
 70
     1
102
RTVSPropertyOp14
 70
     1
102
RTVSPropertyOp15
 70
     1
102
RTVSPropertyOp16
 70
     1
102
RTVSPropertyOp17
 70
     1
102
RTVSPropertyOp18
 70
     1
102
RTVSPropertyOp19
 70
     1
102
RTVSPropertyOp20
 70
     1
102
RTVSPropertyOp21
 70
     1
102
RTVSPropertyOp22
 70
     1
102
RTVSPropertyOp23
 70
     1
102
RTVSPropertyOp24
 70
     1
102
RTVSPropertyOp25
 70
     1
102
RTVSPropertyOp26
 70
     1
102
RTVSPropertyOp27
 70
     1
102
RTVSPropertyOp28
 70
     1
102
RTVSPropertyOp29
 70
     1
102
RTVSPropertyOp30
 70
     1
102
RTVSPropertyOp31
 70
     1
102
RTVSPropertyOp32
 70
     1
102
RTVSPropertyOp33
 70
     1
102
RTVSPropertyOp34
 70
     1
102
RTVSPropertyOp35
 70
     1
102
RTVSPropertyOp36
 70
     1
102
RTVSPropertyOp37
 70
     1
102
RTVSPropertyOp38
 70
     1
102
RTVSPropertyOp39
 70
     1
102
RTVSPropertyOp40
 70
     1
102
RTVSPropertyOp41
 70
     1
102
RTVSPropertyOp42
 70
     1
102
RTVSPropertyOp43
 70
     1
102
RTVSPropertyOp44
 70
     1
102
RTVSPropertyOp45
 70
     1
102
RTVSPropertyOp46
 70
     1
102
RTVSPropertyOp47
 70
     1
102
RTVSPropertyOp48
 70
     1
102
RTVSPropertyOp49
 70
     1
102
RTVSPropertyOp50
 70
     1
102
RTVSPropertyOp51
 70
     0
102
RTVSPropertyOp52
 70
     0
102
RTVSPropertyOp53
 70
     1
102
RTVSPropertyOp54
 70
     1
102
RTVSPropertyOp55
 70
     1
102
RTVSPropertyOp56
 70
     1
102
RTVSPropertyOp57
 70
     1
102
RTVSPropertyOp58
 70
     1
102
RTVSPropertyOp59
 70
     1
102
RTVSPropertyOp60
 70
     1
102
RTVSPropertyOp61
 70
     1
102
RTVSPropertyOp62
 70
     1
  0
XRECORD
  5
143B
102
{ACAD_REACTORS
330
143A
102
}
330
143A
100
AcDbXrecord
280
     1
102
RTVSPost2010Prop28
280
     0
102
RTVSPost2010PropOp28
 70
     1
102
RTVSPost2010Prop29
280
     1
102
RTVSPost2010PropOp29
 70
     1
102
RTVSPost2010Prop30
280
     1
102
RTVSPost2010PropOp30
 70
     1
102
RTVSPost2010Prop31
280
     0
102
RTVSPost2010PropOp31
 70
     1
102
RTVSPost2010Prop32
280
     0
102
RTVSPost2010PropOp32
 70
     1
102
RTVSPost2010Prop33
280
     0
102
RTVSPost2010PropOp33
 70
     1
102
RTVSPost2010Prop34
280
     0
102
RTVSPost2010PropOp34
 70
     1
102
RTVSPost2010Prop35
280
     0
102
RTVSPost2010PropOp35
 70
     1
102
RTVSPost2010Prop36
280
     0
102
RTVSPost2010PropOp36
 70
     1
102
RTVSPost2010Prop37
 90
       50
102
RTVSPost2010PropOp37
 70
     1
102
RTVSPost2010Prop38
140
0.0
102
RTVSPost2010PropOp38
 70
     1
102
RTVSPost2010Prop39
140
1.0
102
RTVSPost2010PropOp39
 70
     1
102
RTVSPost2010Prop40
 90
        0
102
RTVSPost2010PropOp40
 70
     1
102
RTVSPost2010Prop41ColorIndex
 90
       18
102
RTVSPost2010Prop41ColorRGB
 90
        0
102
RTVSPost2010PropOp41
 70
     1
102
RTVSPost2010Prop42
 90
       50
102
RTVSPost2010PropOp42
 70
     1
102
RTVSPost2010Prop43
 90
        3
102
RTVSPost2010PropOp43
 70
     1
102
RTVSPost2010Prop44ColorIndex
 90
        5
102
RTVSPost2010Prop44ColorRGB
 90
      255
102
RTVSPost2010PropOp44
 70
     1
102
RTVSPost2010Prop45
280
     0
102
RTVSPost2010PropOp45
 70
     1
102
RTVSPost2010Prop46
 90
       50
102
RTVSPost2010PropOp46
 70
     1
102
RTVSPost2010Prop47
 90
       50
102
RTVSPost2010PropOp47
 70
     1
102
RTVSPost2010Prop48
 90
       50
102
RTVSPost2010PropOp48
 70
     1
102
RTVSPost2010Prop49
280
     0
102
RTVSPost2010PropOp49
 70
     1
102
RTVSPost2010Prop50
 90
       50
102
RTVSPost2010PropOp50
 70
     1
102
RTVSPost2010Prop51ColorIndex
 90
      256
102
RTVSPost2010Prop51ColorRGB
 90
-16777216
102
RTVSPost2010PropOp51
 70
     0
102
RTVSPost2010Prop52
140
1.0
102
RTVSPost2010PropOp52
 70
     0
102
RTVSPost2010Prop53
 90
        2
102
RTVSPost2010PropOp53
 70
     1
102
RTVSPost2010Prop54
  1
strokes_ogs.tif
102
RTVSPost2010PropOp54
 70
     1
102
RTVSPost2010Prop55
280
     0
102
RTVSPost2010PropOp55
 70
     1
102
RTVSPost2010Prop56
140
1.0
102
RTVSPost2010PropOp56
 70
     1
102
RTVSPost2010Prop57
140
1.0
102
RTVSPost2010PropOp57
 70
     1
102
RTVSPropertyOp0
 70
     1
102
RTVSPropertyOp1
 70
     1
102
RTVSPropertyOp2
 70
     1
102
RTVSPropertyOp3
 70
     1
102
RTVSPropertyOp4
 70
     1
102
RTVSPropertyOp5
 70
     1
102
RTVSPropertyOp6
 70
     1
102
RTVSPropertyOp7
 70
     1
102
RTVSPropertyOp8
 70
     1
102
RTVSPropertyOp9
 70
     1
102
RTVSPropertyOp10
 70
     1
102
RTVSPropertyOp11
 70
     1
102
RTVSPropertyOp12
 70
     1
102
RTVSPropertyOp13
 70
     1
102
RTVSPropertyOp14
 70
     1
102
RTVSPropertyOp15
 70
     1
102
RTVSPropertyOp16
 70
     1
102
RTVSPropertyOp17
 70
     1
102
RTVSPropertyOp18
 70
     1
102
RTVSPropertyOp19
 70
     1
102
RTVSPropertyOp20
 70
     1
102
RTVSPropertyOp21
 70
     1
102
RTVSPropertyOp22
 70
     1
102
RTVSPropertyOp23
 70
     1
102
RTVSPropertyOp24
 70
     1
102
RTVSPropertyOp25
 70
     1
102
RTVSPropertyOp26
 70
     1
102
RTVSPropertyOp27
 70
     1
102
RTVSPropertyOp28
 70
     1
102
RTVSPropertyOp29
 70
     1
102
RTVSPropertyOp30
 70
     1
102
RTVSPropertyOp31
 70
     1
102
RTVSPropertyOp32
 70
     1
102
RTVSPropertyOp33
 70
     1
102
RTVSPropertyOp34
 70
     1
102
RTVSPropertyOp35
 70
     1
102
RTVSPropertyOp36
 70
     1
102
RTVSPropertyOp37
 70
     1
102
RTVSPropertyOp38
 70
     1
102
RTVSPropertyOp39
 70
     1
102
RTVSPropertyOp40
 70
     1
102
RTVSPropertyOp41
 70
     1
102
RTVSPropertyOp42
 70
     1
102
RTVSPropertyOp43
 70
     1
102
RTVSPropertyOp44
 70
     1
102
RTVSPropertyOp45
 70
     1
102
RTVSPropertyOp46
 70
     1
102
RTVSPropertyOp47
 70
     1
102
RTVSPropertyOp48
 70
     1
102
RTVSPropertyOp49
 70
     1
102
RTVSPropertyOp50
 70
     1
102
RTVSPropertyOp51
 70
     0
102
RTVSPropertyOp52
 70
     0
102
RTVSPropertyOp53
 70
     1
102
RTVSPropertyOp54
 70
     1
102
RTVSPropertyOp55
 70
     1
102
RTVSPropertyOp56
 70
     1
102
RTVSPropertyOp57
 70
     1
102
RTVSPropertyOp58
 70
     1
102
RTVSPropertyOp59
 70
     1
102
RTVSPropertyOp60
 70
     1
102
RTVSPropertyOp61
 70
     1
102
RTVSPropertyOp62
 70
     1
  0
XRECORD
  5
143D
102
{ACAD_REACTORS
330
143C
102
}
330
143C
100
AcDbXrecord
280
     1
102
RTVSPost2010Prop28
280
     0
102
RTVSPost2010PropOp28
 70
     1
102
RTVSPost2010Prop29
280
     1
102
RTVSPost2010PropOp29
 70
     1
102
RTVSPost2010Prop30
280
     1
102
RTVSPost2010PropOp30
 70
     1
102
RTVSPost2010Prop31
280
     0
102
RTVSPost2010PropOp31
 70
     1
102
RTVSPost2010Prop32
280
     0
102
RTVSPost2010PropOp32
 70
     1
102
RTVSPost2010Prop33
280
     0
102
RTVSPost2010PropOp33
 70
     1
102
RTVSPost2010Prop34
280
     0
102
RTVSPost2010PropOp34
 70
     1
102
RTVSPost2010Prop35
280
     0
102
RTVSPost2010PropOp35
 70
     1
102
RTVSPost2010Prop36
280
     0
102
RTVSPost2010PropOp36
 70
     1
102
RTVSPost2010Prop37
 90
       50
102
RTVSPost2010PropOp37
 70
     1
102
RTVSPost2010Prop38
140
0.0
102
RTVSPost2010PropOp38
 70
     1
102
RTVSPost2010Prop39
140
1.0
102
RTVSPost2010PropOp39
 70
     1
102
RTVSPost2010Prop40
 90
        0
102
RTVSPost2010PropOp40
 70
     1
102
RTVSPost2010Prop41ColorIndex
 90
       18
102
RTVSPost2010Prop41ColorRGB
 90
        0
102
RTVSPost2010PropOp41
 70
     1
102
RTVSPost2010Prop42
 90
       50
102
RTVSPost2010PropOp42
 70
     1
102
RTVSPost2010Prop43
 90
        3
102
RTVSPost2010PropOp43
 70
     1
102
RTVSPost2010Prop44ColorIndex
 90
        5
102
RTVSPost2010Prop44ColorRGB
 90
      255
102
RTVSPost2010PropOp44
 70
     1
102
RTVSPost2010Prop45
280
     0
102
RTVSPost2010PropOp45
 70
     1
102
RTVSPost2010Prop46
 90
       50
102
RTVSPost2010PropOp46
 70
     1
102
RTVSPost2010Prop47
 90
       50
102
RTVSPost2010PropOp47
 70
     1
102
RTVSPost2010Prop48
 90
       50
102
RTVSPost2010PropOp48
 70
     1
102
RTVSPost2010Prop49
280
     0
102
RTVSPost2010PropOp49
 70
     1
102
RTVSPost2010Prop50
 90
       50
102
RTVSPost2010PropOp50
 70
     1
102
RTVSPost2010Prop51ColorIndex
 90
      256
102
RTVSPost2010Prop51ColorRGB
 90
-16777216
102
RTVSPost2010PropOp51
 70
     0
102
RTVSPost2010Prop52
140
1.0
102
RTVSPost2010PropOp52
 70
     0
102
RTVSPost2010Prop53
 90
        2
102
RTVSPost2010PropOp53
 70
     1
102
RTVSPost2010Prop54
  1
strokes_ogs.tif
102
RTVSPost2010PropOp54
 70
     1
102
RTVSPost2010Prop55
280
     0
102
RTVSPost2010PropOp55
 70
     1
102
RTVSPost2010Prop56
140
1.0
102
RTVSPost2010PropOp56
 70
     1
102
RTVSPost2010Prop57
140
1.0
102
RTVSPost2010PropOp57
 70
     1
102
RTVSPropertyOp0
 70
     1
102
RTVSPropertyOp1
 70
     1
102
RTVSPropertyOp2
 70
     1
102
RTVSPropertyOp3
 70
     1
102
RTVSPropertyOp4
 70
     1
102
RTVSPropertyOp5
 70
     1
102
RTVSPropertyOp6
 70
     1
102
RTVSPropertyOp7
 70
     1
102
RTVSPropertyOp8
 70
     1
102
RTVSPropertyOp9
 70
     1
102
RTVSPropertyOp10
 70
     1
102
RTVSPropertyOp11
 70
     1
102
RTVSPropertyOp12
 70
     1
102
RTVSPropertyOp13
 70
     1
102
RTVSPropertyOp14
 70
     1
102
RTVSPropertyOp15
 70
     1
102
RTVSPropertyOp16
 70
     1
102
RTVSPropertyOp17
 70
     1
102
RTVSPropertyOp18
 70
     1
102
RTVSPropertyOp19
 70
     1
102
RTVSPropertyOp20
 70
     1
102
RTVSPropertyOp21
 70
     1
102
RTVSPropertyOp22
 70
     1
102
RTVSPropertyOp23
 70
     1
102
RTVSPropertyOp24
 70
     1
102
RTVSPropertyOp25
 70
     1
102
RTVSPropertyOp26
 70
     1
102
RTVSPropertyOp27
 70
     1
102
RTVSPropertyOp28
 70
     1
102
RTVSPropertyOp29
 70
     1
102
RTVSPropertyOp30
 70
     1
102
RTVSPropertyOp31
 70
     1
102
RTVSPropertyOp32
 70
     1
102
RTVSPropertyOp33
 70
     1
102
RTVSPropertyOp34
 70
     1
102
RTVSPropertyOp35
 70
     1
102
RTVSPropertyOp36
 70
     1
102
RTVSPropertyOp37
 70
     1
102
RTVSPropertyOp38
 70
     1
102
RTVSPropertyOp39
 70
     1
102
RTVSPropertyOp40
 70
     1
102
RTVSPropertyOp41
 70
     1
102
RTVSPropertyOp42
 70
     1
102
RTVSPropertyOp43
 70
     1
102
RTVSPropertyOp44
 70
     1
102
RTVSPropertyOp45
 70
     1
102
RTVSPropertyOp46
 70
     1
102
RTVSPropertyOp47
 70
     1
102
RTVSPropertyOp48
 70
     1
102
RTVSPropertyOp49
 70
     1
102
RTVSPropertyOp50
 70
     1
102
RTVSPropertyOp51
 70
     0
102
RTVSPropertyOp52
 70
     0
102
RTVSPropertyOp53
 70
     1
102
RTVSPropertyOp54
 70
     1
102
RTVSPropertyOp55
 70
     1
102
RTVSPropertyOp56
 70
     1
102
RTVSPropertyOp57
 70
     1
102
RTVSPropertyOp58
 70
     1
102
RTVSPropertyOp59
 70
     1
102
RTVSPropertyOp60
 70
     1
102
RTVSPropertyOp61
 70
     1
102
RTVSPropertyOp62
 70
     1
  0
XRECORD
  5
143F
102
{ACAD_REACTORS
330
143E
102
}
330
143E
100
AcDbXrecord
280
     1
102
RTVSPost2010Prop28
280
     0
102
RTVSPost2010PropOp28
 70
     1
102
RTVSPost2010Prop29
280
     1
102
RTVSPost2010PropOp29
 70
     1
102
RTVSPost2010Prop30
280
     1
102
RTVSPost2010PropOp30
 70
     1
102
RTVSPost2010Prop31
280
     0
102
RTVSPost2010PropOp31
 70
     1
102
RTVSPost2010Prop32
280
     0
102
RTVSPost2010PropOp32
 70
     1
102
RTVSPost2010Prop33
280
     0
102
RTVSPost2010PropOp33
 70
     1
102
RTVSPost2010Prop34
280
     0
102
RTVSPost2010PropOp34
 70
     1
102
RTVSPost2010Prop35
280
     0
102
RTVSPost2010PropOp35
 70
     1
102
RTVSPost2010Prop36
280
     0
102
RTVSPost2010PropOp36
 70
     1
102
RTVSPost2010Prop37
 90
       50
102
RTVSPost2010PropOp37
 70
     1
102
RTVSPost2010Prop38
140
0.0
102
RTVSPost2010PropOp38
 70
     1
102
RTVSPost2010Prop39
140
1.0
102
RTVSPost2010PropOp39
 70
     1
102
RTVSPost2010Prop40
 90
        0
102
RTVSPost2010PropOp40
 70
     1
102
RTVSPost2010Prop41ColorIndex
 90
       18
102
RTVSPost2010Prop41ColorRGB
 90
        0
102
RTVSPost2010PropOp41
 70
     1
102
RTVSPost2010Prop42
 90
       50
102
RTVSPost2010PropOp42
 70
     1
102
RTVSPost2010Prop43
 90
        3
102
RTVSPost2010PropOp43
 70
     1
102
RTVSPost2010Prop44ColorIndex
 90
        5
102
RTVSPost2010Prop44ColorRGB
 90
      255
102
RTVSPost2010PropOp44
 70
     1
102
RTVSPost2010Prop45
280
     0
102
RTVSPost2010PropOp45
 70
     1
102
RTVSPost2010Prop46
 90
       50
102
RTVSPost2010PropOp46
 70
     1
102
RTVSPost2010Prop47
 90
       50
102
RTVSPost2010PropOp47
 70
     1
102
RTVSPost2010Prop48
 90
       50
102
RTVSPost2010PropOp48
 70
     1
102
RTVSPost2010Prop49
280
     0
102
RTVSPost2010PropOp49
 70
     1
102
RTVSPost2010Prop50
 90
       50
102
RTVSPost2010PropOp50
 70
     1
102
RTVSPost2010Prop51ColorIndex
 90
      256
102
RTVSPost2010Prop51ColorRGB
 90
-16777216
102
RTVSPost2010PropOp51
 70
     0
102
RTVSPost2010Prop52
140
1.0
102
RTVSPost2010PropOp52
 70
     0
102
RTVSPost2010Prop53
 90
        2
102
RTVSPost2010PropOp53
 70
     1
102
RTVSPost2010Prop54
  1
strokes_ogs.tif
102
RTVSPost2010PropOp54
 70
     1
102
RTVSPost2010Prop55
280
     0
102
RTVSPost2010PropOp55
 70
     1
102
RTVSPost2010Prop56
140
1.0
102
RTVSPost2010PropOp56
 70
     1
102
RTVSPost2010Prop57
140
1.0
102
RTVSPost2010PropOp57
 70
     1
102
RTVSPropertyOp0
 70
     1
102
RTVSPropertyOp1
 70
     1
102
RTVSPropertyOp2
 70
     1
102
RTVSPropertyOp3
 70
     1
102
RTVSPropertyOp4
 70
     1
102
RTVSPropertyOp5
 70
     1
102
RTVSPropertyOp6
 70
     1
102
RTVSPropertyOp7
 70
     1
102
RTVSPropertyOp8
 70
     1
102
RTVSPropertyOp9
 70
     1
102
RTVSPropertyOp10
 70
     1
102
RTVSPropertyOp11
 70
     1
102
RTVSPropertyOp12
 70
     1
102
RTVSPropertyOp13
 70
     1
102
RTVSPropertyOp14
 70
     1
102
RTVSPropertyOp15
 70
     1
102
RTVSPropertyOp16
 70
     1
102
RTVSPropertyOp17
 70
     1
102
RTVSPropertyOp18
 70
     1
102
RTVSPropertyOp19
 70
     1
102
RTVSPropertyOp20
 70
     1
102
RTVSPropertyOp21
 70
     1
102
RTVSPropertyOp22
 70
     1
102
RTVSPropertyOp23
 70
     1
102
RTVSPropertyOp24
 70
     1
102
RTVSPropertyOp25
 70
     1
102
RTVSPropertyOp26
 70
     1
102
RTVSPropertyOp27
 70
     1
102
RTVSPropertyOp28
 70
     1
102
RTVSPropertyOp29
 70
     1
102
RTVSPropertyOp30
 70
     1
102
RTVSPropertyOp31
 70
     1
102
RTVSPropertyOp32
 70
     1
102
RTVSPropertyOp33
 70
     1
102
RTVSPropertyOp34
 70
     1
102
RTVSPropertyOp35
 70
     1
102
RTVSPropertyOp36
 70
     1
102
RTVSPropertyOp37
 70
     1
102
RTVSPropertyOp38
 70
     1
102
RTVSPropertyOp39
 70
     1
102
RTVSPropertyOp40
 70
     1
102
RTVSPropertyOp41
 70
     1
102
RTVSPropertyOp42
 70
     1
102
RTVSPropertyOp43
 70
     1
102
RTVSPropertyOp44
 70
     1
102
RTVSPropertyOp45
 70
     1
102
RTVSPropertyOp46
 70
     1
102
RTVSPropertyOp47
 70
     1
102
RTVSPropertyOp48
 70
     1
102
RTVSPropertyOp49
 70
     1
102
RTVSPropertyOp50
 70
     1
102
RTVSPropertyOp51
 70
     0
102
RTVSPropertyOp52
 70
     0
102
RTVSPropertyOp53
 70
     1
102
RTVSPropertyOp54
 70
     1
102
RTVSPropertyOp55
 70
     1
102
RTVSPropertyOp56
 70
     1
102
RTVSPropertyOp57
 70
     1
102
RTVSPropertyOp58
 70
     1
102
RTVSPropertyOp59
 70
     1
102
RTVSPropertyOp60
 70
     1
102
RTVSPropertyOp61
 70
     1
102
RTVSPropertyOp62
 70
     1
  0
XRECORD
  5
1441
102
{ACAD_REACTORS
330
1440
102
}
330
1440
100
AcDbXrecord
280
     1
102
RTVSPost2010Prop28
280
     0
102
RTVSPost2010PropOp28
 70
     1
102
RTVSPost2010Prop29
280
     1
102
RTVSPost2010PropOp29
 70
     1
102
RTVSPost2010Prop30
280
     1
102
RTVSPost2010PropOp30
 70
     1
102
RTVSPost2010Prop31
280
     0
102
RTVSPost2010PropOp31
 70
     1
102
RTVSPost2010Prop32
280
     0
102
RTVSPost2010PropOp32
 70
     1
102
RTVSPost2010Prop33
280
     0
102
RTVSPost2010PropOp33
 70
     1
102
RTVSPost2010Prop34
280
     0
102
RTVSPost2010PropOp34
 70
     1
102
RTVSPost2010Prop35
280
     0
102
RTVSPost2010PropOp35
 70
     1
102
RTVSPost2010Prop36
280
     0
102
RTVSPost2010PropOp36
 70
     1
102
RTVSPost2010Prop37
 90
       50
102
RTVSPost2010PropOp37
 70
     1
102
RTVSPost2010Prop38
140
0.0
102
RTVSPost2010PropOp38
 70
     1
102
RTVSPost2010Prop39
140
1.0
102
RTVSPost2010PropOp39
 70
     1
102
RTVSPost2010Prop40
 90
        0
102
RTVSPost2010PropOp40
 70
     1
102
RTVSPost2010Prop41ColorIndex
 90
       18
102
RTVSPost2010Prop41ColorRGB
 90
        0
102
RTVSPost2010PropOp41
 70
     1
102
RTVSPost2010Prop42
 90
       50
102
RTVSPost2010PropOp42
 70
     1
102
RTVSPost2010Prop43
 90
        3
102
RTVSPost2010PropOp43
 70
     1
102
RTVSPost2010Prop44ColorIndex
 90
        5
102
RTVSPost2010Prop44ColorRGB
 90
      255
102
RTVSPost2010PropOp44
 70
     1
102
RTVSPost2010Prop45
280
     0
102
RTVSPost2010PropOp45
 70
     1
102
RTVSPost2010Prop46
 90
       50
102
RTVSPost2010PropOp46
 70
     1
102
RTVSPost2010Prop47
 90
       50
102
RTVSPost2010PropOp47
 70
     1
102
RTVSPost2010Prop48
 90
       50
102
RTVSPost2010PropOp48
 70
     1
102
RTVSPost2010Prop49
280
     0
102
RTVSPost2010PropOp49
 70
     1
102
RTVSPost2010Prop50
 90
       50
102
RTVSPost2010PropOp50
 70
     1
102
RTVSPost2010Prop51ColorIndex
 90
      256
102
RTVSPost2010Prop51ColorRGB
 90
-16777216
102
RTVSPost2010PropOp51
 70
     0
102
RTVSPost2010Prop52
140
1.0
102
RTVSPost2010PropOp52
 70
     0
102
RTVSPost2010Prop53
 90
        2
102
RTVSPost2010PropOp53
 70
     1
102
RTVSPost2010Prop54
  1
strokes_ogs.tif
102
RTVSPost2010PropOp54
 70
     1
102
RTVSPost2010Prop55
280
     0
102
RTVSPost2010PropOp55
 70
     1
102
RTVSPost2010Prop56
140
1.0
102
RTVSPost2010PropOp56
 70
     1
102
RTVSPost2010Prop57
140
1.0
102
RTVSPost2010PropOp57
 70
     1
102
RTVSPropertyOp0
 70
     1
102
RTVSPropertyOp1
 70
     1
102
RTVSPropertyOp2
 70
     1
102
RTVSPropertyOp3
 70
     1
102
RTVSPropertyOp4
 70
     1
102
RTVSPropertyOp5
 70
     1
102
RTVSPropertyOp6
 70
     1
102
RTVSPropertyOp7
 70
     1
102
RTVSPropertyOp8
 70
     1
102
RTVSPropertyOp9
 70
     1
102
RTVSPropertyOp10
 70
     1
102
RTVSPropertyOp11
 70
     1
102
RTVSPropertyOp12
 70
     1
102
RTVSPropertyOp13
 70
     1
102
RTVSPropertyOp14
 70
     1
102
RTVSPropertyOp15
 70
     1
102
RTVSPropertyOp16
 70
     1
102
RTVSPropertyOp17
 70
     1
102
RTVSPropertyOp18
 70
     1
102
RTVSPropertyOp19
 70
     1
102
RTVSPropertyOp20
 70
     1
102
RTVSPropertyOp21
 70
     1
102
RTVSPropertyOp22
 70
     1
102
RTVSPropertyOp23
 70
     1
102
RTVSPropertyOp24
 70
     1
102
RTVSPropertyOp25
 70
     1
102
RTVSPropertyOp26
 70
     1
102
RTVSPropertyOp27
 70
     1
102
RTVSPropertyOp28
 70
     1
102
RTVSPropertyOp29
 70
     1
102
RTVSPropertyOp30
 70
     1
102
RTVSPropertyOp31
 70
     1
102
RTVSPropertyOp32
 70
     1
102
RTVSPropertyOp33
 70
     1
102
RTVSPropertyOp34
 70
     1
102
RTVSPropertyOp35
 70
     1
102
RTVSPropertyOp36
 70
     1
102
RTVSPropertyOp37
 70
     1
102
RTVSPropertyOp38
 70
     1
102
RTVSPropertyOp39
 70
     1
102
RTVSPropertyOp40
 70
     1
102
RTVSPropertyOp41
 70
     1
102
RTVSPropertyOp42
 70
     1
102
RTVSPropertyOp43
 70
     1
102
RTVSPropertyOp44
 70
     1
102
RTVSPropertyOp45
 70
     1
102
RTVSPropertyOp46
 70
     1
102
RTVSPropertyOp47
 70
     1
102
RTVSPropertyOp48
 70
     1
102
RTVSPropertyOp49
 70
     1
102
RTVSPropertyOp50
 70
     1
102
RTVSPropertyOp51
 70
     0
102
RTVSPropertyOp52
 70
     0
102
RTVSPropertyOp53
 70
     1
102
RTVSPropertyOp54
 70
     1
102
RTVSPropertyOp55
 70
     1
102
RTVSPropertyOp56
 70
     1
102
RTVSPropertyOp57
 70
     1
102
RTVSPropertyOp58
 70
     1
102
RTVSPropertyOp59
 70
     1
102
RTVSPropertyOp60
 70
     1
102
RTVSPropertyOp61
 70
     1
102
RTVSPropertyOp62
 70
     1
  0
XRECORD
  5
1449
102
{ACAD_REACTORS
330
1448
102
}
330
1448
100
AcDbXrecord
280
     1
102
RTVSPost2010Prop28
280
     0
102
RTVSPost2010PropOp28
 70
     1
102
RTVSPost2010Prop29
280
     1
102
RTVSPost2010PropOp29
 70
     1
102
RTVSPost2010Prop30
280
     1
102
RTVSPost2010PropOp30
 70
     1
102
RTVSPost2010Prop31
280
     0
102
RTVSPost2010PropOp31
 70
     1
102
RTVSPost2010Prop32
280
     0
102
RTVSPost2010PropOp32
 70
     1
102
RTVSPost2010Prop33
280
     0
102
RTVSPost2010PropOp33
 70
     1
102
RTVSPost2010Prop34
280
     0
102
RTVSPost2010PropOp34
 70
     1
102
RTVSPost2010Prop35
280
     0
102
RTVSPost2010PropOp35
 70
     1
102
RTVSPost2010Prop36
280
     0
102
RTVSPost2010PropOp36
 70
     1
102
RTVSPost2010Prop37
 90
       50
102
RTVSPost2010PropOp37
 70
     1
102
RTVSPost2010Prop38
140
0.0
102
RTVSPost2010PropOp38
 70
     1
102
RTVSPost2010Prop39
140
1.0
102
RTVSPost2010PropOp39
 70
     1
102
RTVSPost2010Prop40
 90
        0
102
RTVSPost2010PropOp40
 70
     1
102
RTVSPost2010Prop41ColorIndex
 90
       18
102
RTVSPost2010Prop41ColorRGB
 90
        0
102
RTVSPost2010PropOp41
 70
     1
102
RTVSPost2010Prop42
 90
       50
102
RTVSPost2010PropOp42
 70
     1
102
RTVSPost2010Prop43
 90
        3
102
RTVSPost2010PropOp43
 70
     1
102
RTVSPost2010Prop44ColorIndex
 90
        5
102
RTVSPost2010Prop44ColorRGB
 90
      255
102
RTVSPost2010PropOp44
 70
     1
102
RTVSPost2010Prop45
280
     0
102
RTVSPost2010PropOp45
 70
     1
102
RTVSPost2010Prop46
 90
       50
102
RTVSPost2010PropOp46
 70
     1
102
RTVSPost2010Prop47
 90
       50
102
RTVSPost2010PropOp47
 70
     1
102
RTVSPost2010Prop48
 90
       50
102
RTVSPost2010PropOp48
 70
     1
102
RTVSPost2010Prop49
280
     0
102
RTVSPost2010PropOp49
 70
     1
102
RTVSPost2010Prop50
 90
       50
102
RTVSPost2010PropOp50
 70
     1
102
RTVSPost2010Prop51ColorIndex
 90
      256
102
RTVSPost2010Prop51ColorRGB
 90
-16777216
102
RTVSPost2010PropOp51
 70
     0
102
RTVSPost2010Prop52
140
1.0
102
RTVSPost2010PropOp52
 70
     0
102
RTVSPost2010Prop53
 90
        2
102
RTVSPost2010PropOp53
 70
     1
102
RTVSPost2010Prop54
  1
strokes_ogs.tif
102
RTVSPost2010PropOp54
 70
     1
102
RTVSPost2010Prop55
280
     0
102
RTVSPost2010PropOp55
 70
     1
102
RTVSPost2010Prop56
140
1.0
102
RTVSPost2010PropOp56
 70
     1
102
RTVSPost2010Prop57
140
1.0
102
RTVSPost2010PropOp57
 70
     1
102
RTVSPropertyOp0
 70
     1
102
RTVSPropertyOp1
 70
     1
102
RTVSPropertyOp2
 70
     1
102
RTVSPropertyOp3
 70
     1
102
RTVSPropertyOp4
 70
     1
102
RTVSPropertyOp5
 70
     1
102
RTVSPropertyOp6
 70
     1
102
RTVSPropertyOp7
 70
     1
102
RTVSPropertyOp8
 70
     1
102
RTVSPropertyOp9
 70
     1
102
RTVSPropertyOp10
 70
     1
102
RTVSPropertyOp11
 70
     1
102
RTVSPropertyOp12
 70
     1
102
RTVSPropertyOp13
 70
     1
102
RTVSPropertyOp14
 70
     1
102
RTVSPropertyOp15
 70
     1
102
RTVSPropertyOp16
 70
     1
102
RTVSPropertyOp17
 70
     1
102
RTVSPropertyOp18
 70
     1
102
RTVSPropertyOp19
 70
     1
102
RTVSPropertyOp20
 70
     1
102
RTVSPropertyOp21
 70
     1
102
RTVSPropertyOp22
 70
     1
102
RTVSPropertyOp23
 70
     1
102
RTVSPropertyOp24
 70
     1
102
RTVSPropertyOp25
 70
     1
102
RTVSPropertyOp26
 70
     1
102
RTVSPropertyOp27
 70
     1
102
RTVSPropertyOp28
 70
     1
102
RTVSPropertyOp29
 70
     1
102
RTVSPropertyOp30
 70
     1
102
RTVSPropertyOp31
 70
     1
102
RTVSPropertyOp32
 70
     1
102
RTVSPropertyOp33
 70
     1
102
RTVSPropertyOp34
 70
     1
102
RTVSPropertyOp35
 70
     1
102
RTVSPropertyOp36
 70
     1
102
RTVSPropertyOp37
 70
     1
102
RTVSPropertyOp38
 70
     1
102
RTVSPropertyOp39
 70
     1
102
RTVSPropertyOp40
 70
     1
102
RTVSPropertyOp41
 70
     1
102
RTVSPropertyOp42
 70
     1
102
RTVSPropertyOp43
 70
     1
102
RTVSPropertyOp44
 70
     1
102
RTVSPropertyOp45
 70
     1
102
RTVSPropertyOp46
 70
     1
102
RTVSPropertyOp47
 70
     1
102
RTVSPropertyOp48
 70
     1
102
RTVSPropertyOp49
 70
     1
102
RTVSPropertyOp50
 70
     1
102
RTVSPropertyOp51
 70
     0
102
RTVSPropertyOp52
 70
     0
102
RTVSPropertyOp53
 70
     1
102
RTVSPropertyOp54
 70
     1
102
RTVSPropertyOp55
 70
     1
102
RTVSPropertyOp56
 70
     1
102
RTVSPropertyOp57
 70
     1
102
RTVSPropertyOp58
 70
     1
102
RTVSPropertyOp59
 70
     1
102
RTVSPropertyOp60
 70
     1
102
RTVSPropertyOp61
 70
     1
102
RTVSPropertyOp62
 70
     1
  0
XRECORD
  5
1465
102
{ACAD_REACTORS
330
1464
102
}
330
1464
100
AcDbXrecord
280
     1
102
RTVSPost2010Prop28
280
     0
102
RTVSPost2010PropOp28
 70
     1
102
RTVSPost2010Prop29
280
     1
102
RTVSPost2010PropOp29
 70
     1
102
RTVSPost2010Prop30
280
     1
102
RTVSPost2010PropOp30
 70
     1
102
RTVSPost2010Prop31
280
     0
102
RTVSPost2010PropOp31
 70
     1
102
RTVSPost2010Prop32
280
     0
102
RTVSPost2010PropOp32
 70
     1
102
RTVSPost2010Prop33
280
     0
102
RTVSPost2010PropOp33
 70
     1
102
RTVSPost2010Prop34
280
     0
102
RTVSPost2010PropOp34
 70
     1
102
RTVSPost2010Prop35
280
     0
102
RTVSPost2010PropOp35
 70
     1
102
RTVSPost2010Prop36
280
     0
102
RTVSPost2010PropOp36
 70
     1
102
RTVSPost2010Prop37
 90
       50
102
RTVSPost2010PropOp37
 70
     0
102
RTVSPost2010Prop38
140
0.0
102
RTVSPost2010PropOp38
 70
     0
102
RTVSPost2010Prop39
140
1.0
102
RTVSPost2010PropOp39
 70
     0
102
RTVSPost2010Prop40
 90
        0
102
RTVSPost2010PropOp40
 70
     0
102
RTVSPost2010Prop41ColorIndex
 90
       18
102
RTVSPost2010Prop41ColorRGB
 90
        0
102
RTVSPost2010PropOp41
 70
     0
102
RTVSPost2010Prop42
 90
       50
102
RTVSPost2010PropOp42
 70
     0
102
RTVSPost2010Prop43
 90
        3
102
RTVSPost2010PropOp43
 70
     0
102
RTVSPost2010Prop44ColorIndex
 90
        5
102
RTVSPost2010Prop44ColorRGB
 90
      255
102
RTVSPost2010PropOp44
 70
     0
102
RTVSPost2010Prop45
280
     0
102
RTVSPost2010PropOp45
 70
     1
102
RTVSPost2010Prop46
 90
       50
102
RTVSPost2010PropOp46
 70
     0
102
RTVSPost2010Prop47
 90
       50
102
RTVSPost2010PropOp47
 70
     0
102
RTVSPost2010Prop48
 90
       50
102
RTVSPost2010PropOp48
 70
     0
102
RTVSPost2010Prop49
280
     0
102
RTVSPost2010PropOp49
 70
     1
102
RTVSPost2010Prop50
 90
       50
102
RTVSPost2010PropOp50
 70
     0
102
RTVSPost2010Prop51ColorIndex
 90
      256
102
RTVSPost2010Prop51ColorRGB
 90
-16777216
102
RTVSPost2010PropOp51
 70
     0
102
RTVSPost2010Prop52
140
1.0
102
RTVSPost2010PropOp52
 70
     0
102
RTVSPost2010Prop53
 90
        2
102
RTVSPost2010PropOp53
 70
     0
102
RTVSPost2010Prop54
  1
strokes_ogs.tif
102
RTVSPost2010PropOp54
 70
     0
102
RTVSPost2010Prop55
280
     0
102
RTVSPost2010PropOp55
 70
     1
102
RTVSPost2010Prop56
140
1.0
102
RTVSPost2010PropOp56
 70
     0
102
RTVSPost2010Prop57
140
1.0
102
RTVSPost2010PropOp57
 70
     0
102
RTVSPropertyOp0
 70
     0
102
RTVSPropertyOp1
 70
     0
102
RTVSPropertyOp2
 70
     0
102
RTVSPropertyOp3
 70
     0
102
RTVSPropertyOp4
 70
     0
102
RTVSPropertyOp5
 70
     0
102
RTVSPropertyOp6
 70
     0
102
RTVSPropertyOp7
 70
     0
102
RTVSPropertyOp8
 70
     0
102
RTVSPropertyOp9
 70
     0
102
RTVSPropertyOp10
 70
     0
102
RTVSPropertyOp11
 70
     0
102
RTVSPropertyOp12
 70
     0
102
RTVSPropertyOp13
 70
     0
102
RTVSPropertyOp14
 70
     2
102
RTVSPropertyOp15
 70
     0
102
RTVSPropertyOp16
 70
     0
102
RTVSPropertyOp17
 70
     0
102
RTVSPropertyOp18
 70
     0
102
RTVSPropertyOp19
 70
     0
102
RTVSPropertyOp20
 70
     0
102
RTVSPropertyOp21
 70
     0
102
RTVSPropertyOp22
 70
     0
102
RTVSPropertyOp23
 70
     0
102
RTVSPropertyOp24
 70
     0
102
RTVSPropertyOp25
 70
     0
102
RTVSPropertyOp26
 70
     0
102
RTVSPropertyOp27
 70
     0
102
RTVSPropertyOp28
 70
     1
102
RTVSPropertyOp29
 70
     1
102
RTVSPropertyOp30
 70
     1
102
RTVSPropertyOp31
 70
     1
102
RTVSPropertyOp32
 70
     1
102
RTVSPropertyOp33
 70
     1
102
RTVSPropertyOp34
 70
     1
102
RTVSPropertyOp35
 70
     1
102
RTVSPropertyOp36
 70
     1
102
RTVSPropertyOp37
 70
     0
102
RTVSPropertyOp38
 70
     0
102
RTVSPropertyOp39
 70
     0
102
RTVSPropertyOp40
 70
     0
102
RTVSPropertyOp41
 70
     0
102
RTVSPropertyOp42
 70
     0
102
RTVSPropertyOp43
 70
     0
102
RTVSPropertyOp44
 70
     0
102
RTVSPropertyOp45
 70
     1
102
RTVSPropertyOp46
 70
     0
102
RTVSPropertyOp47
 70
     0
102
RTVSPropertyOp48
 70
     0
102
RTVSPropertyOp49
 70
     1
102
RTVSPropertyOp50
 70
     0
102
RTVSPropertyOp51
 70
     0
102
RTVSPropertyOp52
 70
     0
102
RTVSPropertyOp53
 70
     0
102
RTVSPropertyOp54
 70
     0
102
RTVSPropertyOp55
 70
     1
102
RTVSPropertyOp56
 70
     0
102
RTVSPropertyOp57
 70
     0
102
RTVSPropertyOp58
 70
     0
102
RTVSPropertyOp59
 70
     0
102
RTVSPropertyOp60
 70
     0
102
RTVSPropertyOp61
 70
     0
102
RTVSPropertyOp62
 70
     0
  0
XRECORD
  5
1455
102
{ACAD_REACTORS
330
1454
102
}
330
1454
100
AcDbXrecord
280
     1
102
RTVSPost2010Prop28
280
     0
102
RTVSPost2010PropOp28
 70
     1
102
RTVSPost2010Prop29
280
     1
102
RTVSPost2010PropOp29
 70
     1
102
RTVSPost2010Prop30
280
     1
102
RTVSPost2010PropOp30
 70
     1
102
RTVSPost2010Prop31
280
     0
102
RTVSPost2010PropOp31
 70
     1
102
RTVSPost2010Prop32
280
     0
102
RTVSPost2010PropOp32
 70
     1
102
RTVSPost2010Prop33
280
     0
102
RTVSPost2010PropOp33
 70
     1
102
RTVSPost2010Prop34
280
     0
102
RTVSPost2010PropOp34
 70
     1
102
RTVSPost2010Prop35
280
     0
102
RTVSPost2010PropOp35
 70
     1
102
RTVSPost2010Prop36
280
     0
102
RTVSPost2010PropOp36
 70
     1
102
RTVSPost2010Prop37
 90
       50
102
RTVSPost2010PropOp37
 70
     1
102
RTVSPost2010Prop38
140
0.0
102
RTVSPost2010PropOp38
 70
     1
102
RTVSPost2010Prop39
140
1.0
102
RTVSPost2010PropOp39
 70
     1
102
RTVSPost2010Prop40
 90
        0
102
RTVSPost2010PropOp40
 70
     1
102
RTVSPost2010Prop41ColorIndex
 90
       18
102
RTVSPost2010Prop41ColorRGB
 90
        0
102
RTVSPost2010PropOp41
 70
     1
102
RTVSPost2010Prop42
 90
       50
102
RTVSPost2010PropOp42
 70
     1
102
RTVSPost2010Prop43
 90
        3
102
RTVSPost2010PropOp43
 70
     1
102
RTVSPost2010Prop44ColorIndex
 90
        5
102
RTVSPost2010Prop44ColorRGB
 90
      255
102
RTVSPost2010PropOp44
 70
     1
102
RTVSPost2010Prop45
280
     0
102
RTVSPost2010PropOp45
 70
     1
102
RTVSPost2010Prop46
 90
       50
102
RTVSPost2010PropOp46
 70
     1
102
RTVSPost2010Prop47
 90
       50
102
RTVSPost2010PropOp47
 70
     1
102
RTVSPost2010Prop48
 90
       50
102
RTVSPost2010PropOp48
 70
     1
102
RTVSPost2010Prop49
280
     0
102
RTVSPost2010PropOp49
 70
     1
102
RTVSPost2010Prop50
 90
       50
102
RTVSPost2010PropOp50
 70
     1
102
RTVSPost2010Prop51ColorIndex
 90
      256
102
RTVSPost2010Prop51ColorRGB
 90
-16777216
102
RTVSPost2010PropOp51
 70
     0
102
RTVSPost2010Prop52
140
1.0
102
RTVSPost2010PropOp52
 70
     0
102
RTVSPost2010Prop53
 90
        2
102
RTVSPost2010PropOp53
 70
     1
102
RTVSPost2010Prop54
  1
strokes_ogs.tif
102
RTVSPost2010PropOp54
 70
     1
102
RTVSPost2010Prop55
280
     0
102
RTVSPost2010PropOp55
 70
     1
102
RTVSPost2010Prop56
140
1.0
102
RTVSPost2010PropOp56
 70
     1
102
RTVSPost2010Prop57
140
1.0
102
RTVSPost2010PropOp57
 70
     1
102
RTVSPropertyOp0
 70
     1
102
RTVSPropertyOp1
 70
     1
102
RTVSPropertyOp2
 70
     1
102
RTVSPropertyOp3
 70
     1
102
RTVSPropertyOp4
 70
     1
102
RTVSPropertyOp5
 70
     1
102
RTVSPropertyOp6
 70
     1
102
RTVSPropertyOp7
 70
     1
102
RTVSPropertyOp8
 70
     1
102
RTVSPropertyOp9
 70
     1
102
RTVSPropertyOp10
 70
     1
102
RTVSPropertyOp11
 70
     1
102
RTVSPropertyOp12
 70
     1
102
RTVSPropertyOp13
 70
     1
102
RTVSPropertyOp14
 70
     1
102
RTVSPropertyOp15
 70
     1
102
RTVSPropertyOp16
 70
     1
102
RTVSPropertyOp17
 70
     1
102
RTVSPropertyOp18
 70
     1
102
RTVSPropertyOp19
 70
     1
102
RTVSPropertyOp20
 70
     1
102
RTVSPropertyOp21
 70
     1
102
RTVSPropertyOp22
 70
     1
102
RTVSPropertyOp23
 70
     1
102
RTVSPropertyOp24
 70
     1
102
RTVSPropertyOp25
 70
     1
102
RTVSPropertyOp26
 70
     1
102
RTVSPropertyOp27
 70
     1
102
RTVSPropertyOp28
 70
     1
102
RTVSPropertyOp29
 70
     1
102
RTVSPropertyOp30
 70
     1
102
RTVSPropertyOp31
 70
     1
102
RTVSPropertyOp32
 70
     1
102
RTVSPropertyOp33
 70
     1
102
RTVSPropertyOp34
 70
     1
102
RTVSPropertyOp35
 70
     1
102
RTVSPropertyOp36
 70
     1
102
RTVSPropertyOp37
 70
     1
102
RTVSPropertyOp38
 70
     1
102
RTVSPropertyOp39
 70
     1
102
RTVSPropertyOp40
 70
     1
102
RTVSPropertyOp41
 70
     1
102
RTVSPropertyOp42
 70
     1
102
RTVSPropertyOp43
 70
     1
102
RTVSPropertyOp44
 70
     1
102
RTVSPropertyOp45
 70
     1
102
RTVSPropertyOp46
 70
     1
102
RTVSPropertyOp47
 70
     1
102
RTVSPropertyOp48
 70
     1
102
RTVSPropertyOp49
 70
     1
102
RTVSPropertyOp50
 70
     1
102
RTVSPropertyOp51
 70
     0
102
RTVSPropertyOp52
 70
     0
102
RTVSPropertyOp53
 70
     1
102
RTVSPropertyOp54
 70
     1
102
RTVSPropertyOp55
 70
     1
102
RTVSPropertyOp56
 70
     1
102
RTVSPropertyOp57
 70
     1
102
RTVSPropertyOp58
 70
     1
102
RTVSPropertyOp59
 70
     1
102
RTVSPropertyOp60
 70
     1
102
RTVSPropertyOp61
 70
     1
102
RTVSPropertyOp62
 70
     1
  0
XRECORD
  5
1467
102
{ACAD_REACTORS
330
1466
102
}
330
1466
100
AcDbXrecord
280
     1
102
RTVSPost2010Prop28
280
     0
102
RTVSPost2010PropOp28
 70
     1
102
RTVSPost2010Prop29
280
     1
102
RTVSPost2010PropOp29
 70
     1
102
RTVSPost2010Prop30
280
     1
102
RTVSPost2010PropOp30
 70
     1
102
RTVSPost2010Prop31
280
     0
102
RTVSPost2010PropOp31
 70
     1
102
RTVSPost2010Prop32
280
     0
102
RTVSPost2010PropOp32
 70
     1
102
RTVSPost2010Prop33
280
     0
102
RTVSPost2010PropOp33
 70
     1
102
RTVSPost2010Prop34
280
     0
102
RTVSPost2010PropOp34
 70
     1
102
RTVSPost2010Prop35
280
     0
102
RTVSPost2010PropOp35
 70
     1
102
RTVSPost2010Prop36
280
     0
102
RTVSPost2010PropOp36
 70
     1
102
RTVSPost2010Prop37
 90
       50
102
RTVSPost2010PropOp37
 70
     0
102
RTVSPost2010Prop38
140
0.0
102
RTVSPost2010PropOp38
 70
     0
102
RTVSPost2010Prop39
140
1.0
102
RTVSPost2010PropOp39
 70
     0
102
RTVSPost2010Prop40
 90
        0
102
RTVSPost2010PropOp40
 70
     0
102
RTVSPost2010Prop41ColorIndex
 90
       18
102
RTVSPost2010Prop41ColorRGB
 90
        0
102
RTVSPost2010PropOp41
 70
     0
102
RTVSPost2010Prop42
 90
       50
102
RTVSPost2010PropOp42
 70
     0
102
RTVSPost2010Prop43
 90
        3
102
RTVSPost2010PropOp43
 70
     0
102
RTVSPost2010Prop44ColorIndex
 90
        5
102
RTVSPost2010Prop44ColorRGB
 90
      255
102
RTVSPost2010PropOp44
 70
     0
102
RTVSPost2010Prop45
280
     0
102
RTVSPost2010PropOp45
 70
     1
102
RTVSPost2010Prop46
 90
       50
102
RTVSPost2010PropOp46
 70
     0
102
RTVSPost2010Prop47
 90
       50
102
RTVSPost2010PropOp47
 70
     0
102
RTVSPost2010Prop48
 90
       50
102
RTVSPost2010PropOp48
 70
     0
102
RTVSPost2010Prop49
280
     0
102
RTVSPost2010PropOp49
 70
     1
102
RTVSPost2010Prop50
 90
       50
102
RTVSPost2010PropOp50
 70
     0
102
RTVSPost2010Prop51ColorIndex
 90
      256
102
RTVSPost2010Prop51ColorRGB
 90
-16777216
102
RTVSPost2010PropOp51
 70
     0
102
RTVSPost2010Prop52
140
1.0
102
RTVSPost2010PropOp52
 70
     0
102
RTVSPost2010Prop53
 90
        2
102
RTVSPost2010PropOp53
 70
     0
102
RTVSPost2010Prop54
  1
strokes_ogs.tif
102
RTVSPost2010PropOp54
 70
     0
102
RTVSPost2010Prop55
280
     0
102
RTVSPost2010PropOp55
 70
     1
102
RTVSPost2010Prop56
140
1.0
102
RTVSPost2010PropOp56
 70
     0
102
RTVSPost2010Prop57
140
1.0
102
RTVSPost2010PropOp57
 70
     0
102
RTVSPropertyOp0
 70
     0
102
RTVSPropertyOp1
 70
     0
102
RTVSPropertyOp2
 70
     0
102
RTVSPropertyOp3
 70
     0
102
RTVSPropertyOp4
 70
     0
102
RTVSPropertyOp5
 70
     0
102
RTVSPropertyOp6
 70
     0
102
RTVSPropertyOp7
 70
     0
102
RTVSPropertyOp8
 70
     0
102
RTVSPropertyOp9
 70
     0
102
RTVSPropertyOp10
 70
     0
102
RTVSPropertyOp11
 70
     0
102
RTVSPropertyOp12
 70
     0
102
RTVSPropertyOp13
 70
     0
102
RTVSPropertyOp14
 70
     2
102
RTVSPropertyOp15
 70
     0
102
RTVSPropertyOp16
 70
     0
102
RTVSPropertyOp17
 70
     0
102
RTVSPropertyOp18
 70
     0
102
RTVSPropertyOp19
 70
     0
102
RTVSPropertyOp20
 70
     0
102
RTVSPropertyOp21
 70
     0
102
RTVSPropertyOp22
 70
     0
102
RTVSPropertyOp23
 70
     0
102
RTVSPropertyOp24
 70
     0
102
RTVSPropertyOp25
 70
     0
102
RTVSPropertyOp26
 70
     0
102
RTVSPropertyOp27
 70
     0
102
RTVSPropertyOp28
 70
     1
102
RTVSPropertyOp29
 70
     1
102
RTVSPropertyOp30
 70
     1
102
RTVSPropertyOp31
 70
     1
102
RTVSPropertyOp32
 70
     1
102
RTVSPropertyOp33
 70
     1
102
RTVSPropertyOp34
 70
     1
102
RTVSPropertyOp35
 70
     1
102
RTVSPropertyOp36
 70
     1
102
RTVSPropertyOp37
 70
     0
102
RTVSPropertyOp38
 70
     0
102
RTVSPropertyOp39
 70
     0
102
RTVSPropertyOp40
 70
     0
102
RTVSPropertyOp41
 70
     0
102
RTVSPropertyOp42
 70
     0
102
RTVSPropertyOp43
 70
     0
102
RTVSPropertyOp44
 70
     0
102
RTVSPropertyOp45
 70
     1
102
RTVSPropertyOp46
 70
     0
102
RTVSPropertyOp47
 70
     0
102
RTVSPropertyOp48
 70
     0
102
RTVSPropertyOp49
 70
     1
102
RTVSPropertyOp50
 70
     0
102
RTVSPropertyOp51
 70
     0
102
RTVSPropertyOp52
 70
     0
102
RTVSPropertyOp53
 70
     0
102
RTVSPropertyOp54
 70
     0
102
RTVSPropertyOp55
 70
     1
102
RTVSPropertyOp56
 70
     0
102
RTVSPropertyOp57
 70
     0
102
RTVSPropertyOp58
 70
     0
102
RTVSPropertyOp59
 70
     0
102
RTVSPropertyOp60
 70
     0
102
RTVSPropertyOp61
 70
     0
102
RTVSPropertyOp62
 70
     0
  0
XRECORD
  5
144D
102
{ACAD_REACTORS
330
144C
102
}
330
144C
100
AcDbXrecord
280
     1
102
RTVSPost2010Prop28
280
     0
102
RTVSPost2010PropOp28
 70
     1
102
RTVSPost2010Prop29
280
     1
102
RTVSPost2010PropOp29
 70
     1
102
RTVSPost2010Prop30
280
     1
102
RTVSPost2010PropOp30
 70
     1
102
RTVSPost2010Prop31
280
     0
102
RTVSPost2010PropOp31
 70
     1
102
RTVSPost2010Prop32
280
     0
102
RTVSPost2010PropOp32
 70
     1
102
RTVSPost2010Prop33
280
     0
102
RTVSPost2010PropOp33
 70
     1
102
RTVSPost2010Prop34
280
     0
102
RTVSPost2010PropOp34
 70
     1
102
RTVSPost2010Prop35
280
     0
102
RTVSPost2010PropOp35
 70
     1
102
RTVSPost2010Prop36
280
     0
102
RTVSPost2010PropOp36
 70
     1
102
RTVSPost2010Prop37
 90
       50
102
RTVSPost2010PropOp37
 70
     1
102
RTVSPost2010Prop38
140
0.0
102
RTVSPost2010PropOp38
 70
     1
102
RTVSPost2010Prop39
140
1.0
102
RTVSPost2010PropOp39
 70
     1
102
RTVSPost2010Prop40
 90
        0
102
RTVSPost2010PropOp40
 70
     1
102
RTVSPost2010Prop41ColorIndex
 90
       18
102
RTVSPost2010Prop41ColorRGB
 90
        0
102
RTVSPost2010PropOp41
 70
     1
102
RTVSPost2010Prop42
 90
       50
102
RTVSPost2010PropOp42
 70
     1
102
RTVSPost2010Prop43
 90
        3
102
RTVSPost2010PropOp43
 70
     1
102
RTVSPost2010Prop44ColorIndex
 90
        5
102
RTVSPost2010Prop44ColorRGB
 90
      255
102
RTVSPost2010PropOp44
 70
     1
102
RTVSPost2010Prop45
280
     0
102
RTVSPost2010PropOp45
 70
     1
102
RTVSPost2010Prop46
 90
       50
102
RTVSPost2010PropOp46
 70
     1
102
RTVSPost2010Prop47
 90
       50
102
RTVSPost2010PropOp47
 70
     1
102
RTVSPost2010Prop48
 90
       50
102
RTVSPost2010PropOp48
 70
     1
102
RTVSPost2010Prop49
280
     0
102
RTVSPost2010PropOp49
 70
     1
102
RTVSPost2010Prop50
 90
       50
102
RTVSPost2010PropOp50
 70
     1
102
RTVSPost2010Prop51ColorIndex
 90
      256
102
RTVSPost2010Prop51ColorRGB
 90
-16777216
102
RTVSPost2010PropOp51
 70
     0
102
RTVSPost2010Prop52
140
1.0
102
RTVSPost2010PropOp52
 70
     0
102
RTVSPost2010Prop53
 90
        2
102
RTVSPost2010PropOp53
 70
     1
102
RTVSPost2010Prop54
  1
strokes_ogs.tif
102
RTVSPost2010PropOp54
 70
     1
102
RTVSPost2010Prop55
280
     0
102
RTVSPost2010PropOp55
 70
     1
102
RTVSPost2010Prop56
140
1.0
102
RTVSPost2010PropOp56
 70
     1
102
RTVSPost2010Prop57
140
1.0
102
RTVSPost2010PropOp57
 70
     1
102
RTVSPropertyOp0
 70
     1
102
RTVSPropertyOp1
 70
     1
102
RTVSPropertyOp2
 70
     1
102
RTVSPropertyOp3
 70
     1
102
RTVSPropertyOp4
 70
     1
102
RTVSPropertyOp5
 70
     1
102
RTVSPropertyOp6
 70
     1
102
RTVSPropertyOp7
 70
     1
102
RTVSPropertyOp8
 70
     1
102
RTVSPropertyOp9
 70
     1
102
RTVSPropertyOp10
 70
     1
102
RTVSPropertyOp11
 70
     1
102
RTVSPropertyOp12
 70
     1
102
RTVSPropertyOp13
 70
     1
102
RTVSPropertyOp14
 70
     1
102
RTVSPropertyOp15
 70
     1
102
RTVSPropertyOp16
 70
     1
102
RTVSPropertyOp17
 70
     1
102
RTVSPropertyOp18
 70
     1
102
RTVSPropertyOp19
 70
     1
102
RTVSPropertyOp20
 70
     1
102
RTVSPropertyOp21
 70
     1
102
RTVSPropertyOp22
 70
     1
102
RTVSPropertyOp23
 70
     1
102
RTVSPropertyOp24
 70
     1
102
RTVSPropertyOp25
 70
     1
102
RTVSPropertyOp26
 70
     1
102
RTVSPropertyOp27
 70
     1
102
RTVSPropertyOp28
 70
     1
102
RTVSPropertyOp29
 70
     1
102
RTVSPropertyOp30
 70
     1
102
RTVSPropertyOp31
 70
     1
102
RTVSPropertyOp32
 70
     1
102
RTVSPropertyOp33
 70
     1
102
RTVSPropertyOp34
 70
     1
102
RTVSPropertyOp35
 70
     1
102
RTVSPropertyOp36
 70
     1
102
RTVSPropertyOp37
 70
     1
102
RTVSPropertyOp38
 70
     1
102
RTVSPropertyOp39
 70
     1
102
RTVSPropertyOp40
 70
     1
102
RTVSPropertyOp41
 70
     1
102
RTVSPropertyOp42
 70
     1
102
RTVSPropertyOp43
 70
     1
102
RTVSPropertyOp44
 70
     1
102
RTVSPropertyOp45
 70
     1
102
RTVSPropertyOp46
 70
     1
102
RTVSPropertyOp47
 70
     1
102
RTVSPropertyOp48
 70
     1
102
RTVSPropertyOp49
 70
     1
102
RTVSPropertyOp50
 70
     1
102
RTVSPropertyOp51
 70
     0
102
RTVSPropertyOp52
 70
     0
102
RTVSPropertyOp53
 70
     1
102
RTVSPropertyOp54
 70
     1
102
RTVSPropertyOp55
 70
     1
102
RTVSPropertyOp56
 70
     1
102
RTVSPropertyOp57
 70
     1
102
RTVSPropertyOp58
 70
     1
102
RTVSPropertyOp59
 70
     1
102
RTVSPropertyOp60
 70
     1
102
RTVSPropertyOp61
 70
     1
102
RTVSPropertyOp62
 70
     1
  0
XRECORD
  5
1463
102
{ACAD_REACTORS
330
1462
102
}
330
1462
100
AcDbXrecord
280
     1
102
RTVSPost2010Prop28
280
     0
102
RTVSPost2010PropOp28
 70
     1
102
RTVSPost2010Prop29
280
     1
102
RTVSPost2010PropOp29
 70
     1
102
RTVSPost2010Prop30
280
     1
102
RTVSPost2010PropOp30
 70
     1
102
RTVSPost2010Prop31
280
     0
102
RTVSPost2010PropOp31
 70
     1
102
RTVSPost2010Prop32
280
     0
102
RTVSPost2010PropOp32
 70
     1
102
RTVSPost2010Prop33
280
     0
102
RTVSPost2010PropOp33
 70
     1
102
RTVSPost2010Prop34
280
     0
102
RTVSPost2010PropOp34
 70
     1
102
RTVSPost2010Prop35
280
     0
102
RTVSPost2010PropOp35
 70
     1
102
RTVSPost2010Prop36
280
     0
102
RTVSPost2010PropOp36
 70
     1
102
RTVSPost2010Prop37
 90
       50
102
RTVSPost2010PropOp37
 70
     1
102
RTVSPost2010Prop38
140
0.0
102
RTVSPost2010PropOp38
 70
     1
102
RTVSPost2010Prop39
140
1.0
102
RTVSPost2010PropOp39
 70
     1
102
RTVSPost2010Prop40
 90
        0
102
RTVSPost2010PropOp40
 70
     1
102
RTVSPost2010Prop41ColorIndex
 90
       18
102
RTVSPost2010Prop41ColorRGB
 90
        0
102
RTVSPost2010PropOp41
 70
     1
102
RTVSPost2010Prop42
 90
       50
102
RTVSPost2010PropOp42
 70
     1
102
RTVSPost2010Prop43
 90
        3
102
RTVSPost2010PropOp43
 70
     1
102
RTVSPost2010Prop44ColorIndex
 90
        5
102
RTVSPost2010Prop44ColorRGB
 90
      255
102
RTVSPost2010PropOp44
 70
     1
102
RTVSPost2010Prop45
280
     0
102
RTVSPost2010PropOp45
 70
     1
102
RTVSPost2010Prop46
 90
       50
102
RTVSPost2010PropOp46
 70
     1
102
RTVSPost2010Prop47
 90
       50
102
RTVSPost2010PropOp47
 70
     1
102
RTVSPost2010Prop48
 90
       50
102
RTVSPost2010PropOp48
 70
     1
102
RTVSPost2010Prop49
280
     0
102
RTVSPost2010PropOp49
 70
     1
102
RTVSPost2010Prop50
 90
       50
102
RTVSPost2010PropOp50
 70
     1
102
RTVSPost2010Prop51ColorIndex
 90
      256
102
RTVSPost2010Prop51ColorRGB
 90
-16777216
102
RTVSPost2010PropOp51
 70
     0
102
RTVSPost2010Prop52
140
1.0
102
RTVSPost2010PropOp52
 70
     0
102
RTVSPost2010Prop53
 90
        2
102
RTVSPost2010PropOp53
 70
     1
102
RTVSPost2010Prop54
  1
strokes_ogs.tif
102
RTVSPost2010PropOp54
 70
     1
102
RTVSPost2010Prop55
280
     0
102
RTVSPost2010PropOp55
 70
     1
102
RTVSPost2010Prop56
140
1.0
102
RTVSPost2010PropOp56
 70
     1
102
RTVSPost2010Prop57
140
1.0
102
RTVSPost2010PropOp57
 70
     1
102
RTVSPropertyOp0
 70
     1
102
RTVSPropertyOp1
 70
     1
102
RTVSPropertyOp2
 70
     1
102
RTVSPropertyOp3
 70
     1
102
RTVSPropertyOp4
 70
     1
102
RTVSPropertyOp5
 70
     1
102
RTVSPropertyOp6
 70
     1
102
RTVSPropertyOp7
 70
     1
102
RTVSPropertyOp8
 70
     1
102
RTVSPropertyOp9
 70
     1
102
RTVSPropertyOp10
 70
     1
102
RTVSPropertyOp11
 70
     1
102
RTVSPropertyOp12
 70
     1
102
RTVSPropertyOp13
 70
     1
102
RTVSPropertyOp14
 70
     1
102
RTVSPropertyOp15
 70
     1
102
RTVSPropertyOp16
 70
     1
102
RTVSPropertyOp17
 70
     1
102
RTVSPropertyOp18
 70
     1
102
RTVSPropertyOp19
 70
     1
102
RTVSPropertyOp20
 70
     1
102
RTVSPropertyOp21
 70
     1
102
RTVSPropertyOp22
 70
     1
102
RTVSPropertyOp23
 70
     1
102
RTVSPropertyOp24
 70
     1
102
RTVSPropertyOp25
 70
     1
102
RTVSPropertyOp26
 70
     1
102
RTVSPropertyOp27
 70
     1
102
RTVSPropertyOp28
 70
     1
102
RTVSPropertyOp29
 70
     1
102
RTVSPropertyOp30
 70
     1
102
RTVSPropertyOp31
 70
     1
102
RTVSPropertyOp32
 70
     1
102
RTVSPropertyOp33
 70
     1
102
RTVSPropertyOp34
 70
     1
102
RTVSPropertyOp35
 70
     1
102
RTVSPropertyOp36
 70
     1
102
RTVSPropertyOp37
 70
     1
102
RTVSPropertyOp38
 70
     1
102
RTVSPropertyOp39
 70
     1
102
RTVSPropertyOp40
 70
     1
102
RTVSPropertyOp41
 70
     1
102
RTVSPropertyOp42
 70
     1
102
RTVSPropertyOp43
 70
     1
102
RTVSPropertyOp44
 70
     1
102
RTVSPropertyOp45
 70
     1
102
RTVSPropertyOp46
 70
     1
102
RTVSPropertyOp47
 70
     1
102
RTVSPropertyOp48
 70
     1
102
RTVSPropertyOp49
 70
     1
102
RTVSPropertyOp50
 70
     1
102
RTVSPropertyOp51
 70
     0
102
RTVSPropertyOp52
 70
     0
102
RTVSPropertyOp53
 70
     1
102
RTVSPropertyOp54
 70
     1
102
RTVSPropertyOp55
 70
     1
102
RTVSPropertyOp56
 70
     1
102
RTVSPropertyOp57
 70
     1
102
RTVSPropertyOp58
 70
     1
102
RTVSPropertyOp59
 70
     1
102
RTVSPropertyOp60
 70
     1
102
RTVSPropertyOp61
 70
     1
102
RTVSPropertyOp62
 70
     1
  0
XRECORD
  5
1461
102
{ACAD_REACTORS
330
1460
102
}
330
1460
100
AcDbXrecord
280
     1
102
RTVSPost2010Prop28
280
     0
102
RTVSPost2010PropOp28
 70
     1
102
RTVSPost2010Prop29
280
     1
102
RTVSPost2010PropOp29
 70
     1
102
RTVSPost2010Prop30
280
     1
102
RTVSPost2010PropOp30
 70
     1
102
RTVSPost2010Prop31
280
     0
102
RTVSPost2010PropOp31
 70
     1
102
RTVSPost2010Prop32
280
     0
102
RTVSPost2010PropOp32
 70
     1
102
RTVSPost2010Prop33
280
     0
102
RTVSPost2010PropOp33
 70
     1
102
RTVSPost2010Prop34
280
     0
102
RTVSPost2010PropOp34
 70
     1
102
RTVSPost2010Prop35
280
     0
102
RTVSPost2010PropOp35
 70
     1
102
RTVSPost2010Prop36
280
     0
102
RTVSPost2010PropOp36
 70
     1
102
RTVSPost2010Prop37
 90
       50
102
RTVSPost2010PropOp37
 70
     1
102
RTVSPost2010Prop38
140
0.0
102
RTVSPost2010PropOp38
 70
     1
102
RTVSPost2010Prop39
140
1.0
102
RTVSPost2010PropOp39
 70
     1
102
RTVSPost2010Prop40
 90
        0
102
RTVSPost2010PropOp40
 70
     1
102
RTVSPost2010Prop41ColorIndex
 90
       18
102
RTVSPost2010Prop41ColorRGB
 90
        0
102
RTVSPost2010PropOp41
 70
     1
102
RTVSPost2010Prop42
 90
       50
102
RTVSPost2010PropOp42
 70
     1
102
RTVSPost2010Prop43
 90
        3
102
RTVSPost2010PropOp43
 70
     1
102
RTVSPost2010Prop44ColorIndex
 90
        5
102
RTVSPost2010Prop44ColorRGB
 90
      255
102
RTVSPost2010PropOp44
 70
     1
102
RTVSPost2010Prop45
280
     0
102
RTVSPost2010PropOp45
 70
     1
102
RTVSPost2010Prop46
 90
       50
102
RTVSPost2010PropOp46
 70
     1
102
RTVSPost2010Prop47
 90
       50
102
RTVSPost2010PropOp47
 70
     1
102
RTVSPost2010Prop48
 90
       50
102
RTVSPost2010PropOp48
 70
     1
102
RTVSPost2010Prop49
280
     0
102
RTVSPost2010PropOp49
 70
     1
102
RTVSPost2010Prop50
 90
       50
102
RTVSPost2010PropOp50
 70
     1
102
RTVSPost2010Prop51ColorIndex
 90
      256
102
RTVSPost2010Prop51ColorRGB
 90
-16777216
102
RTVSPost2010PropOp51
 70
     0
102
RTVSPost2010Prop52
140
1.0
102
RTVSPost2010PropOp52
 70
     0
102
RTVSPost2010Prop53
 90
        2
102
RTVSPost2010PropOp53
 70
     1
102
RTVSPost2010Prop54
  1
strokes_ogs.tif
102
RTVSPost2010PropOp54
 70
     1
102
RTVSPost2010Prop55
280
     0
102
RTVSPost2010PropOp55
 70
     1
102
RTVSPost2010Prop56
140
1.0
102
RTVSPost2010PropOp56
 70
     1
102
RTVSPost2010Prop57
140
1.0
102
RTVSPost2010PropOp57
 70
     1
102
RTVSPropertyOp0
 70
     1
102
RTVSPropertyOp1
 70
     1
102
RTVSPropertyOp2
 70
     1
102
RTVSPropertyOp3
 70
     1
102
RTVSPropertyOp4
 70
     1
102
RTVSPropertyOp5
 70
     1
102
RTVSPropertyOp6
 70
     1
102
RTVSPropertyOp7
 70
     1
102
RTVSPropertyOp8
 70
     1
102
RTVSPropertyOp9
 70
     1
102
RTVSPropertyOp10
 70
     1
102
RTVSPropertyOp11
 70
     1
102
RTVSPropertyOp12
 70
     1
102
RTVSPropertyOp13
 70
     1
102
RTVSPropertyOp14
 70
     1
102
RTVSPropertyOp15
 70
     1
102
RTVSPropertyOp16
 70
     1
102
RTVSPropertyOp17
 70
     1
102
RTVSPropertyOp18
 70
     1
102
RTVSPropertyOp19
 70
     1
102
RTVSPropertyOp20
 70
     1
102
RTVSPropertyOp21
 70
     1
102
RTVSPropertyOp22
 70
     1
102
RTVSPropertyOp23
 70
     1
102
RTVSPropertyOp24
 70
     1
102
RTVSPropertyOp25
 70
     1
102
RTVSPropertyOp26
 70
     1
102
RTVSPropertyOp27
 70
     1
102
RTVSPropertyOp28
 70
     1
102
RTVSPropertyOp29
 70
     1
102
RTVSPropertyOp30
 70
     1
102
RTVSPropertyOp31
 70
     1
102
RTVSPropertyOp32
 70
     1
102
RTVSPropertyOp33
 70
     1
102
RTVSPropertyOp34
 70
     1
102
RTVSPropertyOp35
 70
     1
102
RTVSPropertyOp36
 70
     1
102
RTVSPropertyOp37
 70
     1
102
RTVSPropertyOp38
 70
     1
102
RTVSPropertyOp39
 70
     1
102
RTVSPropertyOp40
 70
     1
102
RTVSPropertyOp41
 70
     1
102
RTVSPropertyOp42
 70
     1
102
RTVSPropertyOp43
 70
     1
102
RTVSPropertyOp44
 70
     1
102
RTVSPropertyOp45
 70
     1
102
RTVSPropertyOp46
 70
     1
102
RTVSPropertyOp47
 70
     1
102
RTVSPropertyOp48
 70
     1
102
RTVSPropertyOp49
 70
     1
102
RTVSPropertyOp50
 70
     1
102
RTVSPropertyOp51
 70
     0
102
RTVSPropertyOp52
 70
     0
102
RTVSPropertyOp53
 70
     1
102
RTVSPropertyOp54
 70
     1
102
RTVSPropertyOp55
 70
     1
102
RTVSPropertyOp56
 70
     1
102
RTVSPropertyOp57
 70
     1
102
RTVSPropertyOp58
 70
     1
102
RTVSPropertyOp59
 70
     1
102
RTVSPropertyOp60
 70
     1
102
RTVSPropertyOp61
 70
     1
102
RTVSPropertyOp62
 70
     1
  0
XRECORD
  5
145B
102
{ACAD_REACTORS
330
145A
102
}
330
145A
100
AcDbXrecord
280
     1
102
RTVSPost2010Prop28
280
     0
102
RTVSPost2010PropOp28
 70
     1
102
RTVSPost2010Prop29
280
     1
102
RTVSPost2010PropOp29
 70
     1
102
RTVSPost2010Prop30
280
     1
102
RTVSPost2010PropOp30
 70
     1
102
RTVSPost2010Prop31
280
     0
102
RTVSPost2010PropOp31
 70
     1
102
RTVSPost2010Prop32
280
     0
102
RTVSPost2010PropOp32
 70
     1
102
RTVSPost2010Prop33
280
     0
102
RTVSPost2010PropOp33
 70
     1
102
RTVSPost2010Prop34
280
     0
102
RTVSPost2010PropOp34
 70
     1
102
RTVSPost2010Prop35
280
     0
102
RTVSPost2010PropOp35
 70
     1
102
RTVSPost2010Prop36
280
     0
102
RTVSPost2010PropOp36
 70
     1
102
RTVSPost2010Prop37
 90
       50
102
RTVSPost2010PropOp37
 70
     1
102
RTVSPost2010Prop38
140
0.0
102
RTVSPost2010PropOp38
 70
     1
102
RTVSPost2010Prop39
140
1.0
102
RTVSPost2010PropOp39
 70
     1
102
RTVSPost2010Prop40
 90
        0
102
RTVSPost2010PropOp40
 70
     1
102
RTVSPost2010Prop41ColorIndex
 90
       18
102
RTVSPost2010Prop41ColorRGB
 90
        0
102
RTVSPost2010PropOp41
 70
     1
102
RTVSPost2010Prop42
 90
       50
102
RTVSPost2010PropOp42
 70
     1
102
RTVSPost2010Prop43
 90
        3
102
RTVSPost2010PropOp43
 70
     1
102
RTVSPost2010Prop44ColorIndex
 90
        5
102
RTVSPost2010Prop44ColorRGB
 90
      255
102
RTVSPost2010PropOp44
 70
     1
102
RTVSPost2010Prop45
280
     0
102
RTVSPost2010PropOp45
 70
     1
102
RTVSPost2010Prop46
 90
       50
102
RTVSPost2010PropOp46
 70
     1
102
RTVSPost2010Prop47
 90
       50
102
RTVSPost2010PropOp47
 70
     1
102
RTVSPost2010Prop48
 90
       50
102
RTVSPost2010PropOp48
 70
     1
102
RTVSPost2010Prop49
280
     0
102
RTVSPost2010PropOp49
 70
     1
102
RTVSPost2010Prop50
 90
       50
102
RTVSPost2010PropOp50
 70
     1
102
RTVSPost2010Prop51ColorIndex
 90
      256
102
RTVSPost2010Prop51ColorRGB
 90
-16777216
102
RTVSPost2010PropOp51
 70
     0
102
RTVSPost2010Prop52
140
1.0
102
RTVSPost2010PropOp52
 70
     0
102
RTVSPost2010Prop53
 90
        2
102
RTVSPost2010PropOp53
 70
     1
102
RTVSPost2010Prop54
  1
strokes_ogs.tif
102
RTVSPost2010PropOp54
 70
     1
102
RTVSPost2010Prop55
280
     0
102
RTVSPost2010PropOp55
 70
     1
102
RTVSPost2010Prop56
140
1.0
102
RTVSPost2010PropOp56
 70
     1
102
RTVSPost2010Prop57
140
1.0
102
RTVSPost2010PropOp57
 70
     1
102
RTVSPropertyOp0
 70
     1
102
RTVSPropertyOp1
 70
     1
102
RTVSPropertyOp2
 70
     1
102
RTVSPropertyOp3
 70
     1
102
RTVSPropertyOp4
 70
     1
102
RTVSPropertyOp5
 70
     1
102
RTVSPropertyOp6
 70
     1
102
RTVSPropertyOp7
 70
     1
102
RTVSPropertyOp8
 70
     1
102
RTVSPropertyOp9
 70
     1
102
RTVSPropertyOp10
 70
     1
102
RTVSPropertyOp11
 70
     1
102
RTVSPropertyOp12
 70
     1
102
RTVSPropertyOp13
 70
     1
102
RTVSPropertyOp14
 70
     1
102
RTVSPropertyOp15
 70
     1
102
RTVSPropertyOp16
 70
     1
102
RTVSPropertyOp17
 70
     1
102
RTVSPropertyOp18
 70
     1
102
RTVSPropertyOp19
 70
     1
102
RTVSPropertyOp20
 70
     1
102
RTVSPropertyOp21
 70
     1
102
RTVSPropertyOp22
 70
     1
102
RTVSPropertyOp23
 70
     1
102
RTVSPropertyOp24
 70
     1
102
RTVSPropertyOp25
 70
     1
102
RTVSPropertyOp26
 70
     1
102
RTVSPropertyOp27
 70
     1
102
RTVSPropertyOp28
 70
     1
102
RTVSPropertyOp29
 70
     1
102
RTVSPropertyOp30
 70
     1
102
RTVSPropertyOp31
 70
     1
102
RTVSPropertyOp32
 70
     1
102
RTVSPropertyOp33
 70
     1
102
RTVSPropertyOp34
 70
     1
102
RTVSPropertyOp35
 70
     1
102
RTVSPropertyOp36
 70
     1
102
RTVSPropertyOp37
 70
     1
102
RTVSPropertyOp38
 70
     1
102
RTVSPropertyOp39
 70
     1
102
RTVSPropertyOp40
 70
     1
102
RTVSPropertyOp41
 70
     1
102
RTVSPropertyOp42
 70
     1
102
RTVSPropertyOp43
 70
     1
102
RTVSPropertyOp44
 70
     1
102
RTVSPropertyOp45
 70
     1
102
RTVSPropertyOp46
 70
     1
102
RTVSPropertyOp47
 70
     1
102
RTVSPropertyOp48
 70
     1
102
RTVSPropertyOp49
 70
     1
102
RTVSPropertyOp50
 70
     1
102
RTVSPropertyOp51
 70
     0
102
RTVSPropertyOp52
 70
     0
102
RTVSPropertyOp53
 70
     1
102
RTVSPropertyOp54
 70
     1
102
RTVSPropertyOp55
 70
     1
102
RTVSPropertyOp56
 70
     1
102
RTVSPropertyOp57
 70
     1
102
RTVSPropertyOp58
 70
     1
102
RTVSPropertyOp59
 70
     1
102
RTVSPropertyOp60
 70
     1
102
RTVSPropertyOp61
 70
     1
102
RTVSPropertyOp62
 70
     1
  0
XRECORD
  5
145D
102
{ACAD_REACTORS
330
145C
102
}
330
145C
100
AcDbXrecord
280
     1
102
RTVSPost2010Prop28
280
     0
102
RTVSPost2010PropOp28
 70
     1
102
RTVSPost2010Prop29
280
     1
102
RTVSPost2010PropOp29
 70
     1
102
RTVSPost2010Prop30
280
     1
102
RTVSPost2010PropOp30
 70
     1
102
RTVSPost2010Prop31
280
     0
102
RTVSPost2010PropOp31
 70
     1
102
RTVSPost2010Prop32
280
     0
102
RTVSPost2010PropOp32
 70
     1
102
RTVSPost2010Prop33
280
     0
102
RTVSPost2010PropOp33
 70
     1
102
RTVSPost2010Prop34
280
     0
102
RTVSPost2010PropOp34
 70
     1
102
RTVSPost2010Prop35
280
     0
102
RTVSPost2010PropOp35
 70
     1
102
RTVSPost2010Prop36
280
     0
102
RTVSPost2010PropOp36
 70
     1
102
RTVSPost2010Prop37
 90
       50
102
RTVSPost2010PropOp37
 70
     1
102
RTVSPost2010Prop38
140
0.0
102
RTVSPost2010PropOp38
 70
     1
102
RTVSPost2010Prop39
140
1.0
102
RTVSPost2010PropOp39
 70
     1
102
RTVSPost2010Prop40
 90
        0
102
RTVSPost2010PropOp40
 70
     1
102
RTVSPost2010Prop41ColorIndex
 90
       18
102
RTVSPost2010Prop41ColorRGB
 90
        0
102
RTVSPost2010PropOp41
 70
     1
102
RTVSPost2010Prop42
 90
       50
102
RTVSPost2010PropOp42
 70
     1
102
RTVSPost2010Prop43
 90
        3
102
RTVSPost2010PropOp43
 70
     1
102
RTVSPost2010Prop44ColorIndex
 90
        5
102
RTVSPost2010Prop44ColorRGB
 90
      255
102
RTVSPost2010PropOp44
 70
     1
102
RTVSPost2010Prop45
280
     0
102
RTVSPost2010PropOp45
 70
     1
102
RTVSPost2010Prop46
 90
       50
102
RTVSPost2010PropOp46
 70
     1
102
RTVSPost2010Prop47
 90
       50
102
RTVSPost2010PropOp47
 70
     1
102
RTVSPost2010Prop48
 90
       50
102
RTVSPost2010PropOp48
 70
     1
102
RTVSPost2010Prop49
280
     0
102
RTVSPost2010PropOp49
 70
     1
102
RTVSPost2010Prop50
 90
       50
102
RTVSPost2010PropOp50
 70
     1
102
RTVSPost2010Prop51ColorIndex
 90
      256
102
RTVSPost2010Prop51ColorRGB
 90
-16777216
102
RTVSPost2010PropOp51
 70
     0
102
RTVSPost2010Prop52
140
1.0
102
RTVSPost2010PropOp52
 70
     0
102
RTVSPost2010Prop53
 90
        2
102
RTVSPost2010PropOp53
 70
     1
102
RTVSPost2010Prop54
  1
strokes_ogs.tif
102
RTVSPost2010PropOp54
 70
     1
102
RTVSPost2010Prop55
280
     0
102
RTVSPost2010PropOp55
 70
     1
102
RTVSPost2010Prop56
140
1.0
102
RTVSPost2010PropOp56
 70
     1
102
RTVSPost2010Prop57
140
1.0
102
RTVSPost2010PropOp57
 70
     1
102
RTVSPropertyOp0
 70
     1
102
RTVSPropertyOp1
 70
     1
102
RTVSPropertyOp2
 70
     1
102
RTVSPropertyOp3
 70
     1
102
RTVSPropertyOp4
 70
     1
102
RTVSPropertyOp5
 70
     1
102
RTVSPropertyOp6
 70
     1
102
RTVSPropertyOp7
 70
     1
102
RTVSPropertyOp8
 70
     1
102
RTVSPropertyOp9
 70
     1
102
RTVSPropertyOp10
 70
     1
102
RTVSPropertyOp11
 70
     1
102
RTVSPropertyOp12
 70
     1
102
RTVSPropertyOp13
 70
     1
102
RTVSPropertyOp14
 70
     1
102
RTVSPropertyOp15
 70
     1
102
RTVSPropertyOp16
 70
     1
102
RTVSPropertyOp17
 70
     1
102
RTVSPropertyOp18
 70
     1
102
RTVSPropertyOp19
 70
     1
102
RTVSPropertyOp20
 70
     1
102
RTVSPropertyOp21
 70
     1
102
RTVSPropertyOp22
 70
     1
102
RTVSPropertyOp23
 70
     1
102
RTVSPropertyOp24
 70
     1
102
RTVSPropertyOp25
 70
     1
102
RTVSPropertyOp26
 70
     1
102
RTVSPropertyOp27
 70
     1
102
RTVSPropertyOp28
 70
     1
102
RTVSPropertyOp29
 70
     1
102
RTVSPropertyOp30
 70
     1
102
RTVSPropertyOp31
 70
     1
102
RTVSPropertyOp32
 70
     1
102
RTVSPropertyOp33
 70
     1
102
RTVSPropertyOp34
 70
     1
102
RTVSPropertyOp35
 70
     1
102
RTVSPropertyOp36
 70
     1
102
RTVSPropertyOp37
 70
     1
102
RTVSPropertyOp38
 70
     1
102
RTVSPropertyOp39
 70
     1
102
RTVSPropertyOp40
 70
     1
102
RTVSPropertyOp41
 70
     1
102
RTVSPropertyOp42
 70
     1
102
RTVSPropertyOp43
 70
     1
102
RTVSPropertyOp44
 70
     1
102
RTVSPropertyOp45
 70
     1
102
RTVSPropertyOp46
 70
     1
102
RTVSPropertyOp47
 70
     1
102
RTVSPropertyOp48
 70
     1
102
RTVSPropertyOp49
 70
     1
102
RTVSPropertyOp50
 70
     1
102
RTVSPropertyOp51
 70
     0
102
RTVSPropertyOp52
 70
     0
102
RTVSPropertyOp53
 70
     1
102
RTVSPropertyOp54
 70
     1
102
RTVSPropertyOp55
 70
     1
102
RTVSPropertyOp56
 70
     1
102
RTVSPropertyOp57
 70
     1
102
RTVSPropertyOp58
 70
     1
102
RTVSPropertyOp59
 70
     1
102
RTVSPropertyOp60
 70
     1
102
RTVSPropertyOp61
 70
     1
102
RTVSPropertyOp62
 70
     1
  0
XRECORD
  5
1453
102
{ACAD_REACTORS
330
1452
102
}
330
1452
100
AcDbXrecord
280
     1
102
RTVSPost2010Prop28
280
     0
102
RTVSPost2010PropOp28
 70
     1
102
RTVSPost2010Prop29
280
     1
102
RTVSPost2010PropOp29
 70
     1
102
RTVSPost2010Prop30
280
     1
102
RTVSPost2010PropOp30
 70
     1
102
RTVSPost2010Prop31
280
     0
102
RTVSPost2010PropOp31
 70
     1
102
RTVSPost2010Prop32
280
     0
102
RTVSPost2010PropOp32
 70
     1
102
RTVSPost2010Prop33
280
     0
102
RTVSPost2010PropOp33
 70
     1
102
RTVSPost2010Prop34
280
     0
102
RTVSPost2010PropOp34
 70
     1
102
RTVSPost2010Prop35
280
     0
102
RTVSPost2010PropOp35
 70
     1
102
RTVSPost2010Prop36
280
     0
102
RTVSPost2010PropOp36
 70
     1
102
RTVSPost2010Prop37
 90
       50
102
RTVSPost2010PropOp37
 70
     1
102
RTVSPost2010Prop38
140
0.0
102
RTVSPost2010PropOp38
 70
     1
102
RTVSPost2010Prop39
140
1.0
102
RTVSPost2010PropOp39
 70
     1
102
RTVSPost2010Prop40
 90
        0
102
RTVSPost2010PropOp40
 70
     1
102
RTVSPost2010Prop41ColorIndex
 90
       18
102
RTVSPost2010Prop41ColorRGB
 90
        0
102
RTVSPost2010PropOp41
 70
     1
102
RTVSPost2010Prop42
 90
       50
102
RTVSPost2010PropOp42
 70
     1
102
RTVSPost2010Prop43
 90
        3
102
RTVSPost2010PropOp43
 70
     1
102
RTVSPost2010Prop44ColorIndex
 90
        5
102
RTVSPost2010Prop44ColorRGB
 90
      255
102
RTVSPost2010PropOp44
 70
     1
102
RTVSPost2010Prop45
280
     0
102
RTVSPost2010PropOp45
 70
     1
102
RTVSPost2010Prop46
 90
       50
102
RTVSPost2010PropOp46
 70
     1
102
RTVSPost2010Prop47
 90
       50
102
RTVSPost2010PropOp47
 70
     1
102
RTVSPost2010Prop48
 90
       50
102
RTVSPost2010PropOp48
 70
     1
102
RTVSPost2010Prop49
280
     0
102
RTVSPost2010PropOp49
 70
     1
102
RTVSPost2010Prop50
 90
       50
102
RTVSPost2010PropOp50
 70
     1
102
RTVSPost2010Prop51ColorIndex
 90
      256
102
RTVSPost2010Prop51ColorRGB
 90
-16777216
102
RTVSPost2010PropOp51
 70
     0
102
RTVSPost2010Prop52
140
1.0
102
RTVSPost2010PropOp52
 70
     0
102
RTVSPost2010Prop53
 90
        2
102
RTVSPost2010PropOp53
 70
     1
102
RTVSPost2010Prop54
  1
strokes_ogs.tif
102
RTVSPost2010PropOp54
 70
     1
102
RTVSPost2010Prop55
280
     0
102
RTVSPost2010PropOp55
 70
     1
102
RTVSPost2010Prop56
140
1.0
102
RTVSPost2010PropOp56
 70
     1
102
RTVSPost2010Prop57
140
1.0
102
RTVSPost2010PropOp57
 70
     1
102
RTVSPropertyOp0
 70
     1
102
RTVSPropertyOp1
 70
     1
102
RTVSPropertyOp2
 70
     1
102
RTVSPropertyOp3
 70
     1
102
RTVSPropertyOp4
 70
     1
102
RTVSPropertyOp5
 70
     1
102
RTVSPropertyOp6
 70
     1
102
RTVSPropertyOp7
 70
     1
102
RTVSPropertyOp8
 70
     1
102
RTVSPropertyOp9
 70
     1
102
RTVSPropertyOp10
 70
     1
102
RTVSPropertyOp11
 70
     1
102
RTVSPropertyOp12
 70
     1
102
RTVSPropertyOp13
 70
     1
102
RTVSPropertyOp14
 70
     1
102
RTVSPropertyOp15
 70
     1
102
RTVSPropertyOp16
 70
     1
102
RTVSPropertyOp17
 70
     1
102
RTVSPropertyOp18
 70
     1
102
RTVSPropertyOp19
 70
     1
102
RTVSPropertyOp20
 70
     1
102
RTVSPropertyOp21
 70
     1
102
RTVSPropertyOp22
 70
     1
102
RTVSPropertyOp23
 70
     1
102
RTVSPropertyOp24
 70
     1
102
RTVSPropertyOp25
 70
     1
102
RTVSPropertyOp26
 70
     1
102
RTVSPropertyOp27
 70
     1
102
RTVSPropertyOp28
 70
     1
102
RTVSPropertyOp29
 70
     1
102
RTVSPropertyOp30
 70
     1
102
RTVSPropertyOp31
 70
     1
102
RTVSPropertyOp32
 70
     1
102
RTVSPropertyOp33
 70
     1
102
RTVSPropertyOp34
 70
     1
102
RTVSPropertyOp35
 70
     1
102
RTVSPropertyOp36
 70
     1
102
RTVSPropertyOp37
 70
     1
102
RTVSPropertyOp38
 70
     1
102
RTVSPropertyOp39
 70
     1
102
RTVSPropertyOp40
 70
     1
102
RTVSPropertyOp41
 70
     1
102
RTVSPropertyOp42
 70
     1
102
RTVSPropertyOp43
 70
     1
102
RTVSPropertyOp44
 70
     1
102
RTVSPropertyOp45
 70
     1
102
RTVSPropertyOp46
 70
     1
102
RTVSPropertyOp47
 70
     1
102
RTVSPropertyOp48
 70
     1
102
RTVSPropertyOp49
 70
     1
102
RTVSPropertyOp50
 70
     1
102
RTVSPropertyOp51
 70
     0
102
RTVSPropertyOp52
 70
     0
102
RTVSPropertyOp53
 70
     1
102
RTVSPropertyOp54
 70
     1
102
RTVSPropertyOp55
 70
     1
102
RTVSPropertyOp56
 70
     1
102
RTVSPropertyOp57
 70
     1
102
RTVSPropertyOp58
 70
     1
102
RTVSPropertyOp59
 70
     1
102
RTVSPropertyOp60
 70
     1
102
RTVSPropertyOp61
 70
     1
102
RTVSPropertyOp62
 70
     1
  0
XRECORD
  5
1447
102
{ACAD_REACTORS
330
1446
102
}
330
1446
100
AcDbXrecord
280
     1
102
RTVSPost2010Prop28
280
     0
102
RTVSPost2010PropOp28
 70
     1
102
RTVSPost2010Prop29
280
     1
102
RTVSPost2010PropOp29
 70
     1
102
RTVSPost2010Prop30
280
     1
102
RTVSPost2010PropOp30
 70
     1
102
RTVSPost2010Prop31
280
     0
102
RTVSPost2010PropOp31
 70
     1
102
RTVSPost2010Prop32
280
     0
102
RTVSPost2010PropOp32
 70
     1
102
RTVSPost2010Prop33
280
     0
102
RTVSPost2010PropOp33
 70
     1
102
RTVSPost2010Prop34
280
     0
102
RTVSPost2010PropOp34
 70
     1
102
RTVSPost2010Prop35
280
     0
102
RTVSPost2010PropOp35
 70
     1
102
RTVSPost2010Prop36
280
     0
102
RTVSPost2010PropOp36
 70
     1
102
RTVSPost2010Prop37
 90
       50
102
RTVSPost2010PropOp37
 70
     1
102
RTVSPost2010Prop38
140
0.0
102
RTVSPost2010PropOp38
 70
     1
102
RTVSPost2010Prop39
140
1.0
102
RTVSPost2010PropOp39
 70
     1
102
RTVSPost2010Prop40
 90
        0
102
RTVSPost2010PropOp40
 70
     1
102
RTVSPost2010Prop41ColorIndex
 90
       18
102
RTVSPost2010Prop41ColorRGB
 90
        0
102
RTVSPost2010PropOp41
 70
     1
102
RTVSPost2010Prop42
 90
       50
102
RTVSPost2010PropOp42
 70
     1
102
RTVSPost2010Prop43
 90
        3
102
RTVSPost2010PropOp43
 70
     1
102
RTVSPost2010Prop44ColorIndex
 90
        5
102
RTVSPost2010Prop44ColorRGB
 90
      255
102
RTVSPost2010PropOp44
 70
     1
102
RTVSPost2010Prop45
280
     0
102
RTVSPost2010PropOp45
 70
     1
102
RTVSPost2010Prop46
 90
       50
102
RTVSPost2010PropOp46
 70
     1
102
RTVSPost2010Prop47
 90
       50
102
RTVSPost2010PropOp47
 70
     1
102
RTVSPost2010Prop48
 90
       50
102
RTVSPost2010PropOp48
 70
     1
102
RTVSPost2010Prop49
280
     0
102
RTVSPost2010PropOp49
 70
     1
102
RTVSPost2010Prop50
 90
       50
102
RTVSPost2010PropOp50
 70
     1
102
RTVSPost2010Prop51ColorIndex
 90
      256
102
RTVSPost2010Prop51ColorRGB
 90
-16777216
102
RTVSPost2010PropOp51
 70
     0
102
RTVSPost2010Prop52
140
1.0
102
RTVSPost2010PropOp52
 70
     0
102
RTVSPost2010Prop53
 90
        2
102
RTVSPost2010PropOp53
 70
     1
102
RTVSPost2010Prop54
  1
strokes_ogs.tif
102
RTVSPost2010PropOp54
 70
     1
102
RTVSPost2010Prop55
280
     0
102
RTVSPost2010PropOp55
 70
     1
102
RTVSPost2010Prop56
140
1.0
102
RTVSPost2010PropOp56
 70
     1
102
RTVSPost2010Prop57
140
1.0
102
RTVSPost2010PropOp57
 70
     1
102
RTVSPropertyOp0
 70
     1
102
RTVSPropertyOp1
 70
     1
102
RTVSPropertyOp2
 70
     1
102
RTVSPropertyOp3
 70
     1
102
RTVSPropertyOp4
 70
     1
102
RTVSPropertyOp5
 70
     1
102
RTVSPropertyOp6
 70
     1
102
RTVSPropertyOp7
 70
     1
102
RTVSPropertyOp8
 70
     1
102
RTVSPropertyOp9
 70
     1
102
RTVSPropertyOp10
 70
     1
102
RTVSPropertyOp11
 70
     1
102
RTVSPropertyOp12
 70
     1
102
RTVSPropertyOp13
 70
     1
102
RTVSPropertyOp14
 70
     1
102
RTVSPropertyOp15
 70
     1
102
RTVSPropertyOp16
 70
     1
102
RTVSPropertyOp17
 70
     1
102
RTVSPropertyOp18
 70
     1
102
RTVSPropertyOp19
 70
     1
102
RTVSPropertyOp20
 70
     1
102
RTVSPropertyOp21
 70
     1
102
RTVSPropertyOp22
 70
     1
102
RTVSPropertyOp23
 70
     1
102
RTVSPropertyOp24
 70
     1
102
RTVSPropertyOp25
 70
     1
102
RTVSPropertyOp26
 70
     1
102
RTVSPropertyOp27
 70
     1
102
RTVSPropertyOp28
 70
     1
102
RTVSPropertyOp29
 70
     1
102
RTVSPropertyOp30
 70
     1
102
RTVSPropertyOp31
 70
     1
102
RTVSPropertyOp32
 70
     1
102
RTVSPropertyOp33
 70
     1
102
RTVSPropertyOp34
 70
     1
102
RTVSPropertyOp35
 70
     1
102
RTVSPropertyOp36
 70
     1
102
RTVSPropertyOp37
 70
     1
102
RTVSPropertyOp38
 70
     1
102
RTVSPropertyOp39
 70
     1
102
RTVSPropertyOp40
 70
     1
102
RTVSPropertyOp41
 70
     1
102
RTVSPropertyOp42
 70
     1
102
RTVSPropertyOp43
 70
     1
102
RTVSPropertyOp44
 70
     1
102
RTVSPropertyOp45
 70
     1
102
RTVSPropertyOp46
 70
     1
102
RTVSPropertyOp47
 70
     1
102
RTVSPropertyOp48
 70
     1
102
RTVSPropertyOp49
 70
     1
102
RTVSPropertyOp50
 70
     1
102
RTVSPropertyOp51
 70
     0
102
RTVSPropertyOp52
 70
     0
102
RTVSPropertyOp53
 70
     1
102
RTVSPropertyOp54
 70
     1
102
RTVSPropertyOp55
 70
     1
102
RTVSPropertyOp56
 70
     1
102
RTVSPropertyOp57
 70
     1
102
RTVSPropertyOp58
 70
     1
102
RTVSPropertyOp59
 70
     1
102
RTVSPropertyOp60
 70
     1
102
RTVSPropertyOp61
 70
     1
102
RTVSPropertyOp62
 70
     1
  0
XRECORD
  5
145F
102
{ACAD_REACTORS
330
145E
102
}
330
145E
100
AcDbXrecord
280
     1
102
RTVSPost2010Prop28
280
     0
102
RTVSPost2010PropOp28
 70
     1
102
RTVSPost2010Prop29
280
     1
102
RTVSPost2010PropOp29
 70
     1
102
RTVSPost2010Prop30
280
     1
102
RTVSPost2010PropOp30
 70
     1
102
RTVSPost2010Prop31
280
     0
102
RTVSPost2010PropOp31
 70
     1
102
RTVSPost2010Prop32
280
     0
102
RTVSPost2010PropOp32
 70
     1
102
RTVSPost2010Prop33
280
     0
102
RTVSPost2010PropOp33
 70
     1
102
RTVSPost2010Prop34
280
     0
102
RTVSPost2010PropOp34
 70
     1
102
RTVSPost2010Prop35
280
     0
102
RTVSPost2010PropOp35
 70
     1
102
RTVSPost2010Prop36
280
     0
102
RTVSPost2010PropOp36
 70
     1
102
RTVSPost2010Prop37
 90
       50
102
RTVSPost2010PropOp37
 70
     1
102
RTVSPost2010Prop38
140
0.0
102
RTVSPost2010PropOp38
 70
     1
102
RTVSPost2010Prop39
140
1.0
102
RTVSPost2010PropOp39
 70
     1
102
RTVSPost2010Prop40
 90
        0
102
RTVSPost2010PropOp40
 70
     1
102
RTVSPost2010Prop41ColorIndex
 90
       18
102
RTVSPost2010Prop41ColorRGB
 90
        0
102
RTVSPost2010PropOp41
 70
     1
102
RTVSPost2010Prop42
 90
       50
102
RTVSPost2010PropOp42
 70
     1
102
RTVSPost2010Prop43
 90
        3
102
RTVSPost2010PropOp43
 70
     1
102
RTVSPost2010Prop44ColorIndex
 90
        5
102
RTVSPost2010Prop44ColorRGB
 90
      255
102
RTVSPost2010PropOp44
 70
     1
102
RTVSPost2010Prop45
280
     0
102
RTVSPost2010PropOp45
 70
     1
102
RTVSPost2010Prop46
 90
       50
102
RTVSPost2010PropOp46
 70
     1
102
RTVSPost2010Prop47
 90
       50
102
RTVSPost2010PropOp47
 70
     1
102
RTVSPost2010Prop48
 90
       50
102
RTVSPost2010PropOp48
 70
     1
102
RTVSPost2010Prop49
280
     0
102
RTVSPost2010PropOp49
 70
     1
102
RTVSPost2010Prop50
 90
       50
102
RTVSPost2010PropOp50
 70
     1
102
RTVSPost2010Prop51ColorIndex
 90
      256
102
RTVSPost2010Prop51ColorRGB
 90
-16777216
102
RTVSPost2010PropOp51
 70
     0
102
RTVSPost2010Prop52
140
1.0
102
RTVSPost2010PropOp52
 70
     0
102
RTVSPost2010Prop53
 90
        2
102
RTVSPost2010PropOp53
 70
     1
102
RTVSPost2010Prop54
  1
strokes_ogs.tif
102
RTVSPost2010PropOp54
 70
     1
102
RTVSPost2010Prop55
280
     0
102
RTVSPost2010PropOp55
 70
     1
102
RTVSPost2010Prop56
140
1.0
102
RTVSPost2010PropOp56
 70
     1
102
RTVSPost2010Prop57
140
1.0
102
RTVSPost2010PropOp57
 70
     1
102
RTVSPropertyOp0
 70
     1
102
RTVSPropertyOp1
 70
     1
102
RTVSPropertyOp2
 70
     1
102
RTVSPropertyOp3
 70
     1
102
RTVSPropertyOp4
 70
     1
102
RTVSPropertyOp5
 70
     1
102
RTVSPropertyOp6
 70
     1
102
RTVSPropertyOp7
 70
     1
102
RTVSPropertyOp8
 70
     1
102
RTVSPropertyOp9
 70
     1
102
RTVSPropertyOp10
 70
     1
102
RTVSPropertyOp11
 70
     1
102
RTVSPropertyOp12
 70
     1
102
RTVSPropertyOp13
 70
     1
102
RTVSPropertyOp14
 70
     1
102
RTVSPropertyOp15
 70
     1
102
RTVSPropertyOp16
 70
     1
102
RTVSPropertyOp17
 70
     1
102
RTVSPropertyOp18
 70
     1
102
RTVSPropertyOp19
 70
     1
102
RTVSPropertyOp20
 70
     1
102
RTVSPropertyOp21
 70
     1
102
RTVSPropertyOp22
 70
     1
102
RTVSPropertyOp23
 70
     1
102
RTVSPropertyOp24
 70
     1
102
RTVSPropertyOp25
 70
     1
102
RTVSPropertyOp26
 70
     1
102
RTVSPropertyOp27
 70
     1
102
RTVSPropertyOp28
 70
     1
102
RTVSPropertyOp29
 70
     1
102
RTVSPropertyOp30
 70
     1
102
RTVSPropertyOp31
 70
     1
102
RTVSPropertyOp32
 70
     1
102
RTVSPropertyOp33
 70
     1
102
RTVSPropertyOp34
 70
     1
102
RTVSPropertyOp35
 70
     1
102
RTVSPropertyOp36
 70
     1
102
RTVSPropertyOp37
 70
     1
102
RTVSPropertyOp38
 70
     1
102
RTVSPropertyOp39
 70
     1
102
RTVSPropertyOp40
 70
     1
102
RTVSPropertyOp41
 70
     1
102
RTVSPropertyOp42
 70
     1
102
RTVSPropertyOp43
 70
     1
102
RTVSPropertyOp44
 70
     1
102
RTVSPropertyOp45
 70
     1
102
RTVSPropertyOp46
 70
     1
102
RTVSPropertyOp47
 70
     1
102
RTVSPropertyOp48
 70
     1
102
RTVSPropertyOp49
 70
     1
102
RTVSPropertyOp50
 70
     1
102
RTVSPropertyOp51
 70
     0
102
RTVSPropertyOp52
 70
     0
102
RTVSPropertyOp53
 70
     1
102
RTVSPropertyOp54
 70
     1
102
RTVSPropertyOp55
 70
     1
102
RTVSPropertyOp56
 70
     1
102
RTVSPropertyOp57
 70
     1
102
RTVSPropertyOp58
 70
     1
102
RTVSPropertyOp59
 70
     1
102
RTVSPropertyOp60
 70
     1
102
RTVSPropertyOp61
 70
     1
102
RTVSPropertyOp62
 70
     1
  0
ENDSEC
  0
EOF
