  0
SECTION
  2
HEADER
  9
$ACADVER
  1
AC1009
  9
$INSBASE
 10
0.0
 20
0.0
 30
0.0
  9
$EXTMIN
 10
8.9951596948105514
 20
5.0098630000000002
 30
0.0
  9
$EXTMAX
 10
55.8837130000000002
 20
30.3405190031907814
 30
0.0
  9
$LIMMIN
 10
0.0
 20
0.0
  9
$LIMMAX
 10
420.0
 20
297.0
  9
$ORTHOMODE
 70
     1
  9
$REGENMODE
 70
     1
  9
$FILLMODE
 70
     1
  9
$QTEXTMODE
 70
     0
  9
$MIRRTEXT
 70
     1
  9
$DRAGMODE
 70
     2
  9
$LTSCALE
 40
1.0
  9
$OSMODE
 70
  2199
  9
$ATTMODE
 70
     1
  9
$TEXTSIZE
 40
0.0
  9
$TRACEWID
 40
1.0
  9
$TEXTSTYLE
  7
STANDARD
  9
$CLAYER
  8
0
  9
$CELTYPE
  6
BYLAYER
  9
$CECOLOR
 62
   256
  9
$DIMSCALE
 40
1.0
  9
$DIMASZ
 40
2.5
  9
$DIMEXO
 40
0.625
  9
$DIMDLI
 40
3.75
  9
$DIMRND
 40
0.0
  9
$DIMDLE
 40
0.0
  9
$DIMEXE
 40
1.25
  9
$DIMTP
 40
0.0
  9
$DIMTM
 40
0.0
  9
$DIMTXT
 40
2.5
  9
$DIMCEN
 40
2.5
  9
$DIMTSZ
 40
0.0
  9
$DIMTOL
 70
     0
  9
$DIMLIM
 70
     0
  9
$DIMTIH
 70
     0
  9
$DIMTOH
 70
     0
  9
$DIMSE1
 70
     0
  9
$DIMSE2
 70
     0
  9
$DIMTAD
 70
     1
  9
$DIMZIN
 70
     8
  9
$DIMBLK
  1

  9
$DIMASO
 70
     1
  9
$DIMSHO
 70
     1
  9
$DIMPOST
  1

  9
$DIMAPOST
  1

  9
$DIMALT
 70
     0
  9
$DIMALTD
 70
     3
  9
$DIMALTF
 40
0.03937
  9
$DIMLFAC
 40
1.0
  9
$DIMTOFL
 70
     1
  9
$DIMTVP
 40
0.0
  9
$DIMTIX
 70
     0
  9
$DIMSOXD
 70
     0
  9
$DIMSAH
 70
     0
  9
$DIMBLK1
  1

  9
$DIMBLK2
  1

  9
$DIMSTYLE
  2
STANDARD
  9
$DIMCLRD
 70
     0
  9
$DIMCLRE
 70
     0
  9
$DIMCLRT
 70
     0
  9
$DIMTFAC
 40
1.0
  9
$DIMGAP
 40
0.625
  9
$LUNITS
 70
     2
  9
$LUPREC
 70
     4
  9
$SKETCHINC
 40
1.0
  9
$FILLETRAD
 40
2.5
  9
$AUNITS
 70
     0
  9
$AUPREC
 70
     0
  9
$MENU
  1
.
  9
$ELEVATION
 40
0.0
  9
$PELEVATION
 40
0.0
  9
$THICKNESS
 40
0.0
  9
$LIMCHECK
 70
     0
  9
$BLIPMODE
 70
     0
  9
$CHAMFERA
 40
2.5
  9
$CHAMFERB
 40
2.5
  9
$SKPOLY
 70
     0
  9
$TDCREATE
 40
2440588.083321759942919
  9
$TDUPDATE
 40
2460483.9730902779847383
  9
$TDINDWG
 40
0.0064351852
  9
$TDUSRTIMER
 40
0.0064351852
  9
$USRTIMER
 70
     1
  9
$ANGBASE
 50
0.0
  9
$ANGDIR
 70
     0
  9
$PDMODE
 70
     0
  9
$PDSIZE
 40
0.0
  9
$PLINEWID
 40
0.0
  9
$COORDS
 70
     2
  9
$SPLFRAME
 70
     0
  9
$SPLINETYPE
 70
     6
  9
$SPLINESEGS
 70
     8
  9
$ATTDIA
 70
     0
  9
$ATTREQ
 70
     0
  9
$HANDLING
 70
     1
  9
$HANDSEED
  5
13EE
  9
$SURFTAB1
 70
     6
  9
$SURFTAB2
 70
     6
  9
$SURFTYPE
 70
     6
  9
$SURFU
 70
     6
  9
$SURFV
 70
     6
  9
$UCSNAME
  2

  9
$UCSORG
 10
0.0
 20
0.0
 30
0.0
  9
$UCSXDIR
 10
1.0
 20
0.0
 30
0.0
  9
$UCSYDIR
 10
0.0
 20
1.0
 30
0.0
  9
$PUCSNAME
  2

  9
$PUCSORG
 10
0.0
 20
0.0
 30
0.0
  9
$PUCSXDIR
 10
1.0
 20
0.0
 30
0.0
  9
$PUCSYDIR
 10
0.0
 20
1.0
 30
0.0
  9
$USERI1
 70
     0
  9
$USERI2
 70
     0
  9
$USERI3
 70
     0
  9
$USERI4
 70
     0
  9
$USERI5
 70
     0
  9
$USERR1
 40
0.0
  9
$USERR2
 40
0.0
  9
$USERR3
 40
0.0
  9
$USERR4
 40
0.0
  9
$USERR5
 40
0.0
  9
$WORLDVIEW
 70
     1
  9
$SHADEDGE
 70
     3
  9
$SHADEDIF
 70
    70
  9
$TILEMODE
 70
     1
  9
$MAXACTVP
 70
    48
  9
$PLIMCHECK
 70
     0
  9
$PEXTMIN
 10
0.0
 20
0.0
 30
0.0
  9
$PEXTMAX
 10
55.8837130000000002
 20
30.3405190000000005
 30
2.0
  9
$PLIMMIN
 10
0.0
 20
0.0
  9
$PLIMMAX
 10
420.0
 20
297.0
  9
$UNITMODE
 70
     0
  9
$VISRETAIN
 70
     0
  9
$PLINEGEN
 70
     0
  9
$PSLTSCALE
 70
     1
  0
ENDSEC
  0
SECTION
  2
TABLES
  0
TABLE
  2
VPORT
 70
     1
  0
VPORT
  2
*ACTIVE
 70
     0
 10
0.0
 20
0.0
 11
1.0
 21
1.0
 12
32.4394363474052767
 22
17.6751910015953904
 13
0.0
 23
0.0
 14
1.0
 24
1.0
 15
0.0
 25
0.0
 16
0.0
 26
0.0
 36
1.0
 17
0.0
 27
0.0
 37
0.0
 40
25.4949629610493211
 41
1.8701298701298701
 42
50.0
 43
0.0
 44
0.0
 50
0.0
 51
0.0
 71
     0
 72
   100
 73
     1
 74
     1
 75
     0
 76
     0
 77
     0
 78
     0
  0
ENDTAB
  0
TABLE
  2
LTYPE
 70
     2
  0
LTYPE
  2
CONTINUOUS
 70
     0
  3
Solid line
 72
    65
 73
     0
 40
0.0
  0
ENDTAB
  0
TABLE
  2
LAYER
 70
     1
  0
LAYER
  2
0
 70
     0
 62
     7
  6
CONTINUOUS
  0
ENDTAB
  0
TABLE
  2
STYLE
 70
     1
  0
STYLE
  2
STANDARD
 70
     0
 40
0.0
 41
1.0
 50
0.0
 71
     0
 42
0.0
  3
txt
  4

  0
ENDTAB
  0
TABLE
  2
VIEW
 70
     0
  0
ENDTAB
  0
TABLE
  2
UCS
 70
     0
  0
ENDTAB
  0
TABLE
  2
APPID
 70
     5
  0
APPID
  2
ACAD
 70
     0
  0
APPID
  2
ACAD_EXEMPT_FROM_CAD_STANDARDS
 70
     0
  0
APPID
  2
DCO15
 70
     0
  0
APPID
  2
ACAD_NAV_VCDISPLAY
 70
     0
  0
APPID
  2
ACAD_MLEADERVER
 70
     0
  0
ENDTAB
  0
TABLE
  2
DIMSTYLE
 70
     2
  0
DIMSTYLE
  2
STANDARD
 70
     0
  3

  4

  5

  6

  7

 40
1.0
 41
0.18
 42
0.0625
 43
0.38
 44
0.18
 45
0.0
 46
0.0
 47
0.0
 48
0.0
140
0.18
141
0.09
142
0.0
143
25.3999999999999986
144
1.0
145
0.0
146
1.0
147
0.09
 71
     0
 72
     0
 73
     1
 74
     1
 75
     0
 76
     0
 77
     0
 78
     0
170
     0
171
     2
172
     0
173
     0
174
     0
175
     0
176
     0
177
     0
178
     0
  0
ENDTAB
  0
ENDSEC
  0
SECTION
  2
BLOCKS
  0
BLOCK
  8
0
  2
$MODEL_SPACE
 70
     0
 10
0.0
 20
0.0
 30
0.0
  3
$MODEL_SPACE
  1

  0
ENDBLK
  5
E
  8
0
  0
BLOCK
 67
     1
  8
0
  2
$PAPER_SPACE
 70
     0
 10
0.0
 20
0.0
 30
0.0
  3
$PAPER_SPACE
  1

  0
ENDBLK
  5
10
 67
     1
  8
0
  0
ENDSEC
  0
SECTION
  2
ENTITIES
  0
POLYLINE
  5
2E8
  8
0
 62
     7
 66
     1
 10
0.0
 20
0.0
 30
0.0
 70
     1
  0
VERTEX
  5
D94
  8
0
 62
     7
 10
27.8938120000000005
 20
14.4705510000000004
 30
0.0
  0
VERTEX
  5
D95
  8
0
 62
     7
 10
30.3840770000000013
 20
14.4705510000000004
 30
0.0
  0
VERTEX
  5
D96
  8
0
 62
     7
 10
30.3788109999999989
 20
15.1455509999999993
 30
0.0
  0
VERTEX
  5
D97
  8
0
 62
     7
 10
27.8938120000000005
 20
15.1506290000000003
 30
0.0
  0
SEQEND
  5
D98
  8
0
 62
     7
  0
POLYLINE
  5
6AB
  8
0
 62
     7
 66
     1
 10
0.0
 20
0.0
 30
0.0
 70
     1
  0
VERTEX
  5
DD8
  8
0
 62
     7
 10
31.3392047527264914
 20
6.578451121373333
 30
0.0
 42
0.3586466470600238
  0
VERTEX
  5
DD9
  8
0
 62
     7
 10
32.4076000477421573
 20
5.7709832902766722
 30
0.0
 42
-0.971886507333413
  0
VERTEX
  5
DDA
  8
0
 62
     7
 10
32.4737754919263324
 20
5.013431587907748
 30
0.0
 42
-2.4779406845967382
  0
VERTEX
  5
DDB
  8
0
 62
     7
 10
34.3758247824224767
 20
6.9205060988677793
 30
0.0
 42
-0.4092621714614311
  0
VERTEX
  5
DDC
  8
0
 62
     7
 10
34.0279269817814907
 20
6.5784500000000001
 30
0.0
  0
SEQEND
  5
DDD
  8
0
 62
     7
  0
POLYLINE
  5
6AC
  8
0
 62
     7
 66
     1
 10
0.0
 20
0.0
 30
0.0
 70
     1
  0
VERTEX
  5
DDE
  8
0
 62
     7
 10
33.5423234184426775
 20
7.3175514014941916
 30
0.0
 42
0.7673170746840721
  0
VERTEX
  5
DDF
  8
0
 62
     7
 10
31.3392065918609184
 20
7.3175514399458352
 30
0.0
  0
SEQEND
  5
DE0
  8
0
 62
     7
  0
POLYLINE
  5
6AD
  8
0
 62
     7
 66
     1
 10
0.0
 20
0.0
 30
0.0
 70
     1
  0
VERTEX
  5
DE1
  8
0
 62
     7
 10
29.3635517292480195
 20
7.3175511892117342
 30
0.0
 42
0.751478664138595
  0
VERTEX
  5
DE2
  8
0
 62
     7
 10
27.1219102310937394
 20
7.317551052277647
 30
0.0
  0
SEQEND
  5
DE3
  8
0
 62
     7
  0
POLYLINE
  5
6AE
  8
0
 62
     7
 66
     1
 10
0.0
 20
0.0
 30
0.0
 70
     1
  0
VERTEX
  5
DE4
  8
0
 62
     7
 10
26.6378896797126998
 20
6.5754269890599222
 30
0.0
 42
-0.3639780860934618
  0
VERTEX
  5
DE5
  8
0
 62
     7
 10
26.2943225718952185
 20
6.9542344987020668
 30
0.0
 42
-2.5199466830073498
  0
VERTEX
  5
DE6
  8
0
 62
     7
 10
28.1222304600895505
 20
5.0167872195454901
 30
0.0
 42
-0.8807222427333679
  0
VERTEX
  5
DE7
  8
0
 62
     7
 10
28.262169281858089
 20
5.7526160578229604
 30
0.0
 42
0.3121293011788262
  0
VERTEX
  5
DE8
  8
0
 62
     7
 10
29.3574880957090691
 20
6.5754270280258478
 30
0.0
  0
SEQEND
  5
DE9
  8
0
 62
     7
  0
POLYLINE
  5
6AF
  8
0
 62
     7
 66
     1
 10
0.0
 20
0.0
 30
0.0
 70
     1
  0
VERTEX
  5
DEA
  8
0
 62
     7
 10
25.9834190000000014
 20
6.9488369999999993
 30
0.0
 42
-4.417163729114554
  0
VERTEX
  5
DEB
  8
0
 62
     7
 10
25.2749400000000009
 20
8.4441670000000002
 30
0.0
  0
VERTEX
  5
DEC
  8
0
 62
     7
 10
25.2749427906917816
 20
9.5301482867706468
 30
0.0
 42
-0.8704187834220064
  0
VERTEX
  5
DED
  8
0
 62
     7
 10
25.9906690000000005
 20
9.5301489999999998
 30
0.0
  0
SEQEND
  5
DEE
  8
0
 62
     7
  0
POLYLINE
  5
6B0
  8
0
 62
     7
 66
     1
 10
0.0
 20
0.0
 30
0.0
 70
     1
  0
VERTEX
  5
DEF
  8
0
 62
     7
 10
20.7602315083703104
 20
5.2641073994017811
 30
0.0
 42
0.6665259133818193
  0
VERTEX
  5
DF0
  8
0
 62
     7
 10
21.488427999999999
 20
5.2641059999999991
 30
0.0
  0
VERTEX
  5
DF1
  8
0
 62
     7
 10
21.4884271425417488
 20
8.3913704559906286
 30
0.0
 42
0.6362310635691499
  0
VERTEX
  5
DF2
  8
0
 62
     7
 10
20.7602308515132599
 20
8.3913704432812057
 30
0.0
  0
SEQEND
  5
DF3
  8
0
 62
     7
  0
POLYLINE
  5
6B1
  8
0
 62
     7
 66
     1
 10
0.0
 20
0.0
 30
0.0
 70
     1
  0
VERTEX
  5
DF4
  8
0
 62
     7
 10
41.3806594001914618
 20
7.8811903765411406
 30
0.0
 42
0.0522719882077706
  0
VERTEX
  5
DF5
  8
0
 62
     7
 10
41.3294189828101111
 20
7.8305170642073154
 30
0.0
 42
0.0572409516409112
  0
VERTEX
  5
DF6
  8
0
 62
     7
 10
41.2915759999999992
 20
7.7717549999999997
 30
0.0
  0
VERTEX
  5
DF7
  8
0
 62
     7
 10
41.268810000000002
 20
7.7255509999999994
 30
0.0
  0
VERTEX
  5
DF8
  8
0
 62
     7
 10
41.2661549999999906
 20
6.5005879999999987
 30
0.0
  0
VERTEX
  5
DF9
  8
0
 62
     7
 10
41.2649742589753714
 20
5.559800202421167
 30
0.0
 42
0.0139169888364881
  0
VERTEX
  5
DFA
  8
0
 62
     7
 10
41.2714239852764919
 20
5.3250876720550888
 30
0.0
 42
0.0619269653922724
  0
VERTEX
  5
DFB
  8
0
 62
     7
 10
41.2930513243997268
 20
5.2055469621322539
 30
0.0
 42
0.1078149827591758
  0
VERTEX
  5
DFC
  8
0
 62
     7
 10
41.3426915932170473
 20
5.1183482249325074
 30
0.0
 42
0.0432079798820125
  0
VERTEX
  5
DFD
  8
0
 62
     7
 10
41.3910446977953796
 20
5.0731105727376473
 30
0.0
 42
0.0628879719567776
  0
VERTEX
  5
DFE
  8
0
 62
     7
 10
41.4410618361027971
 20
5.0431169217285454
 30
0.0
 42
0.0622090853527805
  0
VERTEX
  5
DFF
  8
0
 62
     7
 10
41.4973819921019995
 20
5.0262952948229396
 30
0.0
 42
0.0412079665575971
  0
VERTEX
  5
E00
  8
0
 62
     7
 10
41.5647151928081229
 20
5.0206486024315469
 30
0.0
 42
0.014874007230825
  0
VERTEX
  5
E01
  8
0
 62
     7
 10
41.6079297062534579
 20
5.0218804844817591
 30
0.0
 42
0.0406620262010334
  0
VERTEX
  5
E02
  8
0
 62
     7
 10
41.638177044099578
 20
5.0261248120847561
 30
0.0
 42
0.0427619718061901
  0
VERTEX
  5
E03
  8
0
 62
     7
 10
41.6664657144576935
 20
5.0350711713622562
 30
0.0
 42
0.0179280488047859
  0
VERTEX
  5
E04
  8
0
 62
     7
 10
41.702851596072577
 20
5.0516487575825844
 30
0.0
 42
0.0485330026126528
  0
VERTEX
  5
E05
  8
0
 62
     7
 10
41.7517034176319726
 20
5.082306893049263
 30
0.0
 42
0.0426990339712566
  0
VERTEX
  5
E06
  8
0
 62
     7
 10
41.7960549169957289
 20
5.1230256985304994
 30
0.0
 42
0.0435750579738673
  0
VERTEX
  5
E07
  8
0
 62
     7
 10
41.8319259691962486
 20
5.1696622781894197
 30
0.0
 42
0.0571520295033762
  0
VERTEX
  5
E08
  8
0
 62
     7
 10
41.8554933327233485
 20
5.2179096139127559
 30
0.0
 42
0.0810991071932292
  0
VERTEX
  5
E09
  8
0
 62
     7
 10
41.8631280150780185
 20
5.260295550355627
 30
0.0
 42
0.0014919041881625
  0
VERTEX
  5
E0A
  8
0
 62
     7
 10
41.866210173491929
 20
5.4885754847991768
 30
0.0
 42
0.0022339858890128
  0
VERTEX
  5
E0B
  8
0
 62
     7
 10
41.8682979999999887
 20
5.8348559999999994
 30
0.0
  0
VERTEX
  5
E0C
  8
0
 62
     7
 10
41.8688130000000029
 20
6.4855510000000001
 30
0.0
  0
VERTEX
  5
E0D
  8
0
 62
     7
 10
41.8688130000000029
 20
7.7155509999999987
 30
0.0
  0
VERTEX
  5
E0E
  8
0
 62
     7
 10
41.8474391071383565
 20
7.7617759237327979
 30
0.0
 42
0.0837829990102888
  0
VERTEX
  5
E0F
  8
0
 62
     7
 10
41.7882916153431907
 20
7.8481846432752951
 30
0.0
 42
0.0803790111292742
  0
VERTEX
  5
E10
  8
0
 62
     7
 10
41.7032854024306019
 20
7.9118580418492588
 30
0.0
 42
0.0819209967647032
  0
VERTEX
  5
E11
  8
0
 62
     7
 10
41.6040761946963613
 20
7.9446303109364163
 30
0.0
 42
0.0922960097387552
  0
VERTEX
  5
E12
  8
0
 62
     7
 10
41.5038116645729929
 20
7.9417709632172544
 30
0.0
 42
0.0628429747696844
  0
VERTEX
  5
E13
  8
0
 62
     7
 10
41.4405113856012832
 20
7.9195157049504283
 30
0.0
 42
0.0529920363518339
  0
SEQEND
  5
E14
  8
0
 62
     7
  0
POLYLINE
  5
6B2
  8
0
 62
     7
 66
     1
 10
0.0
 20
0.0
 30
0.0
 70
     1
  0
VERTEX
  5
E15
  8
0
 62
     7
 10
13.3495707526662404
 20
7.9117090792576796
 30
0.0
 42
0.0552140214597177
  0
VERTEX
  5
E16
  8
0
 62
     7
 10
13.2931154770851006
 20
7.872747945087033
 30
0.0
 42
0.0545749909379705
  0
VERTEX
  5
E17
  8
0
 62
     7
 10
13.2460027572390704
 20
7.8219130120405236
 30
0.0
 42
0.0512899968560528
  0
VERTEX
  5
E18
  8
0
 62
     7
 10
13.2098683365289506
 20
7.76105762895852
 30
0.0
 42
0.0955090384664263
  0
VERTEX
  5
E19
  8
0
 62
     7
 10
13.1962525193645295
 20
7.7061183469197436
 30
0.0
 42
0.0090110341084969
  0
VERTEX
  5
E1A
  8
0
 62
     7
 10
13.1914489033277391
 20
7.5667137562877986
 30
0.0
 42
0.0038950011753918
  0
VERTEX
  5
E1B
  8
0
 62
     7
 10
13.1891660000000002
 20
7.3032709999999996
 30
0.0
  0
VERTEX
  5
E1C
  8
0
 62
     7
 10
13.1888120000000004
 20
6.4805510000000002
 30
0.0
  0
VERTEX
  5
E1D
  8
0
 62
     7
 10
13.1888120000000004
 20
5.245550999999999
 30
0.0
  0
VERTEX
  5
E1E
  8
0
 62
     7
 10
13.2105120902224193
 20
5.198587319327979
 30
0.0
 42
0.0514480115923987
  0
VERTEX
  5
E1F
  8
0
 62
     7
 10
13.2360888484580705
 20
5.1554977039454544
 30
0.0
 42
0.0326479970689266
  0
VERTEX
  5
E20
  8
0
 62
     7
 10
13.2738957496890801
 20
5.1109500266770542
 30
0.0
 42
0.0327030117997153
  0
VERTEX
  5
E21
  8
0
 62
     7
 10
13.3170331288156305
 20
5.0718441199039983
 30
0.0
 42
0.0529370442721449
  0
VERTEX
  5
E22
  8
0
 62
     7
 10
13.3588117760267906
 20
5.0453430124419816
 30
0.0
 42
0.0412490121755882
  0
VERTEX
  5
E23
  8
0
 62
     7
 10
13.3834154519937396
 20
5.0356004620546031
 30
0.0
 42
0.0372689200372296
  0
VERTEX
  5
E24
  8
0
 62
     7
 10
13.41013171440947
 20
5.0296259391144789
 30
0.0
 42
0.0269910042427085
  0
VERTEX
  5
E25
  8
0
 62
     7
 10
13.4443420294504996
 20
5.0264819965259671
 30
0.0
 42
0.0094089898466933
  0
VERTEX
  5
E26
  8
0
 62
     7
 10
13.4938115417874194
 20
5.0255510000006991
 30
0.0
 42
0.0081949886121624
  0
VERTEX
  5
E27
  8
0
 62
     7
 10
13.5494881375340501
 20
5.0264646485973667
 30
0.0
 42
0.0395409683396855
  0
VERTEX
  5
E28
  8
0
 62
     7
 10
13.5809304165687994
 20
5.0299955076960314
 30
0.0
 42
0.0564229876219921
  0
VERTEX
  5
E29
  8
0
 62
     7
 10
13.6059666033040791
 20
5.0378370448291054
 30
0.0
 42
0.0287899306701097
  0
VERTEX
  5
E2A
  8
0
 62
     7
 10
13.6353216428868809
 20
5.0528931524520049
 30
0.0
 42
0.027299028586578
  0
VERTEX
  5
E2B
  8
0
 62
     7
 10
13.6560382307117099
 20
5.0666438613205731
 30
0.0
 42
0.0148260742848589
  0
VERTEX
  5
E2C
  8
0
 62
     7
 10
13.6799907845703501
 20
5.0856306688765294
 30
0.0
 42
0.0147319979477419
  0
VERTEX
  5
E2D
  8
0
 62
     7
 10
13.7032818647799495
 20
5.1064498528844773
 30
0.0
 42
0.0225470114135238
  0
VERTEX
  5
E2E
  8
0
 62
     7
 10
13.7220717290369496
 20
5.1259475281837021
 30
0.0
 42
0.1116479332014987
  0
VERTEX
  5
E2F
  8
0
 62
     7
 10
13.7670777119190593
 20
5.2084444684038846
 30
0.0
 42
0.0560910127668709
  0
VERTEX
  5
E30
  8
0
 62
     7
 10
13.7866673172557501
 20
5.3261149128652869
 30
0.0
 42
0.0127999619621466
  0
VERTEX
  5
E31
  8
0
 62
     7
 10
13.7930229999999998
 20
5.5587419999999987
 30
0.0
  0
VERTEX
  5
E32
  8
0
 62
     7
 10
13.7938120000000009
 20
6.4805510000000002
 30
0.0
  0
VERTEX
  5
E33
  8
0
 62
     7
 10
13.79298071077943
 20
7.4146981656557021
 30
0.0
 42
0.0143579994991908
  0
VERTEX
  5
E34
  8
0
 62
     7
 10
13.7860448004934106
 20
7.6420719829394121
 30
0.0
 42
0.0655169995539242
  0
VERTEX
  5
E35
  8
0
 62
     7
 10
13.7637299442172001
 20
7.7580604725559752
 30
0.0
 42
0.10527699807418
  0
VERTEX
  5
E36
  8
0
 62
     7
 10
13.7129519082984004
 20
7.8445888679360012
 30
0.0
 42
0.0659290068536608
  0
VERTEX
  5
E37
  8
0
 62
     7
 10
13.6485903887409901
 20
7.898653183485898
 30
0.0
 42
0.0666910068311816
  0
VERTEX
  5
E38
  8
0
 62
     7
 10
13.5726144364268109
 20
7.9338475616906301
 30
0.0
 42
0.068357997595995
  0
VERTEX
  5
E39
  8
0
 62
     7
 10
13.4918196155113801
 20
7.9472278344605387
 30
0.0
 42
0.0757149827170702
  0
VERTEX
  5
E3A
  8
0
 62
     7
 10
13.4133175715321702
 20
7.9374812271999069
 30
0.0
 42
0.0548219849530802
  0
SEQEND
  5
E3B
  8
0
 62
     7
  0
POLYLINE
  5
6B3
  8
0
 62
     7
 66
     1
 10
0.0
 20
0.0
 30
0.0
 70
     1
  0
VERTEX
  5
E3C
  8
0
 62
     7
 10
51.0788142476149005
 20
7.5160538213550403
 30
0.0
 42
0.015477013353965
  0
VERTEX
  5
E3D
  8
0
 62
     7
 10
51.0272629537966722
 20
7.5294000363131008
 30
0.0
 42
0.0222050087993813
  0
VERTEX
  5
E3E
  8
0
 62
     7
 10
50.9808223528275306
 20
7.5377540713783926
 30
0.0
 42
0.0190669734807287
  0
VERTEX
  5
E3F
  8
0
 62
     7
 10
50.9288619479455207
 20
7.542726749272715
 30
0.0
 42
0.0080519843499269
  0
VERTEX
  5
E40
  8
0
 62
     7
 10
50.8588111353232435
 20
7.5456140095547033
 30
0.0
 42
0.005078004928881
  0
VERTEX
  5
E41
  8
0
 62
     7
 10
50.7654074757050608
 20
7.547012162658703
 30
0.0
 42
0.0256750039975925
  0
VERTEX
  5
E42
  8
0
 62
     7
 10
50.7133496055840567
 20
7.5445863661890993
 30
0.0
 42
0.0292329885814424
  0
VERTEX
  5
E43
  8
0
 62
     7
 10
50.66480938704035
 20
7.5369360842060571
 30
0.0
 42
0.0078570100091846
  0
VERTEX
  5
E44
  8
0
 62
     7
 10
50.5888080172584083
 20
7.5191022933226126
 30
0.0
 42
0.0589389906752231
  0
VERTEX
  5
E45
  8
0
 62
     7
 10
50.3910408762765911
 20
7.4437679778981369
 30
0.0
 42
0.0553929659182928
  0
VERTEX
  5
E46
  8
0
 62
     7
 10
50.2117583289760177
 20
7.3231117530072272
 30
0.0
 42
0.0546310036153809
  0
VERTEX
  5
E47
  8
0
 62
     7
 10
50.061174566011978
 20
7.1642384084855957
 30
0.0
 42
0.0542139735800165
  0
VERTEX
  5
E48
  8
0
 62
     7
 10
49.9481284390915476
 20
6.976127301974592
 30
0.0
 42
0.0050719833878771
  0
VERTEX
  5
E49
  8
0
 62
     7
 10
49.9349782128385229
 20
6.9469020936043107
 30
0.0
 42
0.0071310431398507
  0
VERTEX
  5
E4A
  8
0
 62
     7
 10
49.9238910589913516
 20
6.920547149117243
 30
0.0
 42
0.0044600090359666
  0
VERTEX
  5
E4B
  8
0
 62
     7
 10
49.915116661106758
 20
6.8982685978735949
 30
0.0
 42
0.0917959870344531
  0
VERTEX
  5
E4C
  8
0
 62
     7
 10
49.9138120000000072
 20
6.8912050075723199
 30
0.0
 42
0.4104410093802661
  0
VERTEX
  5
E4D
  8
0
 62
     7
 10
49.9192627999174121
 20
6.8856844591253896
 30
0.0
  0
VERTEX
  5
E4E
  8
0
 62
     7
 10
50.1321069999999978
 20
6.8830799999999996
 30
0.0
 42
0.0022369660536036
  0
VERTEX
  5
E4F
  8
0
 62
     7
 10
50.4090284182234569
 20
6.8811056014988159
 30
0.0
  0
VERTEX
  5
E50
  8
0
 62
     7
 10
50.8335609999999889
 20
6.8805509999999988
 30
0.0
  0
VERTEX
  5
E51
  8
0
 62
     7
 10
51.7533189999999905
 20
6.8805509999999988
 30
0.0
  0
VERTEX
  5
E52
  8
0
 62
     7
 10
51.7446559999999991
 20
6.9030509999999987
 30
0.0
 42
0.0542319989495983
  0
VERTEX
  5
E53
  8
0
 62
     7
 10
51.6352121451650703
 20
7.1154341034856321
 30
0.0
 42
0.060703002309858
  0
VERTEX
  5
E54
  8
0
 62
     7
 10
51.4860775738613015
 20
7.290550863203312
 30
0.0
 42
0.0607289984770953
  0
VERTEX
  5
E55
  8
0
 62
     7
 10
51.2993169063736616
 20
7.4246691142034722
 30
0.0
 42
0.0543539807310786
  0
SEQEND
  5
E56
  8
0
 62
     7
  0
POLYLINE
  5
6B4
  8
0
 62
     7
 66
     1
 10
0.0
 20
0.0
 30
0.0
 70
     1
  0
VERTEX
  5
E57
  8
0
 62
     7
 10
50.3953393938609011
 20
8.0895754173934087
 30
0.0
 42
0.0364990041129722
  0
VERTEX
  5
E58
  8
0
 62
     7
 10
50.163717915190972
 20
8.0008924234381453
 30
0.0
 42
0.0371539926297531
  0
VERTEX
  5
E59
  8
0
 62
     7
 10
49.9513649844413408
 20
7.8813005431998624
 30
0.0
 42
0.0403810082120186
  0
VERTEX
  5
E5A
  8
0
 62
     7
 10
49.7652883226478977
 20
7.7345136068728317
 30
0.0
 42
0.0213139760840516
  0
VERTEX
  5
E5B
  8
0
 62
     7
 10
49.6882516087227586
 20
7.6565673312814972
 30
0.0
 42
0.0137409910893049
  0
VERTEX
  5
E5C
  8
0
 62
     7
 10
49.6055103934178234
 20
7.5602017598011431
 30
0.0
 42
0.0137820010016996
  0
VERTEX
  5
E5D
  8
0
 62
     7
 10
49.528804409208071
 20
7.4602159613595349
 30
0.0
 42
0.0227850132752672
  0
VERTEX
  5
E5E
  8
0
 62
     7
 10
49.4703832925732385
 20
7.3712932363135906
 30
0.0
 42
0.0894530339206457
  0
VERTEX
  5
E5F
  8
0
 62
     7
 10
49.2818206190293893
 20
6.866187914932711
 30
0.0
 42
0.0860479800920261
  0
VERTEX
  5
E60
  8
0
 62
     7
 10
49.2778904718810509
 20
6.3198413605402912
 30
0.0
 42
0.0863279620702626
  0
VERTEX
  5
E61
  8
0
 62
     7
 10
49.4579197301623026
 20
5.8055541232280747
 30
0.0
 42
0.0908500487189851
  0
VERTEX
  5
E62
  8
0
 62
     7
 10
49.7988110580579502
 20
5.392638681606714
 30
0.0
 42
0.0432960609486712
  0
VERTEX
  5
E63
  8
0
 62
     7
 10
50.0344478870307512
 20
5.2269295231698578
 30
0.0
 42
0.0430529904781799
  0
VERTEX
  5
E64
  8
0
 62
     7
 10
50.2955289386850097
 20
5.1039152826556418
 30
0.0
 42
0.0443799649574286
  0
VERTEX
  5
E65
  8
0
 62
     7
 10
50.5655221626657791
 20
5.030481698682812
 30
0.0
 42
0.0535169669379865
  0
VERTEX
  5
E66
  8
0
 62
     7
 10
50.8275960878098232
 20
5.012124096124901
 30
0.0
 42
0.0080400367977826
  0
VERTEX
  5
E67
  8
0
 62
     7
 10
50.88540497818164
 20
5.0151969356932753
 30
0.0
 42
0.0343720607736225
  0
VERTEX
  5
E68
  8
0
 62
     7
 10
50.9195953277404882
 20
5.0199402839838934
 30
0.0
 42
0.0495609815162257
  0
VERTEX
  5
E69
  8
0
 62
     7
 10
50.9463645418727893
 20
5.0283862274246021
 30
0.0
 42
0.0313639924623708
  0
VERTEX
  5
E6A
  8
0
 62
     7
 10
50.9756119748160614
 20
5.043146289500668
 30
0.0
 42
0.0616580037343583
  0
VERTEX
  5
E6B
  8
0
 62
     7
 10
51.0406488218559815
 20
5.0929242634744023
 30
0.0
 42
0.0739560568223871
  0
VERTEX
  5
E6C
  8
0
 62
     7
 10
51.0870526185254334
 20
5.154381184413622
 30
0.0
 42
0.0717030349422625
  0
VERTEX
  5
E6D
  8
0
 62
     7
 10
51.1145293723385592
 20
5.2282918514479944
 30
0.0
 42
0.0535899690271398
  0
VERTEX
  5
E6E
  8
0
 62
     7
 10
51.1237126661816106
 20
5.3148334716710259
 30
0.0
 42
0.0435670011028782
  0
VERTEX
  5
E6F
  8
0
 62
     7
 10
51.1183343376071804
 20
5.3754912667468071
 30
0.0
 42
0.0545130005886258
  0
VERTEX
  5
E70
  8
0
 62
     7
 10
51.1024895190592829
 20
5.429692499702143
 30
0.0
 42
0.055583004726798
  0
VERTEX
  5
E71
  8
0
 62
     7
 10
51.0756166719065732
 20
5.4783574339145842
 30
0.0
 42
0.0480939898754238
  0
VERTEX
  5
E72
  8
0
 62
     7
 10
51.0375054213522787
 20
5.5225585361338618
 30
0.0
 42
0.0480710032281936
  0
VERTEX
  5
E73
  8
0
 62
     7
 10
50.991149730671431
 20
5.5590622647449921
 30
0.0
 42
0.0574170037638638
  0
VERTEX
  5
E74
  8
0
 62
     7
 10
50.9412565502212829
 20
5.5835480069255752
 30
0.0
 42
0.0461060046773483
  0
VERTEX
  5
E75
  8
0
 62
     7
 10
50.8787292128050126
 20
5.5994746726420859
 30
0.0
 42
0.0189830189472083
  0
VERTEX
  5
E76
  8
0
 62
     7
 10
50.7918296014578488
 20
5.6098880412191958
 30
0.0
 42
-0.0124549120786279
  0
VERTEX
  5
E77
  8
0
 62
     7
 10
50.6979111549546886
 20
5.6199046059332458
 30
0.0
 42
-0.0206069337479471
  0
VERTEX
  5
E78
  8
0
 62
     7
 10
50.6193711181888801
 20
5.6335761453896724
 30
0.0
 42
-0.022372966693755
  0
VERTEX
  5
E79
  8
0
 62
     7
 10
50.5470016158690214
 20
5.6526960078328496
 30
0.0
 42
-0.0187749277390247
  0
VERTEX
  5
E7A
  8
0
 62
     7
 10
50.4721955454901092
 20
5.6792083697835034
 30
0.0
 42
-0.0454139185930252
  0
VERTEX
  5
E7B
  8
0
 62
     7
 10
50.313775770619003
 20
5.7594599227923657
 30
0.0
 42
-0.0472819392845344
  0
VERTEX
  5
E7C
  8
0
 62
     7
 10
50.1747436654583296
 20
5.8660675706345407
 30
0.0
 42
-0.046475989670954
  0
VERTEX
  5
E7D
  8
0
 62
     7
 10
50.0562203629622431
 20
5.9986967724614351
 30
0.0
 42
-0.0411630049157722
  0
VERTEX
  5
E7E
  8
0
 62
     7
 10
49.9587404083493993
 20
6.1562406315224321
 30
0.0
 42
-0.0055360140483907
  0
VERTEX
  5
E7F
  8
0
 62
     7
 10
49.9415273045903305
 20
6.1909134433436668
 30
0.0
 42
-0.0077950121172157
  0
VERTEX
  5
E80
  8
0
 62
     7
 10
49.9270089595753177
 20
6.2222334070548131
 30
0.0
 42
-0.0049109858428617
  0
VERTEX
  5
E81
  8
0
 62
     7
 10
49.9155364092238898
 20
6.2487310895530941
 30
0.0
 42
-0.1000460240381724
  0
VERTEX
  5
E82
  8
0
 62
     7
 10
49.9138149999999996
 20
6.2572529970326602
 30
0.0
 42
-0.4094130124280468
  0
VERTEX
  5
E83
  8
0
 62
     7
 10
49.9214130000000011
 20
6.2649800000000004
 30
0.0
  0
VERTEX
  5
E84
  8
0
 62
     7
 10
50.1342661517277293
 20
6.2682009962083596
 30
0.0
 42
-0.0024620056872128
  0
VERTEX
  5
E85
  8
0
 62
     7
 10
50.4451099999999926
 20
6.270980999999999
 30
0.0
  0
VERTEX
  5
E86
  8
0
 62
     7
 10
51.0413130000000024
 20
6.2728820000000001
 30
0.0
  0
VERTEX
  5
E87
  8
0
 62
     7
 10
52.1688120000000026
 20
6.2755510000000001
 30
0.0
  0
VERTEX
  5
E88
  8
0
 62
     7
 10
52.216173066625899
 20
6.2990865660998923
 30
0.0
 42
0.0644929775388596
  0
VERTEX
  5
E89
  8
0
 62
     7
 10
52.285424759810823
 20
6.3454548207449806
 30
0.0
 42
0.0610229938517861
  0
VERTEX
  5
E8A
  8
0
 62
     7
 10
52.3420593947166282
 20
6.4087250609834037
 30
0.0
 42
0.0611570098262123
  0
VERTEX
  5
E8B
  8
0
 62
     7
 10
52.381639436769909
 20
6.4836518041027587
 30
0.0
 42
0.0653480732864156
  0
VERTEX
  5
E8C
  8
0
 62
     7
 10
52.4008002341678178
 20
6.5642671679913489
 30
0.0
 42
0.0514780407628374
  0
VERTEX
  5
E8D
  8
0
 62
     7
 10
52.400798671106493
 20
6.6876995915653534
 30
0.0
 42
0.0205660058922851
  0
VERTEX
  5
E8E
  8
0
 62
     7
 10
52.3765036527222634
 20
6.8552446812840877
 30
0.0
 42
0.0206719967834623
  0
VERTEX
  5
E8F
  8
0
 62
     7
 10
52.3369308784770269
 20
7.0269713099115947
 30
0.0
 42
0.0344809935520449
  0
VERTEX
  5
E90
  8
0
 62
     7
 10
52.2879320367614895
 20
7.1669329086427203
 30
0.0
 42
0.0206580019956934
  0
VERTEX
  5
E91
  8
0
 62
     7
 10
52.2156509825317201
 20
7.3177206647998956
 30
0.0
 42
0.0269959907885187
  0
VERTEX
  5
E92
  8
0
 62
     7
 10
52.1367464136854224
 20
7.4486739427401272
 30
0.0
 42
0.0268070094977917
  0
VERTEX
  5
E93
  8
0
 62
     7
 10
52.0437265859131486
 20
7.5710717541031833
 30
0.0
 42
0.0199240114639932
  0
VERTEX
  5
E94
  8
0
 62
     7
 10
51.9288110673426928
 20
7.6960909757047897
 30
0.0
 42
0.0267940018219076
  0
VERTEX
  5
E95
  8
0
 62
     7
 10
51.7926550079793202
 20
7.8189423104795761
 30
0.0
 42
0.0310089966220937
  0
VERTEX
  5
E96
  8
0
 62
     7
 10
51.6503708293433306
 20
7.9202022757199879
 30
0.0
 42
0.0311620002642268
  0
VERTEX
  5
E97
  8
0
 62
     7
 10
51.4972793465926699
 20
8.0026833292753565
 30
0.0
 42
0.0275639942691765
  0
VERTEX
  5
E98
  8
0
 62
     7
 10
51.3288123072316012
 20
8.0693426493613032
 30
0.0
 42
0.0161919747444295
  0
VERTEX
  5
E99
  8
0
 62
     7
 10
51.2102059583002287
 20
8.1046442783437698
 30
0.0
 42
0.0245010114511751
  0
VERTEX
  5
E9A
  8
0
 62
     7
 10
51.1048432468411207
 20
8.1268711451513607
 30
0.0
 42
0.0230000020964638
  0
VERTEX
  5
E9B
  8
0
 62
     7
 10
50.9930547237123335
 20
8.1395468204701018
 30
0.0
 42
0.0122169962275881
  0
VERTEX
  5
E9C
  8
0
 62
     7
 10
50.8538152300136517
 20
8.1454681640505537
 30
0.0
 42
0.0025250081016274
  0
VERTEX
  5
E9D
  8
0
 62
     7
 10
50.7807663897532393
 20
8.1464181719681772
 30
0.0
 42
0.0033559927713393
  0
VERTEX
  5
E9E
  8
0
 62
     7
 10
50.7143426378836821
 20
8.1465020316897601
 30
0.0
 42
0.0023860092416831
  0
VERTEX
  5
E9F
  8
0
 62
     7
 10
50.6586982061878217
 20
8.1459312781251132
 30
0.0
 42
0.0336179934585331
  0
VERTEX
  5
EA0
  8
0
 62
     7
 10
50.6388134142563686
 20
8.1442927423886822
 30
0.0
 42
0.0358350075585051
  0
SEQEND
  5
EA1
  8
0
 62
     7
  0
POLYLINE
  5
6B5
  8
0
 62
     7
 66
     1
 10
0.0
 20
0.0
 30
0.0
 70
     1
  0
VERTEX
  5
EA2
  8
0
 62
     7
 10
16.6828769396847107
 20
7.4968563666087347
 30
0.0
 42
0.0236820118205375
  0
VERTEX
  5
EA3
  8
0
 62
     7
 10
16.6088133317413593
 20
7.5208199060010612
 30
0.0
 42
0.0377629928507521
  0
VERTEX
  5
EA4
  8
0
 62
     7
 10
16.5129645679954216
 20
7.5392595805750293
 30
0.0
 42
0.022227993034461
  0
VERTEX
  5
EA5
  8
0
 62
     7
 10
16.396513794112721
 20
7.5474381052838888
 30
0.0
 42
0.0222370033848729
  0
VERTEX
  5
EA6
  8
0
 62
     7
 10
16.279957962145339
 20
7.5452471185124921
 30
0.0
 42
0.0382110012019172
  0
VERTEX
  5
EA7
  8
0
 62
     7
 10
16.1838133389291912
 20
7.5317340743598136
 30
0.0
 42
0.0200860079174592
  0
VERTEX
  5
EA8
  8
0
 62
     7
 10
16.1031390301467709
 20
7.5105997050617006
 30
0.0
 42
0.0184229912912161
  0
VERTEX
  5
EA9
  8
0
 62
     7
 10
16.0220211047925893
 20
7.4825235533349641
 30
0.0
 42
0.0187029600047704
  0
VERTEX
  5
EAA
  8
0
 62
     7
 10
15.9445761188536608
 20
7.4490983424187682
 30
0.0
 42
0.0228060073998221
  0
VERTEX
  5
EAB
  8
0
 62
     7
 10
15.8749424111306592
 20
7.411916398993414
 30
0.0
 42
0.0337220019600177
  0
VERTEX
  5
EAC
  8
0
 62
     7
 10
15.8087801213590406
 20
7.3663150701660767
 30
0.0
 42
0.0177760345557166
  0
VERTEX
  5
EAD
  8
0
 62
     7
 10
15.7328454996478495
 20
7.30151198951756
 30
0.0
 42
0.017671993348863
  0
VERTEX
  5
EAE
  8
0
 62
     7
 10
15.6600463092702107
 20
7.229878006378863
 30
0.0
 42
0.0275419820590071
  0
VERTEX
  5
EAF
  8
0
 62
     7
 10
15.6031659772880502
 20
7.1627646180006836
 30
0.0
 42
0.0252909917877248
  0
VERTEX
  5
EB0
  8
0
 62
     7
 10
15.5655677099972305
 20
7.1074990675325642
 30
0.0
 42
0.0102459822802881
  0
VERTEX
  5
EB1
  8
0
 62
     7
 10
15.5197840411914996
 20
7.0287015757546563
 30
0.0
 42
0.0093499794370212
  0
VERTEX
  5
EB2
  8
0
 62
     7
 10
15.4783450160238907
 20
6.9504728951175023
 30
0.0
 42
0.0433550020656288
  0
VERTEX
  5
EB3
  8
0
 62
     7
 10
15.4593040127222299
 20
6.9030524613713142
 30
0.0
  0
VERTEX
  5
EB4
  8
0
 62
     7
 10
15.4524640000000009
 20
6.8805509999999988
 30
0.0
  0
VERTEX
  5
EB5
  8
0
 62
     7
 10
16.3731380000000009
 20
6.8805509999999988
 30
0.0
  0
VERTEX
  5
EB6
  8
0
 62
     7
 10
16.7261699999999998
 20
6.8810079999999996
 30
0.0
 42
0.0010770561878542
  0
VERTEX
  5
EB7
  8
0
 62
     7
 10
17.0233629528334589
 20
6.8824203681115668
 30
0.0
  0
VERTEX
  5
EB8
  8
0
 62
     7
 10
17.2912220000000012
 20
6.8842840000000001
 30
0.0
 42
0.4121419932771226
  0
VERTEX
  5
EB9
  8
0
 62
     7
 10
17.2938119999999991
 20
6.886893997950895
 30
0.0
 42
0.1167659966956132
  0
VERTEX
  5
EBA
  8
0
 62
     7
 10
17.2881140816949816
 20
6.9109517246666661
 30
0.0
 42
0.0035229965768568
  0
VERTEX
  5
EBB
  8
0
 62
     7
 10
17.241017283088599
 20
7.0032126587532808
 30
0.0
 42
0.0073150060774356
  0
VERTEX
  5
EBC
  8
0
 62
     7
 10
17.1935875116760997
 20
7.0913503582845303
 30
0.0
 42
0.0278759932646805
  0
VERTEX
  5
EBD
  8
0
 62
     7
 10
17.1602132912155092
 20
7.144109664710764
 30
0.0
 42
0.0301810016362692
  0
VERTEX
  5
EBE
  8
0
 62
     7
 10
17.1115708897014898
 20
7.2042428686715052
 30
0.0
 42
0.016156007191933
  0
VERTEX
  5
EBF
  8
0
 62
     7
 10
17.0448528023750789
 20
7.272666162210335
 30
0.0
 42
0.0161500016927627
  0
VERTEX
  5
EC0
  8
0
 62
     7
 10
16.9735926266484007
 20
7.3368778692954519
 30
0.0
 42
0.0291510061125396
  0
VERTEX
  5
EC1
  8
0
 62
     7
 10
16.9107113535015117
 20
7.3839737644578163
 30
0.0
 42
0.0234270174454881
  0
VERTEX
  5
EC2
  8
0
 62
     7
 10
16.8435303635876892
 20
7.4240347635751087
 30
0.0
 42
0.0163189940924763
  0
VERTEX
  5
EC3
  8
0
 62
     7
 10
16.764339545305269
 20
7.4630931711445969
 30
0.0
 42
0.0163310051578936
  0
SEQEND
  5
EC4
  8
0
 62
     7
  0
POLYLINE
  5
6B6
  8
0
 62
     7
 66
     1
 10
0.0
 20
0.0
 30
0.0
 70
     1
  0
VERTEX
  5
EC5
  8
0
 62
     7
 10
15.7202899198254205
 20
8.0080044095193816
 30
0.0
 42
0.0681690357279675
  0
VERTEX
  5
EC6
  8
0
 62
     7
 10
15.3529047612299401
 20
7.7731445792845868
 30
0.0
 42
0.0685019864164261
  0
VERTEX
  5
EC7
  8
0
 62
     7
 10
15.0636493471852209
 20
7.4493327094385586
 30
0.0
 42
0.0691299617789981
  0
VERTEX
  5
EC8
  8
0
 62
     7
 10
14.8737169924631001
 20
7.0603752719994111
 30
0.0
 42
0.0213820138315683
  0
VERTEX
  5
EC9
  8
0
 62
     7
 10
14.8422545220795197
 20
6.9482037233717149
 30
0.0
 42
0.0207790270581654
  0
VERTEX
  5
ECA
  8
0
 62
     7
 10
14.8201390327031604
 20
6.8326804584897154
 30
0.0
 42
0.0199059881574495
  0
VERTEX
  5
ECB
  8
0
 62
     7
 10
14.8069764205458405
 20
6.7110556949111508
 30
0.0
 42
0.0163739648319763
  0
VERTEX
  5
ECC
  8
0
 62
     7
 10
14.8023769265565601
 20
6.5805511047788121
 30
0.0
 42
0.0217129902302936
  0
VERTEX
  5
ECD
  8
0
 62
     7
 10
14.8091755092273001
 20
6.4145321375079503
 30
0.0
 42
0.0276609819311478
  0
VERTEX
  5
ECE
  8
0
 62
     7
 10
14.8305049581606205
 20
6.2627992824510912
 30
0.0
 42
0.0277969864866541
  0
VERTEX
  5
ECF
  8
0
 62
     7
 10
14.8683435357923397
 20
6.1149509839016334
 30
0.0
 42
0.0222880184505118
  0
VERTEX
  5
ED0
  8
0
 62
     7
 10
14.9247977769505802
 20
5.9606321617719757
 30
0.0
 42
0.0739749963407447
  0
VERTEX
  5
ED1
  8
0
 62
     7
 10
15.1468955722918501
 20
5.5925759166494382
 30
0.0
 42
0.0686199553732473
  0
VERTEX
  5
ED2
  8
0
 62
     7
 10
15.4716015471433401
 20
5.2942119236122256
 30
0.0
 42
0.06843395895262
  0
VERTEX
  5
ED3
  8
0
 62
     7
 10
15.8658337794738404
 20
5.0942217763059361
 30
0.0
 42
0.0728470700204169
  0
VERTEX
  5
ED4
  8
0
 62
     7
 10
16.2910487395202885
 20
5.0136004697485594
 30
0.0
 42
0.0151019809793431
  0
VERTEX
  5
ED5
  8
0
 62
     7
 10
16.4007711386061992
 20
5.012314864819011
 30
0.0
 42
0.0591849685092592
  0
VERTEX
  5
ED6
  8
0
 62
     7
 10
16.4677543668296487
 20
5.021528242083221
 30
0.0
 42
0.0803339411871422
  0
VERTEX
  5
ED7
  8
0
 62
     7
 10
16.519886344370839
 20
5.0445118730256064
 30
0.0
 42
0.0441400017203296
  0
VERTEX
  5
ED8
  8
0
 62
     7
 10
16.5749547420977201
 20
5.0875883026101008
 30
0.0
 42
0.0472699351930573
  0
VERTEX
  5
ED9
  8
0
 62
     7
 10
16.6167259887348813
 20
5.1348030318486737
 30
0.0
 42
0.0586329053564617
  0
VERTEX
  5
EDA
  8
0
 62
     7
 10
16.6454851531068115
 20
5.1858919770069303
 30
0.0
 42
0.0567929924838295
  0
VERTEX
  5
EDB
  8
0
 62
     7
 10
16.6622115412641598
 20
5.2435997428803107
 30
0.0
 42
0.0406359953074824
  0
VERTEX
  5
EDC
  8
0
 62
     7
 10
16.6680829658023697
 20
5.3106099386627763
 30
0.0
 42
0.047680946425237
  0
VERTEX
  5
EDD
  8
0
 62
     7
 10
16.6618642782602606
 20
5.3802194813614097
 30
0.0
 42
0.0616520032582032
  0
VERTEX
  5
EDE
  8
0
 62
     7
 10
16.6424646996836003
 20
5.4412955149707107
 30
0.0
 42
0.0633859981088915
  0
VERTEX
  5
EDF
  8
0
 62
     7
 10
16.60931010467867
 20
5.4944984769006
 30
0.0
 42
0.0545560108621499
  0
VERTEX
  5
EE0
  8
0
 62
     7
 10
16.5623302860647001
 20
5.5407793226383202
 30
0.0
 42
0.0376349876348825
  0
VERTEX
  5
EE1
  8
0
 62
     7
 10
16.5176615506074818
 20
5.5709242885726544
 30
0.0
 42
0.0586569774125934
  0
VERTEX
  5
EE2
  8
0
 62
     7
 10
16.4749678550697389
 20
5.5890389452561751
 30
0.0
 42
0.0404929749710013
  0
VERTEX
  5
EE3
  8
0
 62
     7
 10
16.4188961137062392
 20
5.6005876048886822
 30
0.0
 42
0.0095829930460647
  0
VERTEX
  5
EE4
  8
0
 62
     7
 10
16.3238119686579992
 20
5.6104182799085747
 30
0.0
 42
-0.0103280650737259
  0
VERTEX
  5
EE5
  8
0
 62
     7
 10
16.273930079543959
 20
5.6156491112474143
 30
0.0
 42
-0.0076779458777918
  0
VERTEX
  5
EE6
  8
0
 62
     7
 10
16.2190934382986107
 20
5.6234066378266894
 30
0.0
 42
-0.0077679535121459
  0
VERTEX
  5
EE7
  8
0
 62
     7
 10
16.1675697084646401
 20
5.6323265398877487
 30
0.0
 42
-0.0173799318976841
  0
VERTEX
  5
EE8
  8
0
 62
     7
 10
16.1288122721043194
 20
5.6410618524985621
 30
0.0
 42
-0.0546800013123187
  0
VERTEX
  5
EE9
  8
0
 62
     7
 10
15.93732964630731
 20
5.7143856904683128
 30
0.0
 42
-0.0523339681330655
  0
VERTEX
  5
EEA
  8
0
 62
     7
 10
15.7632216588515899
 20
5.8283416006096536
 30
0.0
 42
-0.0521459994708328
  0
VERTEX
  5
EEB
  8
0
 62
     7
 10
15.6160104680176293
 20
5.976410640681963
 30
0.0
 42
-0.053475007294182
  0
VERTEX
  5
EEC
  8
0
 62
     7
 10
15.5040343978686206
 20
6.150550455851441
 30
0.0
 42
-0.004124965093077
  0
VERTEX
  5
EED
  8
0
 62
     7
 10
15.4891363581752408
 20
6.1809044540737741
 30
0.0
 42
-0.0047629828226862
  0
VERTEX
  5
EEE
  8
0
 62
     7
 10
15.4754482725954894
 20
6.210079509841397
 30
0.0
 42
-0.0042799967021366
  0
VERTEX
  5
EEF
  8
0
 62
     7
 10
15.4643098990253502
 20
6.2349901088938058
 30
0.0
 42
-0.0276910464215247
  0
VERTEX
  5
EF0
  8
0
 62
     7
 10
15.4595079999999996
 20
6.247882999999999
 30
0.0
  0
VERTEX
  5
EF1
  8
0
 62
     7
 10
15.452572
 20
6.2702140000000002
 30
0.0
  0
VERTEX
  5
EF2
  8
0
 62
     7
 10
17.7088129999999992
 20
6.2755510000000001
 30
0.0
  0
VERTEX
  5
EF3
  8
0
 62
     7
 10
17.7550357282862983
 20
6.2969239916454098
 30
0.0
 42
0.043930042422314
  0
VERTEX
  5
EF4
  8
0
 62
     7
 10
17.8026159390818997
 20
6.3242247040023196
 30
0.0
 42
0.0409829939233223
  0
VERTEX
  5
EF5
  8
0
 62
     7
 10
17.8459010739310493
 20
6.3599959881873627
 30
0.0
 42
0.0410509402650855
  0
VERTEX
  5
EF6
  8
0
 62
     7
 10
17.8827037571656788
 20
6.4022788547989791
 30
0.0
 42
0.0444400352575892
  0
VERTEX
  5
EF7
  8
0
 62
     7
 10
17.9110129600014716
 20
6.4489456566669539
 30
0.0
 42
0.0265429366714901
  0
VERTEX
  5
EF8
  8
0
 62
     7
 10
17.9271381442382314
 20
6.4867202157641231
 30
0.0
 42
0.0549500097576684
  0
VERTEX
  5
EF9
  8
0
 62
     7
 10
17.9347686868856684
 20
6.5178369376669751
 30
0.0
 42
0.0310719982026418
  0
VERTEX
  5
EFA
  8
0
 62
     7
 10
17.9376323168981493
 20
6.5594987280715751
 30
0.0
 42
0.0038430419457649
  0
VERTEX
  5
EFB
  8
0
 62
     7
 10
17.9375272187139885
 20
6.6505518164439943
 30
0.0
 42
0.0537309994923993
  0
VERTEX
  5
EFC
  8
0
 62
     7
 10
17.903456060024169
 20
6.942394246722821
 30
0.0
 42
0.0524140097227018
  0
VERTEX
  5
EFD
  8
0
 62
     7
 10
17.8079204640462798
 20
7.2228591859736611
 30
0.0
 42
0.0504919998369183
  0
VERTEX
  5
EFE
  8
0
 62
     7
 10
17.652087166994729
 20
7.4864409698531889
 30
0.0
 42
0.0434529989502062
  0
VERTEX
  5
EFF
  8
0
 62
     7
 10
17.4393269258122707
 20
7.7281971279979222
 30
0.0
 42
0.0346839953049864
  0
VERTEX
  5
F00
  8
0
 62
     7
 10
17.2740510132554412
 20
7.8654168932358122
 30
0.0
 42
0.0367909965778222
  0
VERTEX
  5
F01
  8
0
 62
     7
 10
17.094500835781389
 20
7.97550769318301
 30
0.0
 42
0.0360049816711072
  0
VERTEX
  5
F02
  8
0
 62
     7
 10
16.8971763992192514
 20
8.0599837079954124
 30
0.0
 42
0.0306029709619137
  0
VERTEX
  5
F03
  8
0
 62
     7
 10
16.6788117188898006
 20
8.1207314923435838
 30
0.0
 42
0.0321439891637537
  0
VERTEX
  5
F04
  8
0
 62
     7
 10
16.5640282996025192
 20
8.137595540690107
 30
0.0
 42
0.0130439953707554
  0
VERTEX
  5
F05
  8
0
 62
     7
 10
16.406157514966619
 20
8.1463699852941431
 30
0.0
 42
0.0129360023568016
  0
VERTEX
  5
F06
  8
0
 62
     7
 10
16.249211196366069
 20
8.1469319692702662
 30
0.0
 42
0.0353669941357413
  0
VERTEX
  5
F07
  8
0
 62
     7
 10
16.138810063506579
 20
8.1366350226925892
 30
0.0
 42
0.0673419975393196
  0
SEQEND
  5
F08
  8
0
 62
     7
  0
POLYLINE
  5
6B7
  8
0
 62
     7
 66
     1
 10
0.0
 20
0.0
 30
0.0
 70
     1
  0
VERTEX
  5
F09
  8
0
 62
     7
 10
53.1754811164425689
 20
8.1193435532898999
 30
0.0
 42
0.0585109524038296
  0
VERTEX
  5
F0A
  8
0
 62
     7
 10
53.1158475603896392
 20
8.0759745155557017
 30
0.0
 42
0.0591770125836328
  0
VERTEX
  5
F0B
  8
0
 62
     7
 10
53.0684628392099569
 20
8.0204902616225002
 30
0.0
 42
0.0632829610921624
  0
VERTEX
  5
F0C
  8
0
 62
     7
 10
53.0366474621187365
 20
7.9566448680526083
 30
0.0
 42
0.0761149873133801
  0
VERTEX
  5
F0D
  8
0
 62
     7
 10
53.0254855675723533
 20
7.8966467269528211
 30
0.0
 42
0.0047819942545708
  0
VERTEX
  5
F0E
  8
0
 62
     7
 10
53.0214475513075101
 20
7.7163019486635864
 30
0.0
 42
0.0029670073481402
  0
VERTEX
  5
F0F
  8
0
 62
     7
 10
53.0192219999999921
 20
7.396488999999999
 30
0.0
  0
VERTEX
  5
F10
  8
0
 62
     7
 10
53.0188099999999878
 20
6.5705509999999991
 30
0.0
  0
VERTEX
  5
F11
  8
0
 62
     7
 10
53.0188099999999878
 20
5.2355510000000001
 30
0.0
  0
VERTEX
  5
F12
  8
0
 62
     7
 10
53.0469210138166503
 20
5.1783092214314443
 30
0.0
 42
0.0616489855021588
  0
VERTEX
  5
F13
  8
0
 62
     7
 10
53.0926328588026735
 20
5.1084790581085944
 30
0.0
 42
0.0767769270747695
  0
VERTEX
  5
F14
  8
0
 62
     7
 10
53.1511388560080107
 20
5.0577024019815529
 30
0.0
 42
0.074609928584694
  0
VERTEX
  5
F15
  8
0
 62
     7
 10
53.2236534550876073
 20
5.0259617859866648
 30
0.0
 42
0.054356939052174
  0
VERTEX
  5
F16
  8
0
 62
     7
 10
53.3107264274733623
 20
5.0123529276484948
 30
0.0
 42
0.0113909389371899
  0
VERTEX
  5
F17
  8
0
 62
     7
 10
53.357337406052153
 20
5.0112510749378041
 30
0.0
 42
0.0383839635703578
  0
VERTEX
  5
F18
  8
0
 62
     7
 10
53.3877201571491327
 20
5.0135594731295861
 30
0.0
 42
0.0463610001299049
  0
VERTEX
  5
F19
  8
0
 62
     7
 10
53.4142846725401128
 20
5.0202072547042738
 30
0.0
 42
0.0228619743678377
  0
VERTEX
  5
F1A
  8
0
 62
     7
 10
53.4465905688953882
 20
5.0332461496988348
 30
0.0
 42
0.0416670070654368
  0
VERTEX
  5
F1B
  8
0
 62
     7
 10
53.4916468216130667
 20
5.0586059786108137
 30
0.0
 42
0.0391249897722675
  0
VERTEX
  5
F1C
  8
0
 62
     7
 10
53.5329009349652267
 20
5.09156699144771
 30
0.0
 42
0.0392639915627525
  0
VERTEX
  5
F1D
  8
0
 62
     7
 10
53.5683760241224434
 20
5.1304229439992808
 30
0.0
 42
0.0427130045852578
  0
VERTEX
  5
F1E
  8
0
 62
     7
 10
53.596244999999989
 20
5.1733169999999991
 30
0.0
  0
VERTEX
  5
F1F
  8
0
 62
     7
 10
53.6188130000000029
 20
5.2155509999999996
 30
0.0
  0
VERTEX
  5
F20
  8
0
 62
     7
 10
53.6288109999999989
 20
7.0455509999999988
 30
0.0
  0
VERTEX
  5
F21
  8
0
 62
     7
 10
54.5100560000000129
 20
6.055286999999999
 30
0.0
  0
VERTEX
  5
F22
  8
0
 62
     7
 10
55.1869540938986702
 20
5.2963573272362243
 30
0.0
 42
0.0170630083108989
  0
VERTEX
  5
F23
  8
0
 62
     7
 10
55.3623326378086418
 20
5.11314441956198
 30
0.0
 42
0.0774369584606703
  0
VERTEX
  5
F24
  8
0
 62
     7
 10
55.4695680443034718
 20
5.0368277153192711
 30
0.0
 42
0.1168350064108097
  0
VERTEX
  5
F25
  8
0
 62
     7
 10
55.5806817123833099
 20
5.010648339386031
 30
0.0
 42
0.0398870142830969
  0
VERTEX
  5
F26
  8
0
 62
     7
 10
55.6495745244341222
 20
5.0162390093757381
 30
0.0
 42
0.0630418851069451
  0
VERTEX
  5
F27
  8
0
 62
     7
 10
55.7063554594732224
 20
5.0329753256880876
 30
0.0
 42
0.0640140535636486
  0
VERTEX
  5
F28
  8
0
 62
     7
 10
55.7565671426487413
 20
5.0630995270499328
 30
0.0
 42
0.042582950876589
  0
VERTEX
  5
F29
  8
0
 62
     7
 10
55.8055941686957766
 20
5.1090847911213277
 30
0.0
 42
0.1112019781324262
  0
VERTEX
  5
F2A
  8
0
 62
     7
 10
55.8549653685517313
 20
5.1971754409033011
 30
0.0
 42
0.0592230055557211
  0
VERTEX
  5
F2B
  8
0
 62
     7
 10
55.8763352561219406
 20
5.320918576011521
 30
0.0
 42
0.012809021706111
  0
VERTEX
  5
F2C
  8
0
 62
     7
 10
55.8829959999999986
 20
5.5668230000000003
 30
0.0
  0
VERTEX
  5
F2D
  8
0
 62
     7
 10
55.8837130000000002
 20
6.5898329999999996
 30
0.0
  0
VERTEX
  5
F2E
  8
0
 62
     7
 10
55.883617000000001
 20
7.9255509999999987
 30
0.0
  0
VERTEX
  5
F2F
  8
0
 62
     7
 10
55.8595708748808732
 20
7.9771936908099317
 30
0.0
 42
0.045123005593661
  0
VERTEX
  5
F30
  8
0
 62
     7
 10
55.8325821144497283
 20
8.0236896109606022
 30
0.0
 42
0.0407370029993341
  0
VERTEX
  5
F31
  8
0
 62
     7
 10
55.7968459668604382
 20
8.0663324788298123
 30
0.0
 42
0.0407049974002285
  0
VERTEX
  5
F32
  8
0
 62
     7
 10
55.7546333738753219
 20
8.102646626941544
 30
0.0
 42
0.0448689919981835
  0
VERTEX
  5
F33
  8
0
 62
     7
 10
55.7083898941439273
 20
8.1303268971304714
 30
0.0
 42
0.064158008077711
  0
VERTEX
  5
F34
  8
0
 62
     7
 10
55.6486264121701311
 20
8.1502389973418836
 30
0.0
 42
0.0512969877914558
  0
VERTEX
  5
F35
  8
0
 62
     7
 10
55.5809688753098925
 20
8.1564084068045393
 30
0.0
 42
0.0508540182030034
  0
VERTEX
  5
F36
  8
0
 62
     7
 10
55.5128254124424529
 20
8.1486628904542329
 30
0.0
 42
0.0601249546166463
  0
VERTEX
  5
F37
  8
0
 62
     7
 10
55.4516090554275323
 20
8.127358389245197
 30
0.0
 42
0.0489119558454314
  0
VERTEX
  5
F38
  8
0
 62
     7
 10
55.4032076651720971
 20
8.0975012829702138
 30
0.0
 42
0.0419470275736252
  0
VERTEX
  5
F39
  8
0
 62
     7
 10
55.3587628043392783
 20
8.0573739102646051
 30
0.0
 42
0.0424480028774522
  0
VERTEX
  5
F3A
  8
0
 62
     7
 10
55.3221846987270069
 20
8.0109882764012923
 30
0.0
 42
0.0538229642832817
  0
VERTEX
  5
F3B
  8
0
 62
     7
 10
55.2972212508970316
 20
7.9624962504131807
 30
0.0
 42
0.0778680380430287
  0
VERTEX
  5
F3C
  8
0
 62
     7
 10
55.2861451751228969
 20
7.9111484869421931
 30
0.0
 42
0.0080749936487562
  0
VERTEX
  5
F3D
  8
0
 62
     7
 10
55.281088529793081
 20
7.7872800169264842
 30
0.0
 42
0.0043310179852909
  0
VERTEX
  5
F3E
  8
0
 62
     7
 10
55.2775570000000016
 20
7.5669550000000001
 30
0.0
  0
VERTEX
  5
F3F
  8
0
 62
     7
 10
55.2739720000000005
 20
7.020791
 30
0.0
  0
VERTEX
  5
F40
  8
0
 62
     7
 10
55.2688099999999878
 20
6.1260289999999991
 30
0.0
  0
VERTEX
  5
F41
  8
0
 62
     7
 10
54.4127579999999895
 20
7.0857910000000004
 30
0.0
  0
VERTEX
  5
F42
  8
0
 62
     7
 10
54.0821609999999993
 20
7.4561250000000001
 30
0.0
  0
VERTEX
  5
F43
  8
0
 62
     7
 10
53.7981949999999927
 20
7.7735369999999993
 30
0.0
  0
VERTEX
  5
F44
  8
0
 62
     7
 10
53.5485199304276165
 20
8.0521756715353519
 30
0.0
 42
0.0143399970854576
  0
VERTEX
  5
F45
  8
0
 62
     7
 10
53.5227552587310598
 20
8.0793102641484911
 30
0.0
 42
0.0758180172812581
  0
VERTEX
  5
F46
  8
0
 62
     7
 10
53.4654558079440534
 20
8.1212054040974131
 30
0.0
 42
0.0602060120882715
  0
VERTEX
  5
F47
  8
0
 62
     7
 10
53.3936066052592224
 20
8.1482228555540228
 30
0.0
 42
0.0594459944470785
  0
VERTEX
  5
F48
  8
0
 62
     7
 10
53.316401216183742
 20
8.1575855043459864
 30
0.0
 42
0.0694790031340881
  0
VERTEX
  5
F49
  8
0
 62
     7
 10
53.2433161785157694
 20
8.1475240923601788
 30
0.0
 42
0.0591650195981317
  0
SEQEND
  5
F4A
  8
0
 62
     7
  0
POLYLINE
  5
6B8
  8
0
 62
     7
 66
     1
 10
0.0
 20
0.0
 30
0.0
 70
     1
  0
VERTEX
  5
F4B
  8
0
 62
     7
 10
46.1133039315363931
 20
8.1125958492238883
 30
0.0
 42
0.074146042282444
  0
VERTEX
  5
F4C
  8
0
 62
     7
 10
46.0475328867395604
 20
8.0577150801776423
 30
0.0
 42
0.0738299614245918
  0
VERTEX
  5
F4D
  8
0
 62
     7
 10
46.0004195438056698
 20
7.9858115774887386
 30
0.0
 42
0.0690699514360109
  0
VERTEX
  5
F4E
  8
0
 62
     7
 10
45.9748806776579428
 20
7.9016719304892042
 30
0.0
 42
0.0714120109533355
  0
VERTEX
  5
F4F
  8
0
 62
     7
 10
45.973523052793432
 20
7.8060841848890581
 30
0.0
 42
0.0789680309715267
  0
VERTEX
  5
F50
  8
0
 62
     7
 10
45.9995849462161388
 20
7.7174490853688686
 30
0.0
 42
0.0799479988774704
  0
VERTEX
  5
F51
  8
0
 62
     7
 10
46.0514745349052603
 20
7.6421211875520774
 30
0.0
 42
0.0757090145814205
  0
VERTEX
  5
F52
  8
0
 62
     7
 10
46.1252560000000003
 20
7.5852139999999988
 30
0.0
  0
VERTEX
  5
F53
  8
0
 62
     7
 10
46.1788099999999915
 20
7.5555509999999986
 30
0.0
  0
VERTEX
  5
F54
  8
0
 62
     7
 10
47.0534859999999924
 20
7.5497569999999996
 30
0.0
  0
VERTEX
  5
F55
  8
0
 62
     7
 10
47.0588109999999986
 20
5.2355510000000001
 30
0.0
  0
VERTEX
  5
F56
  8
0
 62
     7
 10
47.0818224913053811
 20
5.1855523390207274
 30
0.0
 42
0.038452962132895
  0
VERTEX
  5
F57
  8
0
 62
     7
 10
47.1055945874852213
 20
5.1428754029626811
 30
0.0
 42
0.0397890202116927
  0
VERTEX
  5
F58
  8
0
 62
     7
 10
47.1353802245422884
 20
5.1048615031239919
 30
0.0
 42
0.0389749859494435
  0
VERTEX
  5
F59
  8
0
 62
     7
 10
47.1714118435609819
 20
5.07137811935727
 30
0.0
 42
0.0340539647649316
  0
VERTEX
  5
F5A
  8
0
 62
     7
 10
47.2138131707647517
 20
5.0422011201909989
 30
0.0
 42
0.0310630229191072
  0
VERTEX
  5
F5B
  8
0
 62
     7
 10
47.2425726225349294
 20
5.0274998432677958
 30
0.0
 42
0.0572348798845265
  0
VERTEX
  5
F5C
  8
0
 62
     7
 10
47.2676715227085467
 20
5.0198418416707824
 30
0.0
 42
0.038098962727946
  0
VERTEX
  5
F5D
  8
0
 62
     7
 10
47.2999824673276734
 20
5.0164188904801961
 30
0.0
 42
0.0073590387413818
  0
VERTEX
  5
F5E
  8
0
 62
     7
 10
47.3588098955629277
 20
5.015550000000002
 30
0.0
 42
0.0073900418381986
  0
VERTEX
  5
F5F
  8
0
 62
     7
 10
47.4177595886446923
 20
5.0164219359971431
 30
0.0
 42
0.0383069556626007
  0
VERTEX
  5
F60
  8
0
 62
     7
 10
47.4501287102100804
 20
5.0198724111850632
 30
0.0
 42
0.0570879245248414
  0
VERTEX
  5
F61
  8
0
 62
     7
 10
47.4753970937778291
 20
5.0275975654304439
 30
0.0
 42
0.0301719307615313
  0
VERTEX
  5
F62
  8
0
 62
     7
 10
47.5046518376718794
 20
5.0424984143885458
 30
0.0
 42
0.0248880341049519
  0
VERTEX
  5
F63
  8
0
 62
     7
 10
47.5249235671610606
 20
5.0558181985659623
 30
0.0
 42
0.0142380097680716
  0
VERTEX
  5
F64
  8
0
 62
     7
 10
47.5480740153464723
 20
5.0737680550528044
 30
0.0
 42
0.0141979463645169
  0
VERTEX
  5
F65
  8
0
 62
     7
 10
47.5703866709065508
 20
5.0931884369265816
 30
0.0
 42
0.0228419711807901
  0
VERTEX
  5
F66
  8
0
 62
     7
 10
47.5881187797186911
 20
5.1111015307076171
 30
0.0
 42
0.1072549094279564
  0
VERTEX
  5
F67
  8
0
 62
     7
 10
47.6327287129492021
 20
5.1888270749158529
 30
0.0
 42
0.0620799665825097
  0
VERTEX
  5
F68
  8
0
 62
     7
 10
47.6524584733546988
 20
5.29522637759072
 30
0.0
 42
0.0133549755877092
  0
VERTEX
  5
F69
  8
0
 62
     7
 10
47.6593129999999974
 20
5.5055480000000001
 30
0.0
  0
VERTEX
  5
F6A
  8
0
 62
     7
 10
47.6638109999999884
 20
6.3855510000000004
 30
0.0
  0
VERTEX
  5
F6B
  8
0
 62
     7
 10
47.6688120000000026
 20
7.5455509999999988
 30
0.0
  0
VERTEX
  5
F6C
  8
0
 62
     7
 10
48.1038133331277677
 20
7.5505505364524552
 30
0.0
 42
0.0017060042757014
  0
VERTEX
  5
F6D
  8
0
 62
     7
 10
48.4256555000707323
 20
7.5553498321441559
 30
0.0
 42
0.0297300143796326
  0
VERTEX
  5
F6E
  8
0
 62
     7
 10
48.5300384757765073
 20
7.5634826950953418
 30
0.0
 42
0.0881499552607699
  0
VERTEX
  5
F6F
  8
0
 62
     7
 10
48.5926173360142428
 20
7.5837371733496921
 30
0.0
 42
0.061532016562534
  0
VERTEX
  5
F70
  8
0
 62
     7
 10
48.6534839012802607
 20
7.6264437506538698
 30
0.0
 42
0.0281119458301221
  0
VERTEX
  5
F71
  8
0
 62
     7
 10
48.6714400576384065
 20
7.6445955828642589
 30
0.0
 42
0.0167390088567369
  0
VERTEX
  5
F72
  8
0
 62
     7
 10
48.6907942016221327
 20
7.6680398764263584
 30
0.0
 42
0.0167290096841908
  0
VERTEX
  5
F73
  8
0
 62
     7
 10
48.7085757787111291
 20
7.6927786566167331
 30
0.0
 42
0.0276269831355622
  0
VERTEX
  5
F74
  8
0
 62
     7
 10
48.7216854191810711
 20
7.714917625059261
 30
0.0
 42
0.0260009915534686
  0
VERTEX
  5
F75
  8
0
 62
     7
 10
48.735528898228317
 20
7.745320453104716
 30
0.0
 42
0.0459199478281125
  0
VERTEX
  5
F76
  8
0
 62
     7
 10
48.7432354193344111
 20
7.7717741136552574
 30
0.0
 42
0.0367370235961753
  0
VERTEX
  5
F77
  8
0
 62
     7
 10
48.7469453795238223
 20
7.8029567414364314
 30
0.0
 42
0.0111698997699279
  0
VERTEX
  5
F78
  8
0
 62
     7
 10
48.748020971874837
 20
7.8505525564049661
 30
0.0
 42
0.0111669454317094
  0
VERTEX
  5
F79
  8
0
 62
     7
 10
48.7470037893596029
 20
7.8964425147957762
 30
0.0
 42
0.0329699987658819
  0
VERTEX
  5
F7A
  8
0
 62
     7
 10
48.7435340249870919
 20
7.9277791207250221
 30
0.0
 42
0.0427059974197722
  0
VERTEX
  5
F7B
  8
0
 62
     7
 10
48.7366202153595225
 20
7.9535995663618788
 30
0.0
 42
0.0321580011734235
  0
VERTEX
  5
F7C
  8
0
 62
     7
 10
48.7248684992566794
 20
7.9805516256065854
 30
0.0
 42
0.0397350042724474
  0
VERTEX
  5
F7D
  8
0
 62
     7
 10
48.6975113775805823
 20
8.0246696991976574
 30
0.0
 42
0.0357970066893709
  0
VERTEX
  5
F7E
  8
0
 62
     7
 10
48.6626395068161628
 20
8.0655776613548973
 30
0.0
 42
0.0358450036654139
  0
VERTEX
  5
F7F
  8
0
 62
     7
 10
48.6223338591238488
 20
8.1010365385862002
 30
0.0
 42
0.0401329926963831
  0
VERTEX
  5
F80
  8
0
 62
     7
 10
48.5788119999999992
 20
8.1289160000000003
 30
0.0
  0
VERTEX
  5
F81
  8
0
 62
     7
 10
48.5288120000000021
 20
8.1555509999999991
 30
0.0
  0
VERTEX
  5
F82
  8
0
 62
     7
 10
47.3838119999999989
 20
8.1574819999999981
 30
0.0
  0
VERTEX
  5
F83
  8
0
 62
     7
 10
46.806736241100019
 20
8.1579101772263805
 30
0.0
 42
0.0021419847803191
  0
VERTEX
  5
F84
  8
0
 62
     7
 10
46.4703548158991779
 20
8.1563999325608378
 30
0.0
 42
0.0014240150992493
  0
VERTEX
  5
F85
  8
0
 62
     7
 10
46.2408160170796165
 20
8.1537299530380132
 30
0.0
 42
0.0628609876319012
  0
VERTEX
  5
F86
  8
0
 62
     7
 10
46.1933187430153183
 20
8.1470353010882661
 30
0.0
 42
0.0705580157584965
  0
SEQEND
  5
F87
  8
0
 62
     7
  0
POLYLINE
  5
6B9
  8
0
 62
     7
 66
     1
 10
0.0
 20
0.0
 30
0.0
 70
     1
  0
VERTEX
  5
F88
  8
0
 62
     7
 10
43.4968922376880371
 20
8.1136815665123301
 30
0.0
 42
0.0429449952748709
  0
VERTEX
  5
F89
  8
0
 62
     7
 10
43.3533745689250978
 20
8.0536502481405563
 30
0.0
 42
0.0427260222749847
  0
VERTEX
  5
F8A
  8
0
 62
     7
 10
43.2215972213664088
 20
7.9696632726027428
 30
0.0
 42
0.0388659823478258
  0
VERTEX
  5
F8B
  8
0
 62
     7
 10
43.101442559997821
 20
7.862027482798827
 30
0.0
 42
0.0335840434238363
  0
VERTEX
  5
F8C
  8
0
 62
     7
 10
43.015377831932291
 20
7.7588928705264779
 30
0.0
 42
0.0356580234740333
  0
VERTEX
  5
F8D
  8
0
 62
     7
 10
42.9457720522616029
 20
7.6471343770772107
 30
0.0
 42
0.0360039942817615
  0
VERTEX
  5
F8E
  8
0
 62
     7
 10
42.8933094104425194
 20
7.5276597848345981
 30
0.0
 42
0.0356740179201394
  0
VERTEX
  5
F8F
  8
0
 62
     7
 10
42.8583430579983968
 20
7.401530878806347
 30
0.0
 42
0.0389370242391376
  0
VERTEX
  5
F90
  8
0
 62
     7
 10
42.8471041212034933
 20
7.3093382428677982
 30
0.0
 42
0.0164900605660324
  0
VERTEX
  5
F91
  8
0
 62
     7
 10
42.8457949829590419
 20
7.1846672479921239
 30
0.0
 42
0.0162780334269305
  0
VERTEX
  5
F92
  8
0
 62
     7
 10
42.8525665588331179
 20
7.0617484807685296
 30
0.0
 42
0.0456769650079131
  0
VERTEX
  5
F93
  8
0
 62
     7
 10
42.8678872808745481
 20
6.9770102447555438
 30
0.0
 42
0.071865994002597
  0
VERTEX
  5
F94
  8
0
 62
     7
 10
42.9829326681730635
 20
6.7149395069648969
 30
0.0
 42
0.0759440095899461
  0
VERTEX
  5
F95
  8
0
 62
     7
 10
43.1657654019040393
 20
6.5016847359803531
 30
0.0
 42
0.076349004886586
  0
VERTEX
  5
F96
  8
0
 62
     7
 10
43.4029913967452003
 20
6.3535940284749639
 30
0.0
 42
0.0737850156616078
  0
VERTEX
  5
F97
  8
0
 62
     7
 10
43.6765277521784796
 20
6.2813089078414102
 30
0.0
 42
0.0190110459559689
  0
VERTEX
  5
F98
  8
0
 62
     7
 10
43.7339242618318522
 20
6.2771109033376389
 30
0.0
 42
0.0028300327574584
  0
VERTEX
  5
F99
  8
0
 62
     7
 10
43.849806277752613
 20
6.2737078318735442
 30
0.0
 42
0.0031819466780264
  0
VERTEX
  5
F9A
  8
0
 62
     7
 10
43.9868162109632834
 20
6.2713357436285104
 30
0.0
 42
0.0027359762355265
  0
VERTEX
  5
F9B
  8
0
 62
     7
 10
44.1309169999999895
 20
6.2705440000000001
 30
0.0
  0
VERTEX
  5
F9C
  8
0
 62
     7
 10
44.4888109999999983
 20
6.270535999999999
 30
0.0
  0
VERTEX
  5
F9D
  8
0
 62
     7
 10
44.54881344710153
 20
6.2417285654599333
 30
0.0
 42
-0.0654590033071923
  0
VERTEX
  5
F9E
  8
0
 62
     7
 10
44.6268726232516215
 20
6.1907713451010453
 30
0.0
 42
-0.073216000241707
  0
VERTEX
  5
F9F
  8
0
 62
     7
 10
44.6857552545916619
 20
6.1230365521482106
 30
0.0
 42
-0.073790999638707
  0
VERTEX
  5
FA0
  8
0
 62
     7
 10
44.7222858367118405
 20
6.0416808026765567
 30
0.0
 42
-0.0680050164068948
  0
VERTEX
  5
FA1
  8
0
 62
     7
 10
44.7349885456907117
 20
5.9508812102869122
 30
0.0
 42
-0.0151870329232598
  0
VERTEX
  5
FA2
  8
0
 62
     7
 10
44.7341724039003665
 20
5.9210445918108228
 30
0.0
 42
-0.0132760465336755
  0
VERTEX
  5
FA3
  8
0
 62
     7
 10
44.7315480998739119
 20
5.8899348785413643
 30
0.0
 42
-0.0134650296577762
  0
VERTEX
  5
FA4
  8
0
 62
     7
 10
44.7276716624654185
 20
5.8619453392428964
 30
0.0
 42
-0.0381810032873898
  0
VERTEX
  5
FA5
  8
0
 62
     7
 10
44.7229745069946318
 20
5.8428178557242409
 30
0.0
 42
-0.0540269870565071
  0
VERTEX
  5
FA6
  8
0
 62
     7
 10
44.6954634285977122
 20
5.7820526267455827
 30
0.0
 42
-0.0515540284524066
  0
VERTEX
  5
FA7
  8
0
 62
     7
 10
44.6552087239130202
 20
5.7275425506514814
 30
0.0
 42
-0.0506840486764304
  0
VERTEX
  5
FA8
  8
0
 62
     7
 10
44.6039297228871092
 20
5.6816147077470971
 30
0.0
 42
-0.0487470094907218
  0
VERTEX
  5
FA9
  8
0
 62
     7
 10
44.5438120000000026
 20
5.6462570000000003
 30
0.0
  0
VERTEX
  5
FAA
  8
0
 62
     7
 10
44.4888109999999983
 20
5.6207469999999988
 30
0.0
  0
VERTEX
  5
FAB
  8
0
 62
     7
 10
43.7826740509953822
 20
5.6206543900930859
 30
0.0
 42
0.0011310000174744
  0
VERTEX
  5
FAC
  8
0
 62
     7
 10
43.4917396057288599
 20
5.6199506885097641
 30
0.0
 42
0.0021249982860551
  0
VERTEX
  5
FAD
  8
0
 62
     7
 10
43.2566962734203031
 20
5.6178593538479538
 30
0.0
 42
0.0010609904137294
  0
VERTEX
  5
FAE
  8
0
 62
     7
 10
43.0660077039175206
 20
5.6149417375739548
 30
0.0
 42
0.0425299847391414
  0
VERTEX
  5
FAF
  8
0
 62
     7
 10
43.0244367068106612
 20
5.6106693237879197
 30
0.0
 42
0.0513940126919241
  0
VERTEX
  5
FB0
  8
0
 62
     7
 10
42.9509916652546408
 20
5.5887428949279121
 30
0.0
 42
0.0607929951180596
  0
VERTEX
  5
FB1
  8
0
 62
     7
 10
42.8879293556596224
 20
5.5531163146363758
 30
0.0
 42
0.0621609732798636
  0
VERTEX
  5
FB2
  8
0
 62
     7
 10
42.8363844209842384
 20
5.5041371430267061
 30
0.0
 42
0.0576420383549138
  0
VERTEX
  5
FB3
  8
0
 62
     7
 10
42.7969186085090527
 20
5.4427937247847709
 30
0.0
 42
0.0208029964221416
  0
VERTEX
  5
FB4
  8
0
 62
     7
 10
42.7826339399718805
 20
5.4103502156480312
 30
0.0
 42
0.0395079563063546
  0
VERTEX
  5
FB5
  8
0
 62
     7
 10
42.7743596193496671
 20
5.3830569847631278
 30
0.0
 42
0.037668982414057
  0
VERTEX
  5
FB6
  8
0
 62
     7
 10
42.7702555926200887
 20
5.3539539304275321
 30
0.0
 42
0.0171819699131667
  0
VERTEX
  5
FB7
  8
0
 62
     7
 10
42.7690957105955221
 20
5.3155512906357716
 30
0.0
 42
0.0159919780485777
  0
VERTEX
  5
FB8
  8
0
 62
     7
 10
42.7701536966609908
 20
5.2859911018965864
 30
0.0
 42
0.0137939849648379
  0
VERTEX
  5
FB9
  8
0
 62
     7
 10
42.7731202529040786
 20
5.2550560045433281
 30
0.0
 42
0.0140080080446097
  0
VERTEX
  5
FBA
  8
0
 62
     7
 10
42.7773752053633487
 20
5.2271434456931916
 30
0.0
 42
0.038610017159934
  0
VERTEX
  5
FBB
  8
0
 62
     7
 10
42.782418462588879
 20
5.2079090580763028
 30
0.0
 42
0.0582749542388698
  0
VERTEX
  5
FBC
  8
0
 62
     7
 10
42.8058719772677634
 20
5.159341086737669
 30
0.0
 42
0.0446709941193081
  0
VERTEX
  5
FBD
  8
0
 62
     7
 10
42.8418423778379989
 20
5.1125771114127829
 30
0.0
 42
0.0436389579478041
  0
VERTEX
  5
FBE
  8
0
 62
     7
 10
42.886614392366738
 20
5.0718097807925702
 30
0.0
 42
0.0485260573370293
  0
VERTEX
  5
FBF
  8
0
 62
     7
 10
42.93629099999999
 20
5.0410469999999989
 30
0.0
  0
VERTEX
  5
FC0
  8
0
 62
     7
 10
42.9996340000000004
 20
5.0098630000000002
 30
0.0
  0
VERTEX
  5
FC1
  8
0
 62
     7
 10
43.7992210000000028
 20
5.0131319999999988
 30
0.0
  0
VERTEX
  5
FC2
  8
0
 62
     7
 10
44.4068100409781934
 20
5.0166301747969193
 30
0.0
 42
0.019515039653455
  0
VERTEX
  5
FC3
  8
0
 62
     7
 10
44.5792523486232497
 20
5.0246500864665622
 30
0.0
 42
0.0597930519573971
  0
VERTEX
  5
FC4
  8
0
 62
     7
 10
44.6899895271593905
 20
5.0476654370833343
 30
0.0
 42
0.0324459621298595
  0
VERTEX
  5
FC5
  8
0
 62
     7
 10
44.8188135103167724
 20
5.1005062465429267
 30
0.0
 42
0.0444739834253788
  0
VERTEX
  5
FC6
  8
0
 62
     7
 10
44.9717509181498016
 20
5.1928051473113559
 30
0.0
 42
0.0482989082827373
  0
VERTEX
  5
FC7
  8
0
 62
     7
 10
45.1014118483602715
 20
5.3084712985948466
 30
0.0
 42
0.0484839834119809
  0
VERTEX
  5
FC8
  8
0
 62
     7
 10
45.2060680128836196
 20
5.446435027426527
 30
0.0
 42
0.0454559629229807
  0
VERTEX
  5
FC9
  8
0
 62
     7
 10
45.2848186917844799
 20
5.6049042153946926
 30
0.0
 42
0.0499149788418406
  0
VERTEX
  5
FCA
  8
0
 62
     7
 10
45.3325791275033225
 20
5.777039040173741
 30
0.0
 42
0.046476007161946
  0
VERTEX
  5
FCB
  8
0
 62
     7
 10
45.3468380381592908
 20
5.9594540588333071
 30
0.0
 42
0.0465419965039346
  0
VERTEX
  5
FCC
  8
0
 62
     7
 10
45.3271594001741889
 20
6.141104270451871
 30
0.0
 42
0.0503939995803661
  0
VERTEX
  5
FCD
  8
0
 62
     7
 10
45.2743131996978434
 20
6.3109712526632027
 30
0.0
 42
0.046510022822248
  0
VERTEX
  5
FCE
  8
0
 62
     7
 10
45.1946267276663818
 20
6.458480976552873
 30
0.0
 42
0.044540008860732
  0
VERTEX
  5
FCF
  8
0
 62
     7
 10
45.0880266836013419
 20
6.591050995310324
 30
0.0
 42
0.0443259893985234
  0
VERTEX
  5
FD0
  8
0
 62
     7
 10
44.959083908787413
 20
6.7032163492841041
 30
0.0
 42
0.0450900085947181
  0
VERTEX
  5
FD1
  8
0
 62
     7
 10
44.8130953263970682
 20
6.7901726009253203
 30
0.0
 42
0.0232219999516894
  0
VERTEX
  5
FD2
  8
0
 62
     7
 10
44.6938378214515524
 20
6.8406882579982042
 30
0.0
 42
0.0552869932233393
  0
VERTEX
  5
FD3
  8
0
 62
     7
 10
44.6005563804696266
 20
6.863888084673694
 30
0.0
 42
0.0275800111054125
  0
VERTEX
  5
FD4
  8
0
 62
     7
 10
44.4725910477147366
 20
6.8739078940419409
 30
0.0
 42
0.0023619890124772
  0
VERTEX
  5
FD5
  8
0
 62
     7
 10
44.1438099999999878
 20
6.8799210000000004
 30
0.0
  0
VERTEX
  5
FD6
  8
0
 62
     7
 10
43.8530347518040173
 20
6.884300468102178
 30
0.0
 42
-0.0107210214847046
  0
VERTEX
  5
FD7
  8
0
 62
     7
 10
43.7496546057455689
 20
6.8882306500835311
 30
0.0
 42
-0.0314470123107309
  0
VERTEX
  5
FD8
  8
0
 62
     7
 10
43.6914021722154899
 20
6.8953919239445778
 30
0.0
 42
-0.0590950061219472
  0
VERTEX
  5
FD9
  8
0
 62
     7
 10
43.6462065466093421
 20
6.9095300571280243
 30
0.0
 42
-0.061895074265434
  0
VERTEX
  5
FDA
  8
0
 62
     7
 10
43.5941739979680705
 20
6.9410689461550392
 30
0.0
 42
-0.0384629907700879
  0
VERTEX
  5
FDB
  8
0
 62
     7
 10
43.5416477504073924
 20
6.9895589147766657
 30
0.0
 42
-0.0385129592801691
  0
VERTEX
  5
FDC
  8
0
 62
     7
 10
43.4972869268969902
 20
7.0453784975823988
 30
0.0
 42
-0.0632240176864422
  0
VERTEX
  5
FDD
  8
0
 62
     7
 10
43.4700882696711801
 20
7.0991589911275801
 30
0.0
 42
-0.0266680125351956
  0
VERTEX
  5
FDE
  8
0
 62
     7
 10
43.461197143977337
 20
7.1291060543799061
 30
0.0
 42
-0.0325229905311544
  0
VERTEX
  5
FDF
  8
0
 62
     7
 10
43.4562488492676735
 20
7.1579123834331151
 30
0.0
 42
-0.027523982806795
  0
VERTEX
  5
FE0
  8
0
 62
     7
 10
43.4545929494499887
 20
7.1907366857993127
 30
0.0
 42
-0.0125640078630184
  0
VERTEX
  5
FE1
  8
0
 62
     7
 10
43.4558792314058024
 20
7.2336567545715198
 30
0.0
 42
-0.0378659615887297
  0
VERTEX
  5
FE2
  8
0
 62
     7
 10
43.4651188749964703
 20
7.3038914796733492
 30
0.0
 42
-0.0578819725095998
  0
VERTEX
  5
FE3
  8
0
 62
     7
 10
43.4845506954802374
 20
7.3621085221888558
 30
0.0
 42
-0.0590149795429392
  0
VERTEX
  5
FE4
  8
0
 62
     7
 10
43.516466737290628
 20
7.4135223748518362
 30
0.0
 42
-0.0412640257016454
  0
VERTEX
  5
FE5
  8
0
 62
     7
 10
43.5633145431849869
 20
7.4632060421016559
 30
0.0
 42
-0.0574590473702904
  0
VERTEX
  5
FE6
  8
0
 62
     7
 10
43.6303813916661412
 20
7.5108350594777971
 30
0.0
 42
-0.0857200049191878
  0
VERTEX
  5
FE7
  8
0
 62
     7
 10
43.6982391242439832
 20
7.5342069158998717
 30
0.0
 42
-0.0339879935904537
  0
VERTEX
  5
FE8
  8
0
 62
     7
 10
43.8068073379867329
 20
7.5443034222201666
 30
0.0
 42
-0.0026369717191015
  0
VERTEX
  5
FE9
  8
0
 62
     7
 10
44.0988120000000023
 20
7.5499989999999997
 30
0.0
  0
VERTEX
  5
FEA
  8
0
 62
     7
 10
44.3512165457897893
 20
7.5540344217369748
 30
0.0
 42
0.0119839650189019
  0
VERTEX
  5
FEB
  8
0
 62
     7
 10
44.4427880120304479
 20
7.5578549640702537
 30
0.0
 42
0.0345830423246193
  0
VERTEX
  5
FEC
  8
0
 62
     7
 10
44.4939333564607722
 20
7.5647901878217896
 30
0.0
 42
0.0717500021648733
  0
VERTEX
  5
FED
  8
0
 62
     7
 10
44.5317259682063735
 20
7.578464289326992
 30
0.0
 42
0.0441550670370945
  0
VERTEX
  5
FEE
  8
0
 62
     7
 10
44.5749215721137588
 20
7.6066844211507263
 30
0.0
 42
0.0339159987663017
  0
VERTEX
  5
FEF
  8
0
 62
     7
 10
44.616752522167701
 20
7.644481642145295
 30
0.0
 42
0.0343030433511011
  0
VERTEX
  5
FF0
  8
0
 62
     7
 10
44.6524726149130728
 20
7.6869177276982246
 30
0.0
 42
0.0499280095753298
  0
VERTEX
  5
FF1
  8
0
 62
     7
 10
44.6772361424769429
 20
7.7290587546213869
 30
0.0
 42
0.0688418964779483
  0
VERTEX
  5
FF2
  8
0
 62
     7
 10
44.6949716441822034
 20
7.7876141633758138
 30
0.0
 42
0.0447099446034047
  0
VERTEX
  5
FF3
  8
0
 62
     7
 10
44.699725990274807
 20
7.8582782366373296
 30
0.0
 42
0.0447280011651344
  0
VERTEX
  5
FF4
  8
0
 62
     7
 10
44.6918472809297924
 20
7.9286163634012183
 30
0.0
 42
0.0691819977412647
  0
VERTEX
  5
FF5
  8
0
 62
     7
 10
44.6715485336022198
 20
7.9861864664919269
 30
0.0
 42
0.04659899577407
  0
VERTEX
  5
FF6
  8
0
 62
     7
 10
44.6433419966527367
 20
8.0301626596698128
 30
0.0
 42
0.0374920051455131
  0
VERTEX
  5
FF7
  8
0
 62
     7
 10
44.6055060691945684
 20
8.0717252688147365
 30
0.0
 42
0.0372239941094691
  0
VERTEX
  5
FF8
  8
0
 62
     7
 10
44.5615493941540421
 20
8.1074945815831096
 30
0.0
 42
0.0439020064645302
  0
VERTEX
  5
FF9
  8
0
 62
     7
 10
44.5150402437908568
 20
8.1341774631465373
 30
0.0
 42
0.0642650216631974
  0
VERTEX
  5
FFA
  8
0
 62
     7
 10
44.4754051737270188
 20
8.1466421969816878
 30
0.0
 42
0.0306770118240075
  0
VERTEX
  5
FFB
  8
0
 62
     7
 10
44.4222590873448411
 20
8.1527856875179072
 30
0.0
 42
0.011449004886501
  0
VERTEX
  5
FFC
  8
0
 62
     7
 10
44.3291589999999971
 20
8.1556589999999982
 30
0.0
  0
VERTEX
  5
FFD
  8
0
 62
     7
 10
44.0888091753557774
 20
8.1571003639452808
 30
0.0
 42
0.0021529804053149
  0
VERTEX
  5
FFE
  8
0
 62
     7
 10
43.9391116342949815
 20
8.1570674154566927
 30
0.0
 42
0.0029070198642806
  0
VERTEX
  5
FFF
  8
0
 62
     7
 10
43.8037355738563221
 20
8.1556665151626877
 30
0.0
 42
0.0019720195348639
  0
VERTEX
  5
1000
  8
0
 62
     7
 10
43.6902095869246097
 20
8.1533829879600681
 30
0.0
 42
0.0315709925689091
  0
VERTEX
  5
1001
  8
0
 62
     7
 10
43.6519529555799224
 20
8.1500397314530915
 30
0.0
 42
0.0400350098125148
  0
SEQEND
  5
1002
  8
0
 62
     7
  0
POLYLINE
  5
6BA
  8
0
 62
     7
 66
     1
 10
0.0
 20
0.0
 30
0.0
 70
     1
  0
VERTEX
  5
1003
  8
0
 62
     7
 10
38.9293576846817615
 20
8.1316218919422116
 30
0.0
 42
0.0383019741759441
  0
VERTEX
  5
1004
  8
0
 62
     7
 10
38.8891475401221882
 20
8.1099086215929521
 30
0.0
 42
0.0381040009430043
  0
VERTEX
  5
1005
  8
0
 62
     7
 10
38.8525407692762101
 20
8.0821989435845794
 30
0.0
 42
0.0347019763590281
  0
VERTEX
  5
1006
  8
0
 62
     7
 10
38.8193203194296999
 20
8.0484363203069353
 30
0.0
 42
0.0958630219828958
  0
VERTEX
  5
1007
  8
0
 62
     7
 10
38.7788655132108104
 20
7.977258548049269
 30
0.0
 42
0.0644119864557427
  0
VERTEX
  5
1008
  8
0
 62
     7
 10
38.7605084699605982
 20
7.8852656517298572
 30
0.0
 42
0.0173930301886796
  0
VERTEX
  5
1009
  8
0
 62
     7
 10
38.754725999999998
 20
7.713210000000001
 30
0.0
  0
VERTEX
  5
100A
  8
0
 62
     7
 10
38.7563710000000015
 20
7.129097999999999
 30
0.0
  0
VERTEX
  5
100B
  8
0
 62
     7
 10
38.759838000000002
 20
6.3455510000000004
 30
0.0
  0
VERTEX
  5
100C
  8
0
 62
     7
 10
38.7859300731018379
 20
6.2405510328455671
 30
0.0
 42
0.0370239964635731
  0
VERTEX
  5
100D
  8
0
 62
     7
 10
38.8674223061963531
 20
5.992626571816432
 30
0.0
 42
0.0386489960814486
  0
VERTEX
  5
100E
  8
0
 62
     7
 10
38.9836652539300985
 20
5.7631406140246169
 30
0.0
 42
0.0394420548606601
  0
VERTEX
  5
100F
  8
0
 62
     7
 10
39.131260024567851
 20
5.5585530307634583
 30
0.0
 42
0.04224706994838
  0
VERTEX
  5
1010
  8
0
 62
     7
 10
39.306071927610617
 20
5.384733328133696
 30
0.0
 42
0.0374679513094841
  0
VERTEX
  5
1011
  8
0
 62
     7
 10
39.5179644517669502
 20
5.2324335180003123
 30
0.0
 42
0.0411130040238353
  0
VERTEX
  5
1012
  8
0
 62
     7
 10
39.7439299513737367
 20
5.1187482390911159
 30
0.0
 42
0.0420499956797581
  0
VERTEX
  5
1013
  8
0
 62
     7
 10
39.9806322608006113
 20
5.0455540549390809
 30
0.0
 42
0.0429959305927144
  0
VERTEX
  5
1014
  8
0
 62
     7
 10
40.2244833236291512
 20
5.013698663055921
 30
0.0
 42
0.0165680326306701
  0
VERTEX
  5
1015
  8
0
 62
     7
 10
40.333172110847741
 20
5.0125200445546509
 30
0.0
 42
0.0575260225005782
  0
VERTEX
  5
1016
  8
0
 62
     7
 10
40.4026847292017379
 20
5.0221174279040257
 30
0.0
 42
0.0756320173356024
  0
VERTEX
  5
1017
  8
0
 62
     7
 10
40.4577153325667069
 20
5.0455888220174803
 30
0.0
 42
0.0445819799388484
  0
VERTEX
  5
1018
  8
0
 62
     7
 10
40.515038969562859
 20
5.0885522179921097
 30
0.0
 42
0.0423679886051315
  0
VERTEX
  5
1019
  8
0
 62
     7
 10
40.5608190608941612
 20
5.1373204621975752
 30
0.0
 42
0.0628889619678338
  0
VERTEX
  5
101A
  8
0
 62
     7
 10
40.5910801713605522
 20
5.1874108253397173
 30
0.0
 42
0.0627160272956862
  0
VERTEX
  5
101B
  8
0
 62
     7
 10
40.6079987361979065
 20
5.2435552925674909
 30
0.0
 42
0.0418640269309651
  0
VERTEX
  5
101C
  8
0
 62
     7
 10
40.6136149999999816
 20
5.3105508841327573
 30
0.0
 42
0.0405260289371808
  0
VERTEX
  5
101D
  8
0
 62
     7
 10
40.6085021981975984
 20
5.3735437606938419
 30
0.0
 42
0.0551159899626797
  0
VERTEX
  5
101E
  8
0
 62
     7
 10
40.5931874457434887
 20
5.428424766294615
 30
0.0
 42
0.0562039851679223
  0
VERTEX
  5
101F
  8
0
 62
     7
 10
40.5665520498624588
 20
5.4778248073416318
 30
0.0
 42
0.0445089940834302
  0
VERTEX
  5
1020
  8
0
 62
     7
 10
40.5276333897404584
 20
5.5244243743766681
 30
0.0
 42
0.0490630004516857
  0
VERTEX
  5
1021
  8
0
 62
     7
 10
40.4784394518391224
 20
5.5648594539368821
 30
0.0
 42
0.0597360166800874
  0
VERTEX
  5
1022
  8
0
 62
     7
 10
40.4253272469415919
 20
5.5918805026301506
 30
0.0
 42
0.048506997215453
  0
VERTEX
  5
1023
  8
0
 62
     7
 10
40.3588842870772027
 20
5.6091538425164131
 30
0.0
 42
0.0204159973333123
  0
VERTEX
  5
1024
  8
0
 62
     7
 10
40.2671125422729403
 20
5.6199021412207859
 30
0.0
 42
-0.0143940829106711
  0
VERTEX
  5
1025
  8
0
 62
     7
 10
40.1685119546953189
 20
5.6302481817911438
 30
0.0
 42
-0.0262529358905228
  0
VERTEX
  5
1026
  8
0
 62
     7
 10
40.0889996811790326
 20
5.6451954298720128
 30
0.0
 42
-0.0285320211183219
  0
VERTEX
  5
1027
  8
0
 62
     7
 10
40.0160932202876225
 20
5.6673805497614254
 30
0.0
 42
-0.0211409796698996
  0
VERTEX
  5
1028
  8
0
 62
     7
 10
39.9383109819012887
 20
5.6997805305509752
 30
0.0
 42
-0.0157910573765279
  0
VERTEX
  5
1029
  8
0
 62
     7
 10
39.8581181809206271
 20
5.7403702228280311
 30
0.0
 42
-0.0242979655732696
  0
VERTEX
  5
102A
  8
0
 62
     7
 10
39.7917699808567704
 20
5.7809282456665958
 30
0.0
 42
-0.0245960495074634
  0
VERTEX
  5
102B
  8
0
 62
     7
 10
39.7302516491598467
 20
5.8273537086759308
 30
0.0
 42
-0.0167330032424452
  0
VERTEX
  5
102C
  8
0
 62
     7
 10
39.664851685156151
 20
5.8857807598509542
 30
0.0
 42
-0.031680027512464
  0
VERTEX
  5
102D
  8
0
 62
     7
 10
39.5752963698841498
 20
5.9829042196542268
 30
0.0
 42
-0.0330789867761013
  0
VERTEX
  5
102E
  8
0
 62
     7
 10
39.5001284293774617
 20
6.089231552599899
 30
0.0
 42
-0.0328569580022681
  0
VERTEX
  5
102F
  8
0
 62
     7
 10
39.4392128130236514
 20
6.2052277966406884
 30
0.0
 42
-0.030394965666429
  0
VERTEX
  5
1030
  8
0
 62
     7
 10
39.3922035976343423
 20
6.331224368829
 30
0.0
 42
-0.0473830147116213
  0
VERTEX
  5
1031
  8
0
 62
     7
 10
39.3784124699084472
 20
6.3986720120424829
 30
0.0
 42
-0.0183900457700681
  0
VERTEX
  5
1032
  8
0
 62
     7
 10
39.3717237870722627
 20
6.4938379651455023
 30
0.0
 42
-0.0061990220307577
  0
VERTEX
  5
1033
  8
0
 62
     7
 10
39.3680840000000032
 20
6.6672089999999988
 30
0.0
  0
VERTEX
  5
1034
  8
0
 62
     7
 10
39.3602803363544425
 20
7.6692851017995922
 30
0.0
 42
0.0060339993393813
  0
VERTEX
  5
1035
  8
0
 62
     7
 10
39.3567383273000999
 20
7.8410616607570987
 30
0.0
 42
0.0159309981659538
  0
VERTEX
  5
1036
  8
0
 62
     7
 10
39.35082150658355
 20
7.9326254549431381
 30
0.0
 42
0.085921000500875
  0
VERTEX
  5
1037
  8
0
 62
     7
 10
39.3376692313267071
 20
7.9805520220582009
 30
0.0
 42
0.0951170075262072
  0
VERTEX
  5
1038
  8
0
 62
     7
 10
39.2760353103461171
 20
8.065274693589906
 30
0.0
 42
0.0808000133706035
  0
VERTEX
  5
1039
  8
0
 62
     7
 10
39.18403743846536
 20
8.1270011094699122
 30
0.0
 42
0.0809180092401703
  0
VERTEX
  5
103A
  8
0
 62
     7
 10
39.0773479360790219
 20
8.156326023025791
 30
0.0
 42
0.0958639863321489
  0
VERTEX
  5
103B
  8
0
 62
     7
 10
38.9733168065664728
 20
8.1475251142533534
 30
0.0
 42
0.035786005767227
  0
SEQEND
  5
103C
  8
0
 62
     7
  0
POLYLINE
  5
6BB
  8
0
 62
     7
 66
     1
 10
0.0
 20
0.0
 30
0.0
 70
     1
  0
VERTEX
  5
103D
  8
0
 62
     7
 10
36.6771845027189585
 20
7.5090469597051994
 30
0.0
 42
0.0361589934237726
  0
VERTEX
  5
103E
  8
0
 62
     7
 10
36.5198322770526076
 20
7.540458674329428
 30
0.0
 42
0.0925580125390968
  0
VERTEX
  5
103F
  8
0
 62
     7
 10
36.1811506379214904
 20
7.5201636046726659
 30
0.0
 42
0.0891489699483704
  0
VERTEX
  5
1040
  8
0
 62
     7
 10
35.8676552001138305
 20
7.3793113635958081
 30
0.0
 42
0.0882359744815423
  0
VERTEX
  5
1041
  8
0
 62
     7
 10
35.6203288446824615
 20
7.1365284641851998
 30
0.0
 42
0.0882720148182393
  0
VERTEX
  5
1042
  8
0
 62
     7
 10
35.4719141568630576
 20
6.8233881605448818
 30
0.0
 42
0.0262010421242636
  0
VERTEX
  5
1043
  8
0
 62
     7
 10
35.4604301570899878
 20
6.770557893277509
 30
0.0
 42
0.0216170219107745
  0
VERTEX
  5
1044
  8
0
 62
     7
 10
35.4536112875923806
 20
6.7133042306398103
 30
0.0
 42
0.0122559839932663
  0
VERTEX
  5
1045
  8
0
 62
     7
 10
35.4494623124075474
 20
6.6314666405998031
 30
0.0
 42
0.0023670243155207
  0
VERTEX
  5
1046
  8
0
 62
     7
 10
35.4462709104848983
 20
6.4832474215654283
 30
0.0
  0
VERTEX
  5
1047
  8
0
 62
     7
 10
35.4418719999999965
 20
6.2209440000000003
 30
0.0
  0
VERTEX
  5
1048
  8
0
 62
     7
 10
35.5397260000000017
 20
6.2806050000000004
 30
0.0
 42
-0.0193240242611547
  0
VERTEX
  5
1049
  8
0
 62
     7
 10
35.6283694238140214
 20
6.3300593661699924
 30
0.0
 42
-0.0140879860845823
  0
VERTEX
  5
104A
  8
0
 62
     7
 10
35.7303656175438533
 20
6.3783328653674971
 30
0.0
 42
-0.014220003051852
  0
VERTEX
  5
104B
  8
0
 62
     7
 10
35.833105040630528
 20
6.4200209669690462
 30
0.0
 42
-0.0222929994758801
  0
VERTEX
  5
104C
  8
0
 62
     7
 10
35.9238113058194628
 20
6.449319635046443
 30
0.0
 42
-0.0196480105324555
  0
VERTEX
  5
104D
  8
0
 62
     7
 10
36.0593840245829185
 20
6.4808587987843449
 30
0.0
 42
-0.0301469935243308
  0
VERTEX
  5
104E
  8
0
 62
     7
 10
36.1789189302666614
 20
6.4963653697634482
 30
0.0
 42
-0.013975010500009
  0
VERTEX
  5
104F
  8
0
 62
     7
 10
36.3509964862647905
 20
6.5033834487919497
 30
0.0
 42
-0.0013340126618309
  0
VERTEX
  5
1050
  8
0
 62
     7
 10
36.7713156402487584
 20
6.5076455239749
 30
0.0
  0
VERTEX
  5
1051
  8
0
 62
     7
 10
37.1353840000000019
 20
6.5107980000000003
 30
0.0
 42
0.0063539391947499
  0
VERTEX
  5
1052
  8
0
 62
     7
 10
37.2803919466491607
 20
6.5140593108794338
 30
0.0
 42
0.0073579696693303
  0
VERTEX
  5
1053
  8
0
 62
     7
 10
37.3638090575025785
 20
6.5182254981002181
 30
0.0
 42
0.3968939550097156
  0
VERTEX
  5
1054
  8
0
 62
     7
 10
37.3737288608014779
 20
6.5288603332564561
 30
0.0
 42
0.0171160032530737
  0
VERTEX
  5
1055
  8
0
 62
     7
 10
37.3732885289649133
 20
6.5400180812493254
 30
0.0
 42
0.0010670030798094
  0
VERTEX
  5
1056
  8
0
 62
     7
 10
37.3707869222554194
 20
6.5729620099619313
 30
0.0
 42
0.0015769979162512
  0
VERTEX
  5
1057
  8
0
 62
     7
 10
37.3676041913445829
 20
6.6122002974226053
 30
0.0
 42
0.0011690002488733
  0
VERTEX
  5
1058
  8
0
 62
     7
 10
37.3638428242819529
 20
6.6555502450464212
 30
0.0
 42
0.0403100019077228
  0
VERTEX
  5
1059
  8
0
 62
     7
 10
37.3330593845607908
 20
6.8355048880836566
 30
0.0
 42
0.0481779991552026
  0
VERTEX
  5
105A
  8
0
 62
     7
 10
37.2747071227993274
 20
6.9972547306410844
 30
0.0
 42
0.0482299952432464
  0
VERTEX
  5
105B
  8
0
 62
     7
 10
37.1865307640470419
 20
7.1447057892543766
 30
0.0
 42
0.0405370119816051
  0
VERTEX
  5
105C
  8
0
 62
     7
 10
37.0669383937987433
 20
7.2820685438852433
 30
0.0
 42
0.0394150082721992
  0
VERTEX
  5
105D
  8
0
 62
     7
 10
36.9481360482755079
 20
7.3810493613608958
 30
0.0
 42
0.0436820011217496
  0
VERTEX
  5
105E
  8
0
 62
     7
 10
36.8191283887516931
 20
7.4563861770685547
 30
0.0
 42
0.0430049793722612
  0
SEQEND
  5
105F
  8
0
 62
     7
  0
POLYLINE
  5
6BC
  8
0
 62
     7
 66
     1
 10
0.0
 20
0.0
 30
0.0
 70
     1
  0
VERTEX
  5
1060
  8
0
 62
     7
 10
35.9821491244878615
 20
8.0985237378730304
 30
0.0
 42
0.0218300045452111
  0
VERTEX
  5
1061
  8
0
 62
     7
 10
35.8531500022237566
 20
8.0551449452132076
 30
0.0
 42
0.0210229997226024
  0
VERTEX
  5
1062
  8
0
 62
     7
 10
35.7267554372136473
 20
8.0001955941877867
 30
0.0
 42
0.0566299972397402
  0
VERTEX
  5
1063
  8
0
 62
     7
 10
35.4223807603341214
 20
7.8071304053024937
 30
0.0
 42
0.0575110155438877
  0
VERTEX
  5
1064
  8
0
 62
     7
 10
35.1708446131715107
 20
7.5515861247633689
 30
0.0
 42
0.0568450267527283
  0
VERTEX
  5
1065
  8
0
 62
     7
 10
34.981790851835207
 20
7.2425627299839572
 30
0.0
 42
0.053048039515129
  0
VERTEX
  5
1066
  8
0
 62
     7
 10
34.8618171545361619
 20
6.8917083449894596
 30
0.0
 42
0.0328940120770991
  0
VERTEX
  5
1067
  8
0
 62
     7
 10
34.8488706217211899
 20
6.8102819107479471
 30
0.0
 42
0.0156709839238046
  0
VERTEX
  5
1068
  8
0
 62
     7
 10
34.8424421944647804
 20
6.7043531663877332
 30
0.0
 42
0.0057249693839284
  0
VERTEX
  5
1069
  8
0
 62
     7
 10
34.8391459999999995
 20
6.5191429999999988
 30
0.0
  0
VERTEX
  5
106A
  8
0
 62
     7
 10
34.8364329999999995
 20
6.0246449999999987
 30
0.0
  0
VERTEX
  5
106B
  8
0
 62
     7
 10
34.8345306967530775
 20
5.5238605120552977
 30
0.0
 42
0.0058650018524373
  0
VERTEX
  5
106C
  8
0
 62
     7
 10
34.8360667449276917
 20
5.348389084711564
 30
0.0
 42
0.015928004166755
  0
VERTEX
  5
106D
  8
0
 62
     7
 10
34.8410099783076532
 20
5.2539311308351131
 30
0.0
 42
0.068571991622864
  0
VERTEX
  5
106E
  8
0
 62
     7
 10
34.8533247736076106
 20
5.1991513700099574
 30
0.0
 42
0.0771469865873369
  0
VERTEX
  5
106F
  8
0
 62
     7
 10
34.8963944521734604
 20
5.122508369776102
 30
0.0
 42
0.0766329724146287
  0
VERTEX
  5
1070
  8
0
 62
     7
 10
34.9607614157834306
 20
5.0623247536990776
 30
0.0
 42
0.0759420918207214
  0
VERTEX
  5
1071
  8
0
 62
     7
 10
35.0408222469781023
 20
5.0239230896551961
 30
0.0
 42
0.0737069919249362
  0
VERTEX
  5
1072
  8
0
 62
     7
 10
35.1295313168484924
 20
5.0106503879674094
 30
0.0
 42
0.0649520510395799
  0
VERTEX
  5
1073
  8
0
 62
     7
 10
35.2338551157019495
 20
5.0241130971049568
 30
0.0
 42
0.0952880458253108
  0
VERTEX
  5
1074
  8
0
 62
     7
 10
35.317010468121083
 20
5.0640814838757313
 30
0.0
 42
0.090818914699594
  0
VERTEX
  5
1075
  8
0
 62
     7
 10
35.3821034683051394
 20
5.1337326143848054
 30
0.0
 42
0.0542090722959887
  0
VERTEX
  5
1076
  8
0
 62
     7
 10
35.4328208013300028
 20
5.23555130977459
 30
0.0
 42
-0.0525059835603174
  0
VERTEX
  5
1077
  8
0
 62
     7
 10
35.5472989819435199
 20
5.4673517604835418
 30
0.0
 42
-0.0668559482937964
  0
VERTEX
  5
1078
  8
0
 62
     7
 10
35.7002714185872776
 20
5.6500127480579971
 30
0.0
 42
-0.0676509606453226
  0
VERTEX
  5
1079
  8
0
 62
     7
 10
35.8944419732024329
 20
5.7842846700423438
 30
0.0
 42
-0.0555089889064492
  0
VERTEX
  5
107A
  8
0
 62
     7
 10
36.1307437953296713
 20
5.872966752791255
 30
0.0
 42
-0.0325149928379983
  0
VERTEX
  5
107B
  8
0
 62
     7
 10
36.2012167839409926
 20
5.8860191004037237
 30
0.0
 42
-0.0210679924131314
  0
VERTEX
  5
107C
  8
0
 62
     7
 10
36.283918980011542
 20
5.8923150531693747
 30
0.0
 42
-0.0077820173527072
  0
VERTEX
  5
107D
  8
0
 62
     7
 10
36.4237139999999968
 20
5.8948669999999987
 30
0.0
  0
VERTEX
  5
107E
  8
0
 62
     7
 10
36.7938120000000026
 20
5.8954139999999988
 30
0.0
  0
VERTEX
  5
107F
  8
0
 62
     7
 10
37.3688130000000029
 20
5.8955510000000002
 30
0.0
  0
VERTEX
  5
1080
  8
0
 62
     7
 10
37.3788109999999989
 20
5.2155509999999996
 30
0.0
  0
VERTEX
  5
1081
  8
0
 62
     7
 10
37.4083021537977913
 20
5.1623144566298906
 30
0.0
 42
0.0640269649799647
  0
VERTEX
  5
1082
  8
0
 62
     7
 10
37.4556123352782535
 20
5.0979355222138878
 30
0.0
 42
0.0709930036724124
  0
VERTEX
  5
1083
  8
0
 62
     7
 10
37.516208921081251
 20
5.0501801590587609
 30
0.0
 42
0.0702039452651663
  0
VERTEX
  5
1084
  8
0
 62
     7
 10
37.5883514053837473
 20
5.0209066851533599
 30
0.0
 42
0.060626954355205
  0
VERTEX
  5
1085
  8
0
 62
     7
 10
37.6695301673791008
 20
5.0107702734528017
 30
0.0
 42
0.0325429825982576
  0
VERTEX
  5
1086
  8
0
 62
     7
 10
37.7306904291367076
 20
5.0145647940024487
 30
0.0
 42
0.0469790423770598
  0
VERTEX
  5
1087
  8
0
 62
     7
 10
37.7835344219907512
 20
5.0264309905371238
 30
0.0
 42
0.0506360208067044
  0
VERTEX
  5
1088
  8
0
 62
     7
 10
37.8301690378688207
 20
5.0470326836164281
 30
0.0
 42
0.0477310158039428
  0
VERTEX
  5
1089
  8
0
 62
     7
 10
37.8727163328755623
 20
5.0769334523987384
 30
0.0
 42
0.0424630485061916
  0
VERTEX
  5
108A
  8
0
 62
     7
 10
37.9103871919300133
 20
5.1151684630438501
 30
0.0
 42
0.0481720162760581
  0
VERTEX
  5
108B
  8
0
 62
     7
 10
37.9393013579502068
 20
5.1577227690199541
 30
0.0
 42
0.0471680124762371
  0
VERTEX
  5
108C
  8
0
 62
     7
 10
37.9599920771311474
 20
5.2058122470282671
 30
0.0
 42
0.0379879608089099
  0
VERTEX
  5
108D
  8
0
 62
     7
 10
37.973162102153303
 20
5.2605520880144621
 30
0.0
 42
0.0391359847029073
  0
VERTEX
  5
108E
  8
0
 62
     7
 10
37.9824449999999985
 20
5.3736319999999989
 30
0.0
  0
VERTEX
  5
108F
  8
0
 62
     7
 10
37.9835843036112308
 20
5.9334921668816589
 30
0.0
 42
0.0015519523801827
  0
VERTEX
  5
1090
  8
0
 62
     7
 10
37.9821180201208719
 20
6.4668954560284897
 30
0.0
 42
0.0165360014290551
  0
VERTEX
  5
1091
  8
0
 62
     7
 10
37.9736770568965483
 20
6.6836552166092398
 30
0.0
 42
0.0194649995160103
  0
VERTEX
  5
1092
  8
0
 62
     7
 10
37.9565010280795789
 20
6.8378861307659298
 30
0.0
 42
0.0252239982469103
  0
VERTEX
  5
1093
  8
0
 62
     7
 10
37.9281982606939323
 20
6.9773301814289344
 30
0.0
 42
0.025845998218846
  0
VERTEX
  5
1094
  8
0
 62
     7
 10
37.8866753874355027
 20
7.1104386799742292
 30
0.0
 42
0.0222459962769638
  0
VERTEX
  5
1095
  8
0
 62
     7
 10
37.8297774899655295
 20
7.2455516364901733
 30
0.0
 42
0.0217119992890014
  0
VERTEX
  5
1096
  8
0
 62
     7
 10
37.7583285123653312
 20
7.3806581440405461
 30
0.0
 42
0.0245460069034735
  0
VERTEX
  5
1097
  8
0
 62
     7
 10
37.6780652915937821
 20
7.5034505564842791
 30
0.0
 42
0.024541994593925
  0
VERTEX
  5
1098
  8
0
 62
     7
 10
37.5861405097622665
 20
7.6178017073824487
 30
0.0
 42
0.0216899977840604
  0
VERTEX
  5
1099
  8
0
 62
     7
 10
37.4797460687046211
 20
7.7276209444196402
 30
0.0
 42
0.0534809977668239
  0
VERTEX
  5
109A
  8
0
 62
     7
 10
37.2117671624541515
 20
7.9317621547269042
 30
0.0
 42
0.0534870232497411
  0
VERTEX
  5
109B
  8
0
 62
     7
 10
36.9066041551027482
 20
8.0744112805731927
 30
0.0
 42
0.0537659937913223
  0
VERTEX
  5
109C
  8
0
 62
     7
 10
36.5796536581822807
 20
8.1485460238536405
 30
0.0
 42
0.0551809911300922
  0
VERTEX
  5
109D
  8
0
 62
     7
 10
36.2473304767600695
 20
8.15030571096095
 30
0.0
 42
0.0219769968496099
  0
VERTEX
  5
109E
  8
0
 62
     7
 10
36.1136038886757476
 20
8.1302447647099658
 30
0.0
 42
0.0219759840697415
  0
SEQEND
  5
109F
  8
0
 62
     7
  0
POLYLINE
  5
6BD
  8
0
 62
     7
 66
     1
 10
0.0
 20
0.0
 30
0.0
 70
     1
  0
VERTEX
  5
10A0
  8
0
 62
     7
 10
41.3971683272900606
 20
8.8744248380727271
 30
0.0
 42
0.0790779664660676
  0
VERTEX
  5
10A1
  8
0
 62
     7
 10
41.3262066674505775
 20
8.8070517553759196
 30
0.0
 42
0.0793159594596891
  0
VERTEX
  5
10A2
  8
0
 62
     7
 10
41.279827924708087
 20
8.7211797934183242
 30
0.0
 42
0.0844249809659126
  0
VERTEX
  5
10A3
  8
0
 62
     7
 10
41.2638120000000299
 20
8.6269911439228526
 30
0.0
 42
0.0395530430564477
  0
VERTEX
  5
10A4
  8
0
 62
     7
 10
41.268490070405683
 20
8.5679650260372409
 30
0.0
 42
0.0493859995291989
  0
VERTEX
  5
10A5
  8
0
 62
     7
 10
41.2824454949595676
 20
8.5148166726340797
 30
0.0
 42
0.05038196122776
  0
VERTEX
  5
10A6
  8
0
 62
     7
 10
41.3062622401769417
 20
8.4662865294487837
 30
0.0
 42
0.0438879863256079
  0
VERTEX
  5
10A7
  8
0
 62
     7
 10
41.3402843800807887
 20
8.4210242728582241
 30
0.0
 42
0.0351200159958631
  0
VERTEX
  5
10A8
  8
0
 62
     7
 10
41.3874215235900706
 20
8.375475825856288
 30
0.0
 42
0.0655649963263211
  0
VERTEX
  5
10A9
  8
0
 62
     7
 10
41.4321166222433988
 20
8.3470098144470501
 30
0.0
 42
0.0638149829787465
  0
VERTEX
  5
10AA
  8
0
 62
     7
 10
41.4834775150398727
 20
8.3306289064493235
 30
0.0
 42
0.0316220944157566
  0
VERTEX
  5
10AB
  8
0
 62
     7
 10
41.5515313125448529
 20
8.3225594153637026
 30
0.0
 42
0.0109830742610024
  0
VERTEX
  5
10AC
  8
0
 62
     7
 10
41.6020742105822805
 20
8.3208980302572826
 30
0.0
 42
0.0488170194101244
  0
VERTEX
  5
10AD
  8
0
 62
     7
 10
41.6316462922037118
 20
8.3234673422901775
 30
0.0
 42
0.0534750335489843
  0
VERTEX
  5
10AE
  8
0
 62
     7
 10
41.6588775113892993
 20
8.3316266098161016
 30
0.0
 42
0.0148870302700966
  0
VERTEX
  5
10AF
  8
0
 62
     7
 10
41.699461097686978
 20
8.3501238165499672
 30
0.0
 42
0.092569934058346
  0
VERTEX
  5
10B0
  8
0
 62
     7
 10
41.7931740563049416
 20
8.4202020080873936
 30
0.0
 42
0.0973330461076317
  0
VERTEX
  5
10B1
  8
0
 62
     7
 10
41.8533011411517677
 20
8.5182576021932697
 30
0.0
 42
0.0980960115183398
  0
VERTEX
  5
10B2
  8
0
 62
     7
 10
41.871558114531048
 20
8.6311156342954884
 30
0.0
 42
0.0956219974499775
  0
VERTEX
  5
10B3
  8
0
 62
     7
 10
41.8457397411560024
 20
8.7435239839134233
 30
0.0
 42
0.0905469910711356
  0
VERTEX
  5
10B4
  8
0
 62
     7
 10
41.7851715127242471
 20
8.8326122072739928
 30
0.0
 42
0.0877239984423805
  0
VERTEX
  5
10B5
  8
0
 62
     7
 10
41.6964232971691331
 20
8.8957210867743921
 30
0.0
 42
0.0878010018873782
  0
VERTEX
  5
10B6
  8
0
 62
     7
 10
41.5914809781429682
 20
8.9245327925506661
 30
0.0
 42
0.0909169894320109
  0
VERTEX
  5
10B7
  8
0
 62
     7
 10
41.4843715973351266
 20
8.9150265917607001
 30
0.0
 42
0.0831360023674827
  0
SEQEND
  5
10B8
  8
0
 62
     7
  0
POLYLINE
  5
6BE
  8
0
 62
     7
 66
     1
 10
0.0
 20
0.0
 30
0.0
 70
     1
  0
VERTEX
  5
10B9
  8
0
 62
     7
 10
13.3210619392363405
 20
8.8754134463356973
 30
0.0
 42
0.0861770064504982
  0
VERTEX
  5
10BA
  8
0
 62
     7
 10
13.2499461349076206
 20
8.8087747391875801
 30
0.0
 42
0.0857130382389234
  0
VERTEX
  5
10BB
  8
0
 62
     7
 10
13.2051914561757293
 20
8.7217362921590311
 30
0.0
 42
0.074918972757344
  0
VERTEX
  5
10BC
  8
0
 62
     7
 10
13.1894371167252498
 20
8.6204934129642634
 30
0.0
 42
0.0149200461412845
  0
VERTEX
  5
10BD
  8
0
 62
     7
 10
13.1904779152329894
 20
8.5788283440598931
 30
0.0
 42
0.0377710502949533
  0
VERTEX
  5
10BE
  8
0
 62
     7
 10
13.1944138645370703
 20
8.5488048798608247
 30
0.0
 42
0.0412700005219841
  0
VERTEX
  5
10BF
  8
0
 62
     7
 10
13.2025757116552693
 20
8.5212922463606304
 30
0.0
 42
0.0210430100442284
  0
VERTEX
  5
10C0
  8
0
 62
     7
 10
13.2170524224485693
 20
8.4882513949430738
 30
0.0
 42
0.0621060459724088
  0
VERTEX
  5
10C1
  8
0
 62
     7
 10
13.2613895230760104
 20
8.4204458146787218
 30
0.0
 42
0.0722170293959561
  0
VERTEX
  5
10C2
  8
0
 62
     7
 10
13.3190832693203305
 20
8.3694824780566961
 30
0.0
 42
0.0715908525767801
  0
VERTEX
  5
10C3
  8
0
 62
     7
 10
13.3893324468052199
 20
8.3367223762839622
 30
0.0
 42
0.0596008895016247
  0
VERTEX
  5
10C4
  8
0
 62
     7
 10
13.4705548430486992
 20
8.3224128008960445
 30
0.0
 42
0.0382940649773444
  0
VERTEX
  5
10C5
  8
0
 62
     7
 10
13.5418279689660999
 20
8.32392871140806
 30
0.0
 42
0.0649299014211944
  0
VERTEX
  5
10C6
  8
0
 62
     7
 10
13.5998806161068799
 20
8.3373646228214309
 30
0.0
 42
0.0660619929542676
  0
VERTEX
  5
10C7
  8
0
 62
     7
 10
13.6518585193389708
 20
8.3650305302304968
 30
0.0
 42
0.0411200758158407
  0
VERTEX
  5
10C8
  8
0
 62
     7
 10
13.7046124872807802
 20
8.4097517109302657
 30
0.0
 42
0.0412590736399067
  0
VERTEX
  5
10C9
  8
0
 62
     7
 10
13.7496274744301701
 20
8.4628787752691732
 30
0.0
 42
0.0664150708262679
  0
VERTEX
  5
10CA
  8
0
 62
     7
 10
13.7773965738836406
 20
8.5152171296144132
 30
0.0
 42
0.0657170428681143
  0
VERTEX
  5
10CB
  8
0
 62
     7
 10
13.79065157844067
 20
8.573408310359083
 30
0.0
 42
0.039500037626477
  0
VERTEX
  5
10CC
  8
0
 62
     7
 10
13.7916243561219201
 20
8.6443407648068504
 30
0.0
 42
0.0356629996190661
  0
VERTEX
  5
10CD
  8
0
 62
     7
 10
13.7836125693623899
 20
8.7026608527509293
 30
0.0
 42
0.0565320071828436
  0
VERTEX
  5
10CE
  8
0
 62
     7
 10
13.7677308705703005
 20
8.7504652841861272
 30
0.0
 42
0.0564300042988077
  0
VERTEX
  5
10CF
  8
0
 62
     7
 10
13.7415207732201594
 20
8.7935576496125538
 30
0.0
 42
0.0353860332956249
  0
VERTEX
  5
10D0
  8
0
 62
     7
 10
13.7021379230252407
 20
8.8375729969139432
 30
0.0
 42
0.0637179905779566
  0
VERTEX
  5
10D1
  8
0
 62
     7
 10
13.6387554067459202
 20
8.88504694531251
 30
0.0
 42
0.0614970173082303
  0
VERTEX
  5
10D2
  8
0
 62
     7
 10
13.5647109470210108
 20
8.9157202185245463
 30
0.0
 42
0.0629429966071407
  0
VERTEX
  5
10D3
  8
0
 62
     7
 10
13.4871231338795106
 20
8.9269884919069913
 30
0.0
 42
0.0734189808460475
  0
VERTEX
  5
10D4
  8
0
 62
     7
 10
13.4133164724898002
 20
8.9174822960618467
 30
0.0
 42
0.0767289901159771
  0
SEQEND
  5
10D5
  8
0
 62
     7
  0
POLYLINE
  5
6BF
  8
0
 62
     7
 66
     1
 10
0.0
 20
0.0
 30
0.0
 70
     1
  0
VERTEX
  5
10D6
  8
0
 62
     7
 10
10.8138119558105608
 20
7.5172109269790246
 30
0.0
 42
0.0414850042290854
  0
VERTEX
  5
10D7
  8
0
 62
     7
 10
10.7196516341997796
 20
7.5369517374760848
 30
0.0
 42
0.0201279869609116
  0
VERTEX
  5
10D8
  8
0
 62
     7
 10
10.5970071004723607
 20
7.547216080211486
 30
0.0
 42
0.0200520214004855
  0
VERTEX
  5
10D9
  8
0
 62
     7
 10
10.4752901473967199
 20
7.5475968871131904
 30
0.0
 42
0.0466610153461771
  0
VERTEX
  5
10DA
  8
0
 62
     7
 10
10.3849407556497901
 20
7.5357635252602053
 30
0.0
 42
0.0399240261124875
  0
VERTEX
  5
10DB
  8
0
 62
     7
 10
10.2213830105398493
 20
7.4845808055362948
 30
0.0
 42
0.0385470131373723
  0
VERTEX
  5
10DC
  8
0
 62
     7
 10
10.0660115373223302
 20
7.4075749098661277
 30
0.0
 42
0.0397200057129206
  0
VERTEX
  5
10DD
  8
0
 62
     7
 10
9.9290358233327414
 20
7.3104894309588158
 30
0.0
 42
0.0500419625080011
  0
VERTEX
  5
10DE
  8
0
 62
     7
 10
9.8203608928280648
 20
7.1994866927365022
 30
0.0
 42
0.0553029899308004
  0
VERTEX
  5
10DF
  8
0
 62
     7
 10
9.6976461643283614
 20
7.0056151279724084
 30
0.0
 42
0.0585379882087776
  0
VERTEX
  5
10E0
  8
0
 62
     7
 10
9.6232452539313798
 20
6.7931759077150442
 30
0.0
 42
0.0582700638569341
  0
VERTEX
  5
10E1
  8
0
 62
     7
 10
9.5998917835322786
 20
6.5684001012125011
 30
0.0
 42
0.0539370157131114
  0
VERTEX
  5
10E2
  8
0
 62
     7
 10
9.6278102040695615
 20
6.338141499696146
 30
0.0
 42
0.023957956503959
  0
VERTEX
  5
10E3
  8
0
 62
     7
 10
9.6484074756004308
 20
6.265512958076128
 30
0.0
 42
0.0257090341858949
  0
VERTEX
  5
10E4
  8
0
 62
     7
 10
9.6754583224052784
 20
6.1969179669906191
 30
0.0
 42
0.023770995137336
  0
VERTEX
  5
10E5
  8
0
 62
     7
 10
9.7113707737779187
 20
6.1270159543106271
 30
0.0
 42
0.0157619642251074
  0
VERTEX
  5
10E6
  8
0
 62
     7
 10
9.7588051390800352
 20
6.0502744256855001
 30
0.0
 42
0.0437119950438237
  0
VERTEX
  5
10E7
  8
0
 62
     7
 10
9.8713425613800361
 20
5.9089656425671739
 30
0.0
 42
0.044666036238235
  0
VERTEX
  5
10E8
  8
0
 62
     7
 10
10.0059804740415892
 20
5.7904912791161811
 30
0.0
 42
0.0454380494653787
  0
VERTEX
  5
10E9
  8
0
 62
     7
 10
10.1571641939658299
 20
5.6995518720319334
 30
0.0
 42
0.0487678763943711
  0
VERTEX
  5
10EA
  8
0
 62
     7
 10
10.3188122554091493
 20
5.6399461789297671
 30
0.0
 42
0.0341339544467055
  0
VERTEX
  5
10EB
  8
0
 62
     7
 10
10.4138757805899598
 20
5.6219041589718506
 30
0.0
 42
0.0207910663022841
  0
VERTEX
  5
10EC
  8
0
 62
     7
 10
10.52789301858739
 20
5.6130219414329403
 30
0.0
 42
0.0208100331439834
  0
VERTEX
  5
10ED
  8
0
 62
     7
 10
10.6419503853213104
 20
5.6136424113227159
 30
0.0
 42
0.0349229581825731
  0
VERTEX
  5
10EE
  8
0
 62
     7
 10
10.7370752539024394
 20
5.6248104149245446
 30
0.0
 42
0.0694199500755509
  0
VERTEX
  5
10EF
  8
0
 62
     7
 10
10.9998198469814294
 20
5.7134305168357518
 30
0.0
 42
0.072935050169932
  0
VERTEX
  5
10F0
  8
0
 62
     7
 10
11.2233956169905298
 20
5.8695387939231862
 30
0.0
 42
0.0719189578301733
  0
VERTEX
  5
10F1
  8
0
 62
     7
 10
11.3951438195209001
 20
6.0854102937101837
 30
0.0
 42
0.0647409990812993
  0
VERTEX
  5
10F2
  8
0
 62
     7
 10
11.5062418820725494
 20
6.3487955850721098
 30
0.0
 42
0.0210280459539554
  0
VERTEX
  5
10F3
  8
0
 62
     7
 10
11.5171258757952
 20
6.3957412591236871
 30
0.0
 42
0.0240869627431038
  0
VERTEX
  5
10F4
  8
0
 62
     7
 10
11.5234425954622193
 20
6.44135691819731
 30
0.0
 42
0.0172319753074874
  0
VERTEX
  5
10F5
  8
0
 62
     7
 10
11.5265786847468892
 20
6.4983544921484091
 30
0.0
 42
0.0051290047779304
  0
VERTEX
  5
10F6
  8
0
 62
     7
 10
11.5274739999976692
 20
6.5855504511498442
 30
0.0
 42
0.0151929989622443
  0
VERTEX
  5
10F7
  8
0
 62
     7
 10
11.5237161497320209
 20
6.7091891344341628
 30
0.0
 42
0.0358909998299922
  0
VERTEX
  5
10F8
  8
0
 62
     7
 10
11.5115409340900996
 20
6.8005210588155167
 30
0.0
 42
0.0384859976728411
  0
VERTEX
  5
10F9
  8
0
 62
     7
 10
11.4870522859523998
 20
6.8852974222078771
 30
0.0
 42
0.0200240019834178
  0
VERTEX
  5
10FA
  8
0
 62
     7
 10
11.4443442409609499
 20
6.986823868551971
 30
0.0
 42
0.0531270019576143
  0
VERTEX
  5
10FB
  8
0
 62
     7
 10
11.3353689300040994
 20
7.1668314801753858
 30
0.0
 42
0.0552849930898079
  0
VERTEX
  5
10FC
  8
0
 62
     7
 10
11.1921826490444101
 20
7.3171808754813483
 30
0.0
 42
0.0543189929669836
  0
VERTEX
  5
10FD
  8
0
 62
     7
 10
11.0171104854497699
 20
7.4346103435386688
 30
0.0
 42
0.0482129999418523
  0
SEQEND
  5
10FE
  8
0
 62
     7
  0
POLYLINE
  5
6C0
  8
0
 62
     7
 66
     1
 10
0.0
 20
0.0
 30
0.0
 70
     1
  0
VERTEX
  5
10FF
  8
0
 62
     7
 10
11.7031830217348993
 20
8.9025123172385339
 30
0.0
 42
0.030252979225179
  0
VERTEX
  5
1100
  8
0
 62
     7
 10
11.6774085976296895
 20
8.8870470359566447
 30
0.0
 42
0.0269400079374283
  0
VERTEX
  5
1101
  8
0
 62
     7
 10
11.65090545965319
 20
8.8666997304568689
 30
0.0
 42
0.0185249794950482
  0
VERTEX
  5
1102
  8
0
 62
     7
 10
11.6230705378833292
 20
8.8409935934250665
 30
0.0
 42
0.0617170144921442
  0
VERTEX
  5
1103
  8
0
 62
     7
 10
11.5695948694375197
 20
8.7727710085308193
 30
0.0
 42
0.097982020962356
  0
VERTEX
  5
1104
  8
0
 62
     7
 10
11.5444963295225893
 20
8.7031829628941164
 30
0.0
 42
0.035454990393978
  0
VERTEX
  5
1105
  8
0
 62
     7
 10
11.5353326713389297
 20
8.5888859441127572
 30
0.0
 42
0.0022720298964996
  0
VERTEX
  5
1106
  8
0
 62
     7
 10
11.5338139999984506
 20
8.2537775041834625
 30
0.0
 42
-0.0011740922539552
  0
VERTEX
  5
1107
  8
0
 62
     7
 10
11.5334212002804204
 20
8.0876516923805113
 30
0.0
 42
-0.0019589687849648
  0
VERTEX
  5
1108
  8
0
 62
     7
 10
11.5322180000000003
 20
7.9478089999999986
 30
0.0
  0
VERTEX
  5
1109
  8
0
 62
     7
 10
11.5306108072793698
 20
7.822750689397532
 30
0.0
 42
-0.410366962485972
  0
VERTEX
  5
110A
  8
0
 62
     7
 10
11.528381999654
 20
7.8205489999999998
 30
0.0
 42
-0.1466659787623402
  0
VERTEX
  5
110B
  8
0
 62
     7
 10
11.5247477445893605
 20
7.8216399260921596
 30
0.0
 42
-0.0032100816729525
  0
VERTEX
  5
110C
  8
0
 62
     7
 10
11.5092520067758404
 20
7.8319909969526069
 30
0.0
 42
-0.0070440733779175
  0
VERTEX
  5
110D
  8
0
 62
     7
 10
11.4912313894953808
 20
7.8445711779113179
 30
0.0
 42
-0.0046660058106389
  0
VERTEX
  5
110E
  8
0
 62
     7
 10
11.4708829576219795
 20
7.8594994145642687
 30
0.0
 42
0.0488509857864943
  0
VERTEX
  5
110F
  8
0
 62
     7
 10
11.2589452508585204
 20
7.9878592500058039
 30
0.0
 42
0.0405259939732668
  0
VERTEX
  5
1110
  8
0
 62
     7
 10
11.0125828723945798
 20
8.0822628304944661
 30
0.0
 42
0.0398769845287823
  0
VERTEX
  5
1111
  8
0
 62
     7
 10
10.7497714094401804
 20
8.1369634173267507
 30
0.0
 42
0.0432879999010673
  0
VERTEX
  5
1112
  8
0
 62
     7
 10
10.4888118457963007
 20
8.1471422822918633
 30
0.0
 42
0.073271023004459
  0
VERTEX
  5
1113
  8
0
 62
     7
 10
10.0334420695845292
 20
8.0577580742954815
 30
0.0
 42
0.0746140090652618
  0
VERTEX
  5
1114
  8
0
 62
     7
 10
9.6262988773038067
 20
7.841086890568258
 30
0.0
 42
0.0746829958866677
  0
VERTEX
  5
1115
  8
0
 62
     7
 10
9.3009868698413651
 20
7.5146683718453122
 30
0.0
 42
0.0736200372000898
  0
VERTEX
  5
1116
  8
0
 62
     7
 10
9.0840077049400083
 20
7.1055502585575141
 30
0.0
 42
0.0157629811319901
  0
VERTEX
  5
1117
  8
0
 62
     7
 10
9.0450767019898777
 20
6.9836511918691944
 30
0.0
 42
0.0241009771412612
  0
VERTEX
  5
1118
  8
0
 62
     7
 10
9.0198433908853008
 20
6.8756001063041809
 30
0.0
 42
0.0234779916277706
  0
VERTEX
  5
1119
  8
0
 62
     7
 10
9.0047083509609713
 20
6.7635725966250053
 30
0.0
 42
0.0139820150020366
  0
VERTEX
  5
111A
  8
0
 62
     7
 10
8.9967211677564265
 20
6.6291896783919864
 30
0.0
 42
0.0104220262604711
  0
VERTEX
  5
111B
  8
0
 62
     7
 10
8.9953260503903785
 20
6.4973974481159837
 30
0.0
 42
0.0218029608928751
  0
VERTEX
  5
111C
  8
0
 62
     7
 10
9.0008480003614348
 20
6.3949983938042019
 30
0.0
 42
0.0238709457408259
  0
VERTEX
  5
111D
  8
0
 62
     7
 10
9.0148090344666727
 20
6.2995225125768028
 30
0.0
 42
0.0154179635045966
  0
VERTEX
  5
111E
  8
0
 62
     7
 10
9.0396087538545835
 20
6.1905523342748499
 30
0.0
 42
0.0304460375857331
  0
VERTEX
  5
111F
  8
0
 62
     7
 10
9.1065853643883496
 20
5.9853359764842926
 30
0.0
 42
0.0361580366066613
  0
VERTEX
  5
1120
  8
0
 62
     7
 10
9.1949747538552433
 20
5.8017168620100739
 30
0.0
 42
0.0360649897349463
  0
VERTEX
  5
1121
  8
0
 62
     7
 10
9.3091107380334979
 20
5.632360428967643
 30
0.0
 42
0.0300199495815643
  0
VERTEX
  5
1122
  8
0
 62
     7
 10
9.4531466003296245
 20
5.4698274824952744
 30
0.0
 42
0.0174760152680918
  0
VERTEX
  5
1123
  8
0
 62
     7
 10
9.5587427897796662
 20
5.3713173752722732
 30
0.0
 42
0.0245230463745168
  0
VERTEX
  5
1124
  8
0
 62
     7
 10
9.6600457068652492
 20
5.291600312549102
 30
0.0
 42
0.0247090060108962
  0
VERTEX
  5
1125
  8
0
 62
     7
 10
9.7680584841576028
 20
5.2226348582600979
 30
0.0
 42
0.0181539941072919
  0
VERTEX
  5
1126
  8
0
 62
     7
 10
9.8939320263379837
 20
5.1566949015313419
 30
0.0
 42
0.0282800192889773
  0
VERTEX
  5
1127
  8
0
 62
     7
 10
10.06696114996309
 20
5.0856290484435043
 30
0.0
 42
0.0345549919461318
  0
VERTEX
  5
1128
  8
0
 62
     7
 10
10.2358084197884107
 20
5.0399776465780182
 30
0.0
 42
0.0331959998265652
  0
VERTEX
  5
1129
  8
0
 62
     7
 10
10.4148403594063996
 20
5.0168221309658234
 30
0.0
 42
0.0230670364689089
  0
VERTEX
  5
112A
  8
0
 62
     7
 10
10.6188120825843004
 20
5.0135309156088743
 30
0.0
 42
0.0136399350415589
  0
VERTEX
  5
112B
  8
0
 62
     7
 10
10.7553423545177207
 20
5.0213611052942637
 30
0.0
 42
0.0237769588055047
  0
VERTEX
  5
112C
  8
0
 62
     7
 10
10.8677260999106107
 20
5.0362937176802651
 30
0.0
 42
0.024509001127387
  0
VERTEX
  5
112D
  8
0
 62
     7
 10
10.9758250653846599
 20
5.061450941791179
 30
0.0
 42
0.0156350649758377
  0
VERTEX
  5
112E
  8
0
 62
     7
 10
11.0988116064978595
 20
5.1006998831347152
 30
0.0
 42
0.0647740540292822
  0
VERTEX
  5
112F
  8
0
 62
     7
 10
11.4405602412213394
 20
5.2741096402428891
 30
0.0
 42
0.0607400346105542
  0
VERTEX
  5
1130
  8
0
 62
     7
 10
11.7349323250358495
 20
5.5324280184337304
 30
0.0
 42
0.0604020159052487
  0
VERTEX
  5
1131
  8
0
 62
     7
 10
11.9599845798481308
 20
5.8554267899678853
 30
0.0
 42
0.0626630060761063
  0
VERTEX
  5
1132
  8
0
 62
     7
 10
12.0979448741795395
 20
6.2189454517597467
 30
0.0
 42
0.0318170778694766
  0
VERTEX
  5
1133
  8
0
 62
     7
 10
12.1251328687695707
 20
6.3736582503243202
 30
0.0
 42
0.0197450579309539
  0
VERTEX
  5
1134
  8
0
 62
     7
 10
12.1381910730204705
 20
6.5576654168081241
 30
0.0
 42
0.0078340007901436
  0
VERTEX
  5
1135
  8
0
 62
     7
 10
12.1430019999999992
 20
6.8638789999999981
 30
0.0
  0
VERTEX
  5
1136
  8
0
 62
     7
 10
12.1419270000000008
 20
7.620550999999999
 30
0.0
  0
VERTEX
  5
1137
  8
0
 62
     7
 10
12.1395973235887809
 20
8.2863355015931237
 30
0.0
 42
0.0035980030523534
  0
VERTEX
  5
1138
  8
0
 62
     7
 10
12.1366231355924494
 20
8.5487770375555545
 30
0.0
 42
0.0055179973368326
  0
VERTEX
  5
1139
  8
0
 62
     7
 10
12.1322176428844806
 20
8.6977967140786365
 30
0.0
 42
0.0961730011231221
  0
VERTEX
  5
113A
  8
0
 62
     7
 10
12.1211002929296203
 20
8.7447806679608711
 30
0.0
 42
0.04212599953751
  0
VERTEX
  5
113B
  8
0
 62
     7
 10
12.0961523322210205
 20
8.7895575788446632
 30
0.0
 42
0.0377870166332347
  0
VERTEX
  5
113C
  8
0
 62
     7
 10
12.0632217581451702
 20
8.8312919417448263
 30
0.0
 42
0.038029000341766
  0
VERTEX
  5
113D
  8
0
 62
     7
 10
12.0246330970267401
 20
8.8673247418582122
 30
0.0
 42
0.0442120146398669
  0
VERTEX
  5
113E
  8
0
 62
     7
 10
11.9828360324060199
 20
8.8951157854536476
 30
0.0
 42
0.0625669958081828
  0
VERTEX
  5
113F
  8
0
 62
     7
 10
11.9265791834349706
 20
8.9171611660748304
 30
0.0
 42
0.0441179983496217
  0
VERTEX
  5
1140
  8
0
 62
     7
 10
11.8594553854163092
 20
8.9280152978743494
 30
0.0
 42
0.0436519766766594
  0
VERTEX
  5
1141
  8
0
 62
     7
 10
11.7905256474316307
 20
8.9269749052677874
 30
0.0
 42
0.0565669991301229
  0
VERTEX
  5
1142
  8
0
 62
     7
 10
11.7288121466703092
 20
8.9134739396119649
 30
0.0
 42
0.0378979819053387
  0
SEQEND
  5
1143
  8
0
 62
     7
  0
POLYLINE
  5
6C1
  8
0
 62
     7
 66
     1
 10
0.0
 20
0.0
 30
0.0
 70
     1
  0
VERTEX
  5
1144
  8
0
 62
     7
 10
35.0590059999999966
 20
18.949857999999999
 30
0.0
  0
VERTEX
  5
1145
  8
0
 62
     7
 10
34.030543999999999
 20
17.9843219999999988
 30
0.0
  0
VERTEX
  5
1146
  8
0
 62
     7
 10
33.6360659999999996
 20
17.6143150000000013
 30
0.0
  0
VERTEX
  5
1147
  8
0
 62
     7
 10
33.3035619999999994
 20
17.3033830000000002
 30
0.0
  0
VERTEX
  5
1148
  8
0
 62
     7
 10
33.0020260000000007
 20
17.0219570000000004
 30
0.0
 42
-0.4418880135896543
  0
VERTEX
  5
1149
  8
0
 62
     7
 10
32.9996588705461775
 20
17.0221470959045185
 30
0.0
 42
0.0232190007324167
  0
VERTEX
  5
114A
  8
0
 62
     7
 10
32.9973873364437225
 20
17.0248242444604685
 30
0.0
  0
VERTEX
  5
114B
  8
0
 62
     7
 10
32.7210540000000023
 20
17.3212639999999993
 30
0.0
  0
VERTEX
  5
114C
  8
0
 62
     7
 10
32.0888940000000034
 20
17.9988139999999994
 30
0.0
 42
0.2852159961934313
  0
VERTEX
  5
114D
  8
0
 62
     7
 10
32.0756662442116678
 20
18.0024233731290302
 30
0.0
 42
0.0286889935182859
  0
VERTEX
  5
114E
  8
0
 62
     7
 10
32.043531573386062
 20
17.990818842502879
 30
0.0
 42
0.017566014611149
  0
VERTEX
  5
114F
  8
0
 62
     7
 10
31.9911415207214986
 20
17.9662145303689691
 30
0.0
 42
0.0029429870445648
  0
VERTEX
  5
1150
  8
0
 62
     7
 10
31.8926914336745888
 20
17.9149497872544501
 30
0.0
 42
-0.0133549494031015
  0
VERTEX
  5
1151
  8
0
 62
     7
 10
31.5894586163236504
 20
17.7649977618840715
 30
0.0
 42
-0.0139069905284645
  0
VERTEX
  5
1152
  8
0
 62
     7
 10
31.2826710446591605
 20
17.633577075914399
 30
0.0
 42
-0.0143029885162189
  0
VERTEX
  5
1153
  8
0
 62
     7
 10
30.9780456835354094
 20
17.5229628813964595
 30
0.0
 42
-0.0164390133045016
  0
VERTEX
  5
1154
  8
0
 62
     7
 10
30.6813133022528106
 20
17.4354388422396092
 30
0.0
 42
0.0061749704730315
  0
VERTEX
  5
1155
  8
0
 62
     7
 10
30.6262863066489501
 20
17.4204247174973084
 30
0.0
 42
0.0300049742697102
  0
VERTEX
  5
1156
  8
0
 62
     7
 10
30.5957940828169406
 20
17.4096852878740087
 30
0.0
 42
0.057152988192417
  0
VERTEX
  5
1157
  8
0
 62
     7
 10
30.5789327067400691
 20
17.4001923338231812
 30
0.0
 42
0.2404270159856316
  0
VERTEX
  5
1158
  8
0
 62
     7
 10
30.5738120000000002
 20
17.390159998053619
 30
0.0
 42
0.0581920195161109
  0
VERTEX
  5
1159
  8
0
 62
     7
 10
30.5763623749495217
 20
17.3683207036618086
 30
0.0
  0
VERTEX
  5
115A
  8
0
 62
     7
 10
30.6370910000000016
 20
17.1123179999999984
 30
0.0
  0
VERTEX
  5
115B
  8
0
 62
     7
 10
30.6960599999999992
 20
16.8650880000000001
 30
0.0
 42
0.0276989806606585
  0
VERTEX
  5
115C
  8
0
 62
     7
 10
30.708453851743549
 20
16.8236125127368297
 30
0.0
 42
0.3279319376067154
  0
VERTEX
  5
115D
  8
0
 62
     7
 10
30.7152379248638816
 20
16.8190572205558801
 30
0.0
 42
0.0272919896692878
  0
VERTEX
  5
115E
  8
0
 62
     7
 10
30.7376268612649497
 20
16.8212324292472495
 30
0.0
 42
0.0210120604046752
  0
VERTEX
  5
115F
  8
0
 62
     7
 10
30.7719730952776906
 20
16.8279697396666386
 30
0.0
 42
0.0056710849571469
  0
VERTEX
  5
1160
  8
0
 62
     7
 10
30.8257844000925516
 20
16.8415370591961207
 30
0.0
 42
0.011098991342514
  0
VERTEX
  5
1161
  8
0
 62
     7
 10
31.0730124299972914
 20
16.912766681064781
 30
0.0
 42
0.0098649776493765
  0
VERTEX
  5
1162
  8
0
 62
     7
 10
31.3268277225586687
 20
16.9975729350841398
 30
0.0
 42
0.0098780034381111
  0
VERTEX
  5
1163
  8
0
 62
     7
 10
31.5767265521938896
 20
17.0921915043143997
 30
0.0
 42
0.0112199708139781
  0
VERTEX
  5
1164
  8
0
 62
     7
 10
31.8121882844062895
 20
17.1928925566916817
 30
0.0
  0
VERTEX
  5
1165
  8
0
 62
     7
 10
31.945564000000001
 20
17.2535060000000016
 30
0.0
  0
VERTEX
  5
1166
  8
0
 62
     7
 10
31.9837190000000007
 20
17.2145249999999983
 30
0.0
 42
-0.0053090054869031
  0
VERTEX
  5
1167
  8
0
 62
     7
 10
32.0115000704318078
 20
17.1855424036192517
 30
0.0
  0
VERTEX
  5
1168
  8
0
 62
     7
 10
32.1492460000000122
 20
17.0386559999999996
 30
0.0
  0
VERTEX
  5
1169
  8
0
 62
     7
 10
32.310096999999999
 20
16.8668900000000015
 30
0.0
  0
VERTEX
  5
116A
  8
0
 62
     7
 10
32.4936369999999997
 20
16.6705509999999997
 30
0.0
  0
VERTEX
  5
116B
  8
0
 62
     7
 10
32.6750559999999979
 20
16.4767280000000014
 30
0.0
  0
VERTEX
  5
116C
  8
0
 62
     7
 10
32.8290210000000116
 20
16.3130839999999999
 30
0.0
  0
VERTEX
  5
116D
  8
0
 62
     7
 10
32.9676249999999982
 20
16.1662670000000013
 30
0.0
 42
0.1157210111902292
  0
VERTEX
  5
116E
  8
0
 62
     7
 10
32.9728893112493395
 20
16.16278929655439
 30
0.0
 42
0.2836489313277866
  0
VERTEX
  5
116F
  8
0
 62
     7
 10
32.9825855563843007
 20
16.1647521137757515
 30
0.0
  0
VERTEX
  5
1170
  8
0
 62
     7
 10
35.45815300000001
 20
18.4819810000000011
 30
0.0
 42
0.1071970309195667
  0
VERTEX
  5
1171
  8
0
 62
     7
 10
35.4720293614623685
 20
18.5020604183373507
 30
0.0
 42
0.2915540274375604
  0
VERTEX
  5
1172
  8
0
 62
     7
 10
35.4707011181862271
 20
18.5095237637918686
 30
0.0
  0
VERTEX
  5
1173
  8
0
 62
     7
 10
35.2686769999999967
 20
18.7291260000000008
 30
0.0
  0
VERTEX
  5
1174
  8
0
 62
     7
 10
35.0664409999999975
 20
18.9487740000000002
 30
0.0
 42
0.3593929105848177
  0
SEQEND
  5
1175
  8
0
 62
     7
  0
POLYLINE
  5
6C2
  8
0
 62
     7
 66
     1
 10
0.0
 20
0.0
 30
0.0
 70
     1
  0
VERTEX
  5
1176
  8
0
 62
     7
 10
29.3118550000000013
 20
17.9226460000000003
 30
0.0
  0
VERTEX
  5
1177
  8
0
 62
     7
 10
29.3133720000000011
 20
17.326391000000001
 30
0.0
  0
VERTEX
  5
1178
  8
0
 62
     7
 10
29.3138119999999986
 20
16.9238910000000011
 30
0.0
  0
VERTEX
  5
1179
  8
0
 62
     7
 10
29.3138119999999986
 20
16.1405509999999985
 30
0.0
  0
VERTEX
  5
117A
  8
0
 62
     7
 10
28.9638120000000008
 20
16.1405509999999985
 30
0.0
  0
VERTEX
  5
117B
  8
0
 62
     7
 10
28.9638120000000008
 20
20.740551
 30
0.0
  0
VERTEX
  5
117C
  8
0
 62
     7
 10
29.3005010000000006
 20
20.740551
 30
0.0
  0
SEQEND
  5
117D
  8
0
 62
     7
  0
POLYLINE
  5
6C3
  8
0
 62
     7
 66
     1
 10
0.0
 20
0.0
 30
0.0
 70
     1
  0
VERTEX
  5
117E
  8
0
 62
     7
 10
31.228810414338831
 20
23.9236921341691691
 30
0.0
 42
0.0512209758553356
  0
VERTEX
  5
117F
  8
0
 62
     7
 10
31.0852044843325004
 20
23.9438894009293293
 30
0.0
 42
0.0427860052483798
  0
VERTEX
  5
1180
  8
0
 62
     7
 10
30.9313233808494203
 20
23.9364738889949606
 30
0.0
 42
0.0415200190184985
  0
VERTEX
  5
1181
  8
0
 62
     7
 10
30.776176838962769
 20
23.9023227339586413
 30
0.0
 42
0.0415230043060814
  0
VERTEX
  5
1182
  8
0
 62
     7
 10
30.6288106439632806
 20
23.8430146238379983
 30
0.0
 42
0.0546889947551073
  0
VERTEX
  5
1183
  8
0
 62
     7
 10
30.4404109092532806
 20
23.7209424747337003
 30
0.0
 42
0.0546739925595938
  0
VERTEX
  5
1184
  8
0
 62
     7
 10
30.2829352682679698
 20
23.5609182043136798
 30
0.0
 42
0.0532249686370854
  0
VERTEX
  5
1185
  8
0
 62
     7
 10
30.1604919028776202
 20
23.3663879759166804
 30
0.0
 42
0.0470319989708122
  0
VERTEX
  5
1186
  8
0
 62
     7
 10
30.0757564747402206
 20
23.1422480872560712
 30
0.0
  0
VERTEX
  5
1187
  8
0
 62
     7
 10
30.0492610000000013
 20
23.0455509999999997
 30
0.0
  0
VERTEX
  5
1188
  8
0
 62
     7
 10
30.0429650000000095
 20
21.5694869999999987
 30
0.0
  0
VERTEX
  5
1189
  8
0
 62
     7
 10
30.0808870000000006
 20
21.5763379999999998
 30
0.0
 42
0.0149480518304104
  0
VERTEX
  5
118A
  8
0
 62
     7
 10
30.1660556449990906
 20
21.5943694242382307
 30
0.0
 42
0.0035960831653359
  0
VERTEX
  5
118B
  8
0
 62
     7
 10
30.3060435320545984
 20
21.6294785454919207
 30
0.0
 42
0.0038089944369839
  0
VERTEX
  5
118C
  8
0
 62
     7
 10
30.4477353200863092
 20
21.6672517673911287
 30
0.0
 42
0.0109038791895569
  0
VERTEX
  5
118D
  8
0
 62
     7
 10
30.5454016359860994
 20
21.6963914945793199
 30
0.0
 42
0.0324770180479909
  0
VERTEX
  5
118E
  8
0
 62
     7
 10
30.9220335572814804
 20
21.8453843123074805
 30
0.0
 42
0.046647022321127
  0
VERTEX
  5
118F
  8
0
 62
     7
 10
31.2305103539506703
 20
22.0281437120065497
 30
0.0
 42
0.0535830945628877
  0
VERTEX
  5
1190
  8
0
 62
     7
 10
31.4650504322260716
 20
22.2402177083567807
 30
0.0
 42
0.0740789123676569
  0
VERTEX
  5
1191
  8
0
 62
     7
 10
31.6204762742015788
 20
22.4770886441663791
 30
0.0
 42
0.0553609809673816
  0
VERTEX
  5
1192
  8
0
 62
     7
 10
31.6846260453731183
 20
22.6692532754001306
 30
0.0
 42
0.043615067001255
  0
VERTEX
  5
1193
  8
0
 62
     7
 10
31.7118686838847985
 20
22.8870845095254687
 30
0.0
 42
0.0401689432550778
  0
VERTEX
  5
1194
  8
0
 62
     7
 10
31.7016489103726506
 20
23.1243479977340805
 30
0.0
 42
0.0326179978531112
  0
VERTEX
  5
1195
  8
0
 62
     7
 10
31.6539154651115915
 20
23.374493046093999
 30
0.0
 42
0.0363410039618726
  0
VERTEX
  5
1196
  8
0
 62
     7
 10
31.5810146704466312
 20
23.5898326689398807
 30
0.0
 42
0.0650010038931461
  0
VERTEX
  5
1197
  8
0
 62
     7
 10
31.4868874372241407
 20
23.7508925000258415
 30
0.0
 42
0.0791159936391365
  0
VERTEX
  5
1198
  8
0
 62
     7
 10
31.3698404002781501
 20
23.860851888523321
 30
0.0
 42
0.0887819950640257
  0
SEQEND
  5
1199
  8
0
 62
     7
  0
POLYLINE
  5
6C4
  8
0
 62
     7
 66
     1
 10
0.0
 20
0.0
 30
0.0
 70
     1
  0
VERTEX
  5
119A
  8
0
 62
     7
 10
27.30381238725451
 20
23.9402458264680611
 30
0.0
 42
0.0016189862819575
  0
VERTEX
  5
119B
  8
0
 62
     7
 10
27.2670398694766689
 20
23.9439793748742886
 30
0.0
 42
0.0025049803217813
  0
VERTEX
  5
119C
  8
0
 62
     7
 10
27.2352490050501785
 20
23.946944866310691
 30
0.0
  0
VERTEX
  5
119D
  8
0
 62
     7
 10
27.2076680000000017
 20
23.9493350000000014
 30
0.0
 42
0.0774519793050202
  0
VERTEX
  5
119E
  8
0
 62
     7
 10
27.2038104129128193
 20
23.9490633086134217
 30
0.0
 42
-0.0247249942619389
  0
VERTEX
  5
119F
  8
0
 62
     7
 10
27.2000816069447495
 20
23.9484052525648714
 30
0.0
  0
VERTEX
  5
11A0
  8
0
 62
     7
 10
27.1805149999999998
 20
23.9459569999999999
 30
0.0
 42
-0.0011410705802552
  0
VERTEX
  5
11A1
  8
0
 62
     7
 10
27.1576734829219184
 20
23.943172752247861
 30
0.0
  0
VERTEX
  5
11A2
  8
0
 62
     7
 10
27.1315290000000005
 20
23.9400830000000013
 30
0.0
 42
0.0764910002841225
  0
VERTEX
  5
11A3
  8
0
 62
     7
 10
26.9652841602446394
 20
23.894313980604629
 30
0.0
 42
0.0904250010493184
  0
VERTEX
  5
11A4
  8
0
 62
     7
 10
26.8310367007216186
 20
23.8021345389227115
 30
0.0
 42
0.0781740524631679
  0
VERTEX
  5
11A5
  8
0
 62
     7
 10
26.7243414502898595
 20
23.6566233235276684
 30
0.0
 42
0.0426989727733595
  0
VERTEX
  5
11A6
  8
0
 62
     7
 10
26.6397266059010001
 20
23.4515473837893182
 30
0.0
 42
0.0255790089724548
  0
VERTEX
  5
11A7
  8
0
 62
     7
 10
26.5984567267923211
 20
23.2931353430415591
 30
0.0
 42
0.0208700199718256
  0
VERTEX
  5
11A8
  8
0
 62
     7
 10
26.5702052721662199
 20
23.1202018314633015
 30
0.0
 42
0.0213940009978676
  0
VERTEX
  5
11A9
  8
0
 62
     7
 10
26.5572063685779689
 20
22.9526693340212695
 30
0.0
 42
0.035687045914569
  0
VERTEX
  5
11AA
  8
0
 62
     7
 10
26.5623921653081112
 20
22.8113728723285192
 30
0.0
 42
0.0375719882852748
  0
VERTEX
  5
11AB
  8
0
 62
     7
 10
26.5990286410538417
 20
22.6135795451313584
 30
0.0
 42
0.0497040005378964
  0
VERTEX
  5
11AC
  8
0
 62
     7
 10
26.6631109759920086
 20
22.4420746458996412
 30
0.0
 42
0.0497099711898029
  0
VERTEX
  5
11AD
  8
0
 62
     7
 10
26.75977001572587
 20
22.2866052771149086
 30
0.0
 42
0.0375950285871243
  0
VERTEX
  5
11AE
  8
0
 62
     7
 10
26.8939932451964303
 20
22.1368495139856698
 30
0.0
 42
0.0480130426396597
  0
VERTEX
  5
11AF
  8
0
 62
     7
 10
27.1122866261789106
 20
21.9642762789210302
 30
0.0
 42
0.0348450217729127
  0
VERTEX
  5
11B0
  8
0
 62
     7
 10
27.3838037514740797
 20
21.8147723556844717
 30
0.0
 42
0.0312630397205981
  0
VERTEX
  5
11B1
  8
0
 62
     7
 10
27.7048240845857308
 20
21.6898285870578711
 30
0.0
 42
0.0232610902509847
  0
VERTEX
  5
11B2
  8
0
 62
     7
 10
28.0721999593000788
 20
21.5912521317552617
 30
0.0
 42
0.0015649812946941
  0
VERTEX
  5
11B3
  8
0
 62
     7
 10
28.1267251746891702
 20
21.5794899947961092
 30
0.0
 42
0.0023340025036284
  0
VERTEX
  5
11B4
  8
0
 62
     7
 10
28.1744987329438601
 20
21.5695723991374386
 30
0.0
  0
VERTEX
  5
11B5
  8
0
 62
     7
 10
28.2154139999999991
 20
21.561357000000001
 30
0.0
 42
0.0490570520494791
  0
VERTEX
  5
11B6
  8
0
 62
     7
 10
28.2236289779245517
 20
21.5605540000000104
 30
0.0
 42
0.4104109802594593
  0
VERTEX
  5
11B7
  8
0
 62
     7
 10
28.2296714891801912
 20
21.5665184153286305
 30
0.0
  0
VERTEX
  5
11B8
  8
0
 62
     7
 10
28.2314870000000013
 20
21.7236860000000007
 30
0.0
 42
0.0031000113879002
  0
VERTEX
  5
11B9
  8
0
 62
     7
 10
28.2323237557545816
 20
21.9376870215416311
 30
0.0
  0
VERTEX
  5
11BA
  8
0
 62
     7
 10
28.2309820000000009
 20
22.2880520000000004
 30
0.0
  0
VERTEX
  5
11BB
  8
0
 62
     7
 10
28.2282940000000018
 20
22.6878010000000003
 30
0.0
 42
0.0041150034572824
  0
VERTEX
  5
11BC
  8
0
 62
     7
 10
28.2249169025931685
 20
22.8948389669702088
 30
0.0
 42
0.0066369999102278
  0
VERTEX
  5
11BD
  8
0
 62
     7
 10
28.2201170860788793
 20
23.0217507128306309
 30
0.0
 42
0.042307999019208
  0
VERTEX
  5
11BE
  8
0
 62
     7
 10
28.2114083866513496
 20
23.0855513491321886
 30
0.0
 42
0.0302889965246507
  0
VERTEX
  5
11BF
  8
0
 62
     7
 10
28.1658011852155994
 20
23.2436966359785515
 30
0.0
 42
0.0358409798820087
  0
VERTEX
  5
11C0
  8
0
 62
     7
 10
28.1033617418668804
 20
23.386183485671669
 30
0.0
 42
0.036466978384566
  0
VERTEX
  5
11C1
  8
0
 62
     7
 10
28.0222775031715692
 20
23.5162225516043293
 30
0.0
 42
0.0334340124532632
  0
VERTEX
  5
11C2
  8
0
 62
     7
 10
27.9209643022968912
 20
23.6371713144284001
 30
0.0
 42
0.0408040039293446
  0
VERTEX
  5
11C3
  8
0
 62
     7
 10
27.7864096861575902
 20
23.7564097341775309
 30
0.0
 42
0.0467969847716456
  0
VERTEX
  5
11C4
  8
0
 62
     7
 10
27.6400305157555017
 20
23.8461564867530313
 30
0.0
 42
0.0468789896786656
  0
VERTEX
  5
11C5
  8
0
 62
     7
 10
27.479744231473159
 20
23.9070026097794113
 30
0.0
 42
0.0411970047654955
  0
SEQEND
  5
11C6
  8
0
 62
     7
  0
POLYLINE
  5
6C5
  8
0
 62
     7
 66
     1
 10
0.0
 20
0.0
 30
0.0
 70
     1
  0
VERTEX
  5
11C7
  8
0
 62
     7
 10
26.6295326189035215
 20
24.5491935377290496
 30
0.0
 42
0.0866510389541263
  0
VERTEX
  5
11C8
  8
0
 62
     7
 10
26.2990609337490007
 20
24.3072401210518798
 30
0.0
 42
0.0796050106322548
  0
VERTEX
  5
11C9
  8
0
 62
     7
 10
26.0497993165768413
 20
23.9483772718279084
 30
0.0
 42
0.0569569625360621
  0
VERTEX
  5
11CA
  8
0
 62
     7
 10
25.8891032717742284
 20
23.4859071465661593
 30
0.0
 42
0.0086029532007857
  0
VERTEX
  5
11CB
  8
0
 62
     7
 10
25.8575906893683687
 20
23.3331468278231213
 30
0.0
 42
0.0198319919032421
  0
VERTEX
  5
11CC
  8
0
 62
     7
 10
25.8404668125191606
 20
23.2171475895984791
 30
0.0
 42
0.0190220149522615
  0
VERTEX
  5
11CD
  8
0
 62
     7
 10
25.8322035449715308
 20
23.0972894098746906
 30
0.0
 42
0.0073320414045592
  0
VERTEX
  5
11CE
  8
0
 62
     7
 10
25.8295070173790293
 20
22.9305526384020091
 30
0.0
 42
0.0034340317050336
  0
VERTEX
  5
11CF
  8
0
 62
     7
 10
25.8301713640805097
 20
22.8069199594007408
 30
0.0
 42
0.0104149787287232
  0
VERTEX
  5
11D0
  8
0
 62
     7
 10
25.8329535090748408
 20
22.7228510611026913
 30
0.0
 42
0.0146750049921597
  0
VERTEX
  5
11D1
  8
0
 62
     7
 10
25.8384350597300312
 20
22.6571533054384204
 30
0.0
 42
0.0174050024072275
  0
VERTEX
  5
11D2
  8
0
 62
     7
 10
25.8475822328408213
 20
22.5955502118504583
 30
0.0
 42
0.0269090495500203
  0
VERTEX
  5
11D3
  8
0
 62
     7
 10
25.8968628519713917
 20
22.3906298772082302
 30
0.0
 42
0.0295769934624711
  0
VERTEX
  5
11D4
  8
0
 62
     7
 10
25.9666867453023187
 20
22.1987358888077502
 30
0.0
 42
0.0295749671095588
  0
VERTEX
  5
11D5
  8
0
 62
     7
 10
26.0586634842922606
 20
22.0164090601374483
 30
0.0
 42
0.0269009977578509
  0
VERTEX
  5
11D6
  8
0
 62
     7
 10
26.174206562798819
 20
21.8401120326237788
 30
0.0
 42
0.0271530109045195
  0
VERTEX
  5
11D7
  8
0
 62
     7
 10
26.2508289911580803
 20
21.7469377375201312
 30
0.0
 42
0.0122540202029703
  0
VERTEX
  5
11D8
  8
0
 62
     7
 10
26.3606540635782807
 20
21.6330007630669385
 30
0.0
 42
0.0122849564570945
  0
VERTEX
  5
11D9
  8
0
 62
     7
 10
26.4784719153520491
 20
21.5222038005455509
 30
0.0
 42
0.021867005726417
  0
VERTEX
  5
11DA
  8
0
 62
     7
 10
26.5814461671841116
 20
21.4378404109765697
 30
0.0
 42
0.0373760315357984
  0
VERTEX
  5
11DB
  8
0
 62
     7
 10
26.8853763959132017
 20
21.2439011961420015
 30
0.0
 42
0.0281680196298379
  0
VERTEX
  5
11DC
  8
0
 62
     7
 10
27.2445569049639609
 20
21.07615566639668
 30
0.0
 42
0.0264830516287907
  0
VERTEX
  5
11DD
  8
0
 62
     7
 10
27.6452298715494997
 20
20.9399750616149198
 30
0.0
 42
0.0235809881382598
  0
VERTEX
  5
11DE
  8
0
 62
     7
 10
28.0738120000000002
 20
20.8407359999999997
 30
0.0
  0
VERTEX
  5
11DF
  8
0
 62
     7
 10
28.1194950000000006
 20
20.8323539999999987
 30
0.0
  0
VERTEX
  5
11E0
  8
0
 62
     7
 10
28.1616379999999999
 20
20.8245159999999991
 30
0.0
  0
VERTEX
  5
11E1
  8
0
 62
     7
 10
28.19696874327445
 20
20.8178574196201787
 30
0.0
 42
-0.0056700115451421
  0
VERTEX
  5
11E2
  8
0
 62
     7
 10
28.2113109999999985
 20
20.8149639999999998
 30
0.0
  0
VERTEX
  5
11E3
  8
0
 62
     7
 10
28.2338120000000004
 20
20.8101710000000004
 30
0.0
  0
VERTEX
  5
11E4
  8
0
 62
     7
 10
28.2338120000000004
 20
16.1405509999999985
 30
0.0
  0
VERTEX
  5
11E5
  8
0
 62
     7
 10
27.1138109999999983
 20
16.1405509999999985
 30
0.0
  0
VERTEX
  5
11E6
  8
0
 62
     7
 10
27.1138109999999983
 20
15.4605510000000006
 30
0.0
  0
VERTEX
  5
11E7
  8
0
 62
     7
 10
31.1638130000000011
 20
15.4605510000000006
 30
0.0
  0
VERTEX
  5
11E8
  8
0
 62
     7
 10
31.1638130000000011
 20
16.1405509999999985
 30
0.0
  0
VERTEX
  5
11E9
  8
0
 62
     7
 10
30.0307659999999998
 20
16.1405509999999985
 30
0.0
  0
VERTEX
  5
11EA
  8
0
 62
     7
 10
30.0411490000000008
 20
19.3745590000000014
 30
0.0
  0
VERTEX
  5
11EB
  8
0
 62
     7
 10
30.044236999999999
 20
20.1298290000000009
 30
0.0
  0
VERTEX
  5
11EC
  8
0
 62
     7
 10
30.0473350468536395
 20
20.8155376984909388
 30
0.0
 42
-0.1977360392067115
  0
VERTEX
  5
11ED
  8
0
 62
     7
 10
30.0486765902881494
 20
20.8187494179103005
 30
0.0
 42
-0.1435589971669889
  0
VERTEX
  5
11EE
  8
0
 62
     7
 10
30.0517119999999984
 20
20.820409999999999
 30
0.0
  0
VERTEX
  5
11EF
  8
0
 62
     7
 10
30.0930980832754216
 20
20.8294044274398402
 30
0.0
 42
-0.0026080077809659
  0
VERTEX
  5
11F0
  8
0
 62
     7
 10
30.1401344140629703
 20
20.8393261412477386
 30
0.0
 42
-0.001625985070682
  0
VERTEX
  5
11F1
  8
0
 62
     7
 10
30.195359307356231
 20
20.8504861068886918
 30
0.0
 42
0.0214400944597188
  0
VERTEX
  5
11F2
  8
0
 62
     7
 10
30.6699009822766087
 20
20.9661264570629093
 30
0.0
 42
0.0288269448905575
  0
VERTEX
  5
11F3
  8
0
 62
     7
 10
31.0869406990211807
 20
21.1134320706418883
 30
0.0
 42
0.0316930956830504
  0
VERTEX
  5
11F4
  8
0
 62
     7
 10
31.4495939844218384
 20
21.2933551776513106
 30
0.0
 42
0.0390980050361868
  0
VERTEX
  5
11F5
  8
0
 62
     7
 10
31.7605643487327605
 20
21.5070440155432507
 30
0.0
 42
0.0196219820056392
  0
VERTEX
  5
11F6
  8
0
 62
     7
 10
31.8551286378614797
 20
21.5898917757164597
 30
0.0
 42
0.0129560464587578
  0
VERTEX
  5
11F7
  8
0
 62
     7
 10
31.9574042459619889
 20
21.6920069305789092
 30
0.0
 42
0.0130269755189603
  0
VERTEX
  5
11F8
  8
0
 62
     7
 10
32.0528034981635201
 20
21.7977078105886513
 30
0.0
 42
0.0222989321797553
  0
VERTEX
  5
11F9
  8
0
 62
     7
 10
32.1259686110574094
 20
21.8912823840078907
 30
0.0
 42
0.0302689679790889
  0
VERTEX
  5
11FA
  8
0
 62
     7
 10
32.227452584309269
 20
22.0537060118676784
 30
0.0
 42
0.0267680388947116
  0
VERTEX
  5
11FB
  8
0
 62
     7
 10
32.313251128869112
 20
22.2338771657132384
 30
0.0
 42
0.0265469886885375
  0
VERTEX
  5
11FC
  8
0
 62
     7
 10
32.3799842090560119
 20
22.4238349176631608
 30
0.0
 42
0.0284220198763643
  0
VERTEX
  5
11FD
  8
0
 62
     7
 10
32.4244482219759504
 20
22.6155503487187204
 30
0.0
 42
0.0328120808902594
  0
VERTEX
  5
11FE
  8
0
 62
     7
 10
32.4469312865539976
 20
22.8279073284054697
 30
0.0
 42
0.0248650513580931
  0
VERTEX
  5
11FF
  8
0
 62
     7
 10
32.4446283501864272
 20
23.0622414229191115
 30
0.0
 42
0.0239240078560757
  0
VERTEX
  5
1200
  8
0
 62
     7
 10
32.4183801657935433
 20
23.30569527061391
 30
0.0
 42
0.0239190002605462
  0
VERTEX
  5
1201
  8
0
 62
     7
 10
32.3689945945879032
 20
23.5455426355200217
 30
0.0
 42
0.0238769923877834
  0
VERTEX
  5
1202
  8
0
 62
     7
 10
32.2969735104960733
 20
23.779488795039029
 30
0.0
 42
0.033537010609804
  0
VERTEX
  5
1203
  8
0
 62
     7
 10
32.209229356403057
 20
23.9794901474351683
 30
0.0
 42
0.0362330049569906
  0
VERTEX
  5
1204
  8
0
 62
     7
 10
32.1018064964916405
 20
24.1535607758614717
 30
0.0
 42
0.0367149896783228
  0
VERTEX
  5
1205
  8
0
 62
     7
 10
31.9708082835770604
 20
24.309483946890861
 30
0.0
 42
0.0366379957676965
  0
VERTEX
  5
1206
  8
0
 62
     7
 10
31.8322360027104416
 20
24.4323529498765097
 30
0.0
 42
0.0397360050510929
  0
VERTEX
  5
1207
  8
0
 62
     7
 10
31.6807643681371012
 20
24.5300289304171812
 30
0.0
 42
0.038810973985106
  0
VERTEX
  5
1208
  8
0
 62
     7
 10
31.5125096109426615
 20
24.6043019450927112
 30
0.0
 42
0.0320970001036358
  0
VERTEX
  5
1209
  8
0
 62
     7
 10
31.3238108523999088
 20
24.657336201568981
 30
0.0
 42
0.0391799863700748
  0
VERTEX
  5
120A
  8
0
 62
     7
 10
31.2060526964288201
 20
24.6729082796109793
 30
0.0
 42
0.0155039895257646
  0
VERTEX
  5
120B
  8
0
 62
     7
 10
31.0426855391324494
 20
24.6765266463492416
 30
0.0
 42
0.0156560227823689
  0
VERTEX
  5
120C
  8
0
 62
     7
 10
30.8760579989282498
 20
24.669827546369909
 30
0.0
 42
0.0313230024451116
  0
VERTEX
  5
120D
  8
0
 62
     7
 10
30.7454728165530398
 20
24.6522131522382395
 30
0.0
 42
0.0352309859019469
  0
VERTEX
  5
120E
  8
0
 62
     7
 10
30.4928702209193716
 20
24.5830757082533395
 30
0.0
 42
0.0381680209628453
  0
VERTEX
  5
120F
  8
0
 62
     7
 10
30.2594374946136284
 20
24.4805410811129818
 30
0.0
 42
0.0382350301708925
  0
VERTEX
  5
1210
  8
0
 62
     7
 10
30.0446588038028999
 20
24.3438986232572212
 30
0.0
 42
0.035600970502564
  0
VERTEX
  5
1211
  8
0
 62
     7
 10
29.8476615665648701
 20
24.1731187693771687
 30
0.0
 42
0.0369700400327313
  0
VERTEX
  5
1212
  8
0
 62
     7
 10
29.6623543454144816
 20
23.958175853228461
 30
0.0
 42
0.0399110420234105
  0
VERTEX
  5
1213
  8
0
 62
     7
 10
29.5159395300693106
 20
23.7234979392683805
 30
0.0
 42
0.0392140113999904
  0
VERTEX
  5
1214
  8
0
 62
     7
 10
29.4066548419430305
 20
23.4647526919886289
 30
0.0
 42
0.0334399968892777
  0
VERTEX
  5
1215
  8
0
 62
     7
 10
29.3320923522984387
 20
23.1780131113115608
 30
0.0
 42
0.0263950124460908
  0
VERTEX
  5
1216
  8
0
 62
     7
 10
29.3196074259027917
 20
23.0859452402621592
 30
0.0
 42
0.0134669891451178
  0
VERTEX
  5
1217
  8
0
 62
     7
 10
29.3131845953104211
 20
22.9693971659885392
 30
0.0
 42
0.0052599778191035
  0
VERTEX
  5
1218
  8
0
 62
     7
 10
29.3096889999999988
 20
22.7708399999999997
 30
0.0
  0
VERTEX
  5
1219
  8
0
 62
     7
 10
29.3066349999999893
 20
22.2730500000000013
 30
0.0
  0
VERTEX
  5
121A
  8
0
 62
     7
 10
29.3025170000000017
 20
21.4805509999999984
 30
0.0
  0
VERTEX
  5
121B
  8
0
 62
     7
 10
28.9638120000000008
 20
21.4805509999999984
 30
0.0
  0
VERTEX
  5
121C
  8
0
 62
     7
 10
28.96381399996406
 20
22.2467694643824316
 30
0.0
 42
0.001165998278468
  0
VERTEX
  5
121D
  8
0
 62
     7
 10
28.9625445373655985
 20
22.7903388592454803
 30
0.0
 42
0.0118970003182772
  0
VERTEX
  5
121E
  8
0
 62
     7
 10
28.9561322489381183
 20
23.0155844672218599
 30
0.0
 42
0.0267479969019142
  0
VERTEX
  5
121F
  8
0
 62
     7
 10
28.9401180552686306
 20
23.1664841429428101
 30
0.0
 42
0.0218380019639277
  0
VERTEX
  5
1220
  8
0
 62
     7
 10
28.9073981649877609
 20
23.325549368179221
 30
0.0
 42
0.0812849934836523
  0
VERTEX
  5
1221
  8
0
 62
     7
 10
28.6723949125835205
 20
23.8680761362063691
 30
0.0
 42
0.0822540004463452
  0
VERTEX
  5
1222
  8
0
 62
     7
 10
28.2774654651734316
 20
24.3048558112070516
 30
0.0
 42
0.0835200003758294
  0
VERTEX
  5
1223
  8
0
 62
     7
 10
27.7686005284829207
 20
24.58608765540313
 30
0.0
 42
0.0875300016467267
  0
VERTEX
  5
1224
  8
0
 62
     7
 10
27.2040733953748912
 20
24.6792838838701094
 30
0.0
 42
0.0054800178238737
  0
VERTEX
  5
1225
  8
0
 62
     7
 10
27.1554958045215891
 20
24.6782178339056415
 30
0.0
 42
0.004825004523049
  0
VERTEX
  5
1226
  8
0
 62
     7
 10
27.1048399518032888
 20
24.6760588379419588
 30
0.0
 42
0.0048520053986852
  0
VERTEX
  5
1227
  8
0
 62
     7
 10
27.0591901190437483
 20
24.6732294021244911
 30
0.0
 42
0.0145670027514472
  0
VERTEX
  5
1228
  8
0
 62
     7
 10
27.0281163249066516
 20
24.670087869567709
 30
0.0
 42
0.0824880073396692
  0
SEQEND
  5
1229
  8
0
 62
     7
  0
POLYLINE
  5
6C6
  8
0
 62
     7
 66
     1
 10
0.0
 20
0.0
 30
0.0
 70
     1
  0
VERTEX
  5
122A
  8
0
 62
     7
 10
35.9139453594180083
 20
29.268754814170439
 30
0.0
 42
0.0439480059312585
  0
VERTEX
  5
122B
  8
0
 62
     7
 10
34.4988124487726822
 20
29.4704833025137312
 30
0.0
 42
0.0096760146301382
  0
VERTEX
  5
122C
  8
0
 62
     7
 10
34.2675457212597223
 20
29.4784434245952696
 30
0.0
 42
0.0076010203650535
  0
VERTEX
  5
122D
  8
0
 62
     7
 10
34.0167048729056916
 20
29.4784049852665184
 30
0.0
 42
0.0074069986400144
  0
VERTEX
  5
122E
  8
0
 62
     7
 10
33.7582110014149919
 20
29.47060706328989
 30
0.0
 42
0.0077380018619337
  0
VERTEX
  5
122F
  8
0
 62
     7
 10
33.5038080056896206
 20
29.4552067069384798
 30
0.0
 42
0.0170440179707509
  0
VERTEX
  5
1230
  8
0
 62
     7
 10
32.9765535883276328
 20
29.3969643052095684
 30
0.0
 42
0.016854988155472
  0
VERTEX
  5
1231
  8
0
 62
     7
 10
32.4525138668913229
 20
29.3027961424331096
 30
0.0
 42
0.0169750095087165
  0
VERTEX
  5
1232
  8
0
 62
     7
 10
31.9397550733927993
 20
29.174342290961949
 30
0.0
 42
0.0179309993594253
  0
VERTEX
  5
1233
  8
0
 62
     7
 10
31.4463098103154017
 20
29.0134117227268291
 30
0.0
  0
VERTEX
  5
1234
  8
0
 62
     7
 10
31.3238120000000002
 20
28.9685400000000008
 30
0.0
  0
VERTEX
  5
1235
  8
0
 62
     7
 10
31.3211730000000017
 20
28.8297689999999989
 30
0.0
  0
VERTEX
  5
1236
  8
0
 62
     7
 10
31.3204290000000007
 20
28.7921179999999985
 30
0.0
  0
VERTEX
  5
1237
  8
0
 62
     7
 10
31.3197839999999985
 20
28.7603229999999996
 30
0.0
  0
VERTEX
  5
1238
  8
0
 62
     7
 10
31.3194370000000006
 20
28.7449860000000008
 30
0.0
 42
0.1771390567896712
  0
VERTEX
  5
1239
  8
0
 62
     7
 10
31.3250158151047806
 20
28.7284877221960997
 30
0.0
 42
0.0965489876478613
  0
VERTEX
  5
123A
  8
0
 62
     7
 10
31.3415556264956905
 20
28.7145167705513487
 30
0.0
 42
0.032186020862769
  0
VERTEX
  5
123B
  8
0
 62
     7
 10
31.3775218037819883
 20
28.6973813738296002
 30
0.0
 42
0.0029629843288477
  0
VERTEX
  5
123C
  8
0
 62
     7
 10
31.469514623603871
 20
28.6612445500050583
 30
0.0
 42
-0.0070649965535472
  0
VERTEX
  5
123D
  8
0
 62
     7
 10
31.6569151460203102
 20
28.5858408838176601
 30
0.0
 42
-0.0079060088081485
  0
VERTEX
  5
123E
  8
0
 62
     7
 10
31.8351649090584488
 20
28.5078450216275101
 30
0.0
 42
-0.0080259947178825
  0
VERTEX
  5
123F
  8
0
 62
     7
 10
32.0083913798137374
 20
28.4253714787735987
 30
0.0
 42
-0.0077790108410783
  0
VERTEX
  5
1240
  8
0
 62
     7
 10
32.1807087687590609
 20
28.3365506347892904
 30
0.0
  0
VERTEX
  5
1241
  8
0
 62
     7
 10
32.3026049999999998
 20
28.2712970000000006
 30
0.0
  0
VERTEX
  5
1242
  8
0
 62
     7
 10
32.9951969999999974
 20
28.9192810000000016
 30
0.0
  0
VERTEX
  5
1243
  8
0
 62
     7
 10
33.1672549999999973
 20
29.0805849999999992
 30
0.0
  0
VERTEX
  5
1244
  8
0
 62
     7
 10
33.3130069999999989
 20
29.2174210000000016
 30
0.0
 42
0.0037210155055507
  0
VERTEX
  5
1245
  8
0
 62
     7
 10
33.3490599113811967
 20
29.2517967836930808
 30
0.0
  0
VERTEX
  5
1246
  8
0
 62
     7
 10
33.3993030000000104
 20
29.3004190000000015
 30
0.0
  0
VERTEX
  5
1247
  8
0
 62
     7
 10
34.6740610000000018
 20
27.9399990000000003
 30
0.0
  0
VERTEX
  5
1248
  8
0
 62
     7
 10
35.1629679999999993
 20
27.4178560000000004
 30
0.0
  0
VERTEX
  5
1249
  8
0
 62
     7
 10
35.5748409999999993
 20
26.9771420000000006
 30
0.0
  0
VERTEX
  5
124A
  8
0
 62
     7
 10
35.9477770000000021
 20
26.5776059999999994
 30
0.0
 42
-0.1300500037424073
  0
VERTEX
  5
124B
  8
0
 62
     7
 10
35.9504781858969977
 20
26.5725636251822195
 30
0.0
 42
-0.2666019863737957
  0
VERTEX
  5
124C
  8
0
 62
     7
 10
35.949043808575567
 20
26.5677017281824384
 30
0.0
  0
VERTEX
  5
124D
  8
0
 62
     7
 10
35.8212130000000002
 20
26.4457069999999987
 30
0.0
 42
-0.0015959740563056
  0
VERTEX
  5
124E
  8
0
 62
     7
 10
35.6782351811803693
 20
26.3101819884646702
 30
0.0
  0
VERTEX
  5
124F
  8
0
 62
     7
 10
35.5080799999999996
 20
26.1505510000000001
 30
0.0
  0
VERTEX
  5
1250
  8
0
 62
     7
 10
34.9618639999999985
 20
25.6398580000000003
 30
0.0
  0
VERTEX
  5
1251
  8
0
 62
     7
 10
34.859726000000002
 20
25.5441590000000005
 30
0.0
  0
VERTEX
  5
1252
  8
0
 62
     7
 10
34.926033000000011
 20
25.3948569999999982
 30
0.0
 42
-0.009206003560883
  0
VERTEX
  5
1253
  8
0
 62
     7
 10
35.0141782360288474
 20
25.18610720630355
 30
0.0
 42
-0.0068809993606008
  0
VERTEX
  5
1254
  8
0
 62
     7
 10
35.1038862519907866
 20
24.9530031185995398
 30
0.0
 42
-0.0069099993849498
  0
VERTEX
  5
1255
  8
0
 62
     7
 10
35.1816606827264522
 20
24.7329951151225202
 30
0.0
 42
-0.0175089989905176
  0
VERTEX
  5
1256
  8
0
 62
     7
 10
35.2303048890685773
 20
24.5705502744447202
 30
0.0
 42
0.2349509337069018
  0
VERTEX
  5
1257
  8
0
 62
     7
 10
35.2522680731040197
 20
24.5453830687439591
 30
0.0
 42
0.0780959111475998
  0
VERTEX
  5
1258
  8
0
 62
     7
 10
35.3012314970195575
 20
24.5336093293462412
 30
0.0
 42
0.0115499855355676
  0
VERTEX
  5
1259
  8
0
 62
     7
 10
35.4141131048415474
 20
24.527174633481021
 30
0.0
  0
VERTEX
  5
125A
  8
0
 62
     7
 10
36.0264400000000009
 20
24.5066890000000015
 30
0.0
  0
VERTEX
  5
125B
  8
0
 62
     7
 10
36.2944260000000014
 20
24.4973370000000017
 30
0.0
 42
-0.0015199778728499
  0
VERTEX
  5
125C
  8
0
 62
     7
 10
36.5212275174075671
 20
24.4883117789978186
 30
0.0
  0
VERTEX
  5
125D
  8
0
 62
     7
 10
36.7242430000000013
 20
24.4795550000000013
 30
0.0
 42
-0.1876650183537678
  0
VERTEX
  5
125E
  8
0
 62
     7
 10
36.7312072558172318
 20
24.4764942586656318
 30
0.0
 42
-0.2029450649222873
  0
VERTEX
  5
125F
  8
0
 62
     7
 10
36.7340788204068005
 20
24.4694028432914017
 30
0.0
  0
VERTEX
  5
1260
  8
0
 62
     7
 10
36.7117270000000033
 20
23.0285210000000014
 30
0.0
  0
VERTEX
  5
1261
  8
0
 62
     7
 10
36.6863669999999971
 20
21.4412839999999996
 30
0.0
  0
VERTEX
  5
1262
  8
0
 62
     7
 10
36.5949900000000028
 20
15.9974989999999995
 30
0.0
 42
0.0022749969715645
  0
VERTEX
  5
1263
  8
0
 62
     7
 10
36.5834140643272718
 20
15.0406427639836195
 30
0.0
 42
0.0076490502551058
  0
VERTEX
  5
1264
  8
0
 62
     7
 10
36.5871933397350872
 20
14.5537059041101209
 30
0.0
 42
0.0416329578145846
  0
VERTEX
  5
1265
  8
0
 62
     7
 10
36.6151403501344817
 20
14.2916733856142208
 30
0.0
 42
0.019197973469894
  0
VERTEX
  5
1266
  8
0
 62
     7
 10
36.6549252057924519
 20
14.1201245205675505
 30
0.0
 42
0.0177509986368367
  0
VERTEX
  5
1267
  8
0
 62
     7
 10
36.7086546739390798
 20
13.9475246939070896
 30
0.0
 42
0.0177560005811933
  0
VERTEX
  5
1268
  8
0
 62
     7
 10
36.7744667802348815
 20
13.7792224365630798
 30
0.0
 42
0.0192389951264358
  0
VERTEX
  5
1269
  8
0
 62
     7
 10
36.850479292438493
 20
13.6205521946484804
 30
0.0
 42
0.0536629979411856
  0
VERTEX
  5
126A
  8
0
 62
     7
 10
37.1370279352199688
 20
13.1948461760400804
 30
0.0
 42
0.0530090092264464
  0
VERTEX
  5
126B
  8
0
 62
     7
 10
37.5086681500923689
 20
12.8379176780862299
 30
0.0
 42
0.0530790669593761
  0
VERTEX
  5
126C
  8
0
 62
     7
 10
37.94654941650073
 20
12.5675009120295798
 30
0.0
 42
0.0540939366293052
  0
VERTEX
  5
126D
  8
0
 62
     7
 10
38.4288101088286922
 20
12.3973995012306393
 30
0.0
 42
0.01911989369589
  0
VERTEX
  5
126E
  8
0
 62
     7
 10
38.6185581802657012
 20
12.36036450501601
 30
0.0
 42
0.0274320174731276
  0
VERTEX
  5
126F
  8
0
 62
     7
 10
38.7889828918166799
 20
12.3433187251987402
 30
0.0
 42
0.0098290029256021
  0
VERTEX
  5
1270
  8
0
 62
     7
 10
39.0525718969354685
 20
12.3366801651787696
 30
0.0
  0
VERTEX
  5
1271
  8
0
 62
     7
 10
39.8612820000000028
 20
12.3331339999999994
 30
0.0
  0
VERTEX
  5
1272
  8
0
 62
     7
 10
40.9737590000000012
 20
12.3295139999999996
 30
0.0
  0
VERTEX
  5
1273
  8
0
 62
     7
 10
40.9788130000000024
 20
15.9555509999999998
 30
0.0
  0
VERTEX
  5
1274
  8
0
 62
     7
 10
41.5438120000000026
 20
16.1820179999999993
 30
0.0
 42
0.0010540789021617
  0
VERTEX
  5
1275
  8
0
 62
     7
 10
41.7636977495074007
 20
16.2706935204962697
 30
0.0
 42
0.0015490071299899
  0
VERTEX
  5
1276
  8
0
 62
     7
 10
41.9565296718039917
 20
16.3496236977592986
 30
0.0
  0
VERTEX
  5
1277
  8
0
 62
     7
 10
42.1205409999999887
 20
16.4176310000000001
 30
0.0
 42
0.029040987852665
  0
VERTEX
  5
1278
  8
0
 62
     7
 10
42.1553923788911575
 20
16.4345763961269995
 30
0.0
 42
0.0524019688766774
  0
VERTEX
  5
1279
  8
0
 62
     7
 10
42.2552009147564931
 20
16.5051330911667904
 30
0.0
 42
0.0471628872854406
  0
VERTEX
  5
127A
  8
0
 62
     7
 10
42.3421280592078375
 20
16.59723050734992
 30
0.0
 42
0.0462589811145571
  0
VERTEX
  5
127B
  8
0
 62
     7
 10
42.4117401233417581
 20
16.7058922599856388
 30
0.0
 42
0.0461919615592735
  0
VERTEX
  5
127C
  8
0
 62
     7
 10
42.4602302266343301
 20
16.8255500855327611
 30
0.0
 42
0.0503580026747227
  0
VERTEX
  5
127D
  8
0
 62
     7
 10
42.4756939167188534
 20
16.9050721162170206
 30
0.0
 42
0.0261599420121672
  0
VERTEX
  5
127E
  8
0
 62
     7
 10
42.4796508594945479
 20
17.0062144720633093
 30
0.0
 42
0.0261259983550378
  0
VERTEX
  5
127F
  8
0
 62
     7
 10
42.4729786959441
 20
17.1080537122960692
 30
0.0
 42
0.046687995699077
  0
VERTEX
  5
1280
  8
0
 62
     7
 10
42.4554203418193268
 20
17.1900280460592185
 30
0.0
 42
0.0444309984605492
  0
VERTEX
  5
1281
  8
0
 62
     7
 10
42.4281326587691865
 20
17.2558386121511305
 30
0.0
 42
0.001174004987372
  0
VERTEX
  5
1282
  8
0
 62
     7
 10
42.2809056778979766
 20
17.5357380408830998
 30
0.0
 42
0.0019359914382159
  0
VERTEX
  5
1283
  8
0
 62
     7
 10
42.0778261970739322
 20
17.9160545178438717
 30
0.0
  0
VERTEX
  5
1284
  8
0
 62
     7
 10
41.3064769999999868
 20
19.3430399999999985
 30
0.0
 42
-0.0099660465123248
  0
VERTEX
  5
1285
  8
0
 62
     7
 10
41.1488302556509069
 20
19.6501574892422184
 30
0.0
 42
-0.0293729706357941
  0
VERTEX
  5
1286
  8
0
 62
     7
 10
41.0714404897955276
 20
19.8354722027347989
 30
0.0
 42
-0.0438270140039855
  0
VERTEX
  5
1287
  8
0
 62
     7
 10
41.0281449317760405
 20
20.0055508248786715
 30
0.0
 42
-0.0297730267880376
  0
VERTEX
  5
1288
  8
0
 62
     7
 10
41.0170491288606982
 20
20.1138208841672288
 30
0.0
 42
-0.0182489889327852
  0
VERTEX
  5
1289
  8
0
 62
     7
 10
41.0162646842643994
 20
20.2421689549770996
 30
0.0
 42
-0.018308000770989
  0
VERTEX
  5
128A
  8
0
 62
     7
 10
41.0247519765396476
 20
20.368602403840729
 30
0.0
 42
-0.0333519778706099
  0
VERTEX
  5
128B
  8
0
 62
     7
 10
41.0422768760018286
 20
20.470551741043149
 30
0.0
 42
-0.0286920066894819
  0
VERTEX
  5
128C
  8
0
 62
     7
 10
41.0941108004223992
 20
20.6415344791386808
 30
0.0
 42
-0.0368830172259203
  0
VERTEX
  5
128D
  8
0
 62
     7
 10
41.1618953354928365
 20
20.7911271733358802
 30
0.0
 42
-0.0363509916952519
  0
VERTEX
  5
128E
  8
0
 62
     7
 10
41.2517948703311674
 20
20.9308198637196199
 30
0.0
 42
-0.0266619868679371
  0
VERTEX
  5
128F
  8
0
 62
     7
 10
41.370238040202473
 20
21.0720663108002704
 30
0.0
 42
0.0124049617657743
  0
VERTEX
  5
1290
  8
0
 62
     7
 10
41.4848984123377065
 20
21.2011467797062103
 30
0.0
 42
0.0206020447513232
  0
VERTEX
  5
1291
  8
0
 62
     7
 10
41.5741723929994791
 20
21.3160974122985714
 30
0.0
 42
0.0220030148306491
  0
VERTEX
  5
1292
  8
0
 62
     7
 10
41.6495297528567079
 20
21.4323539857402707
 30
0.0
 42
0.0170740900158781
  0
VERTEX
  5
1293
  8
0
 62
     7
 10
41.7214376751026634
 20
21.5649216970525188
 30
0.0
 42
0.0394200251499868
  0
VERTEX
  5
1294
  8
0
 62
     7
 10
41.8214498781702204
 20
21.8124264913898891
 30
0.0
 42
0.0386640458219803
  0
VERTEX
  5
1295
  8
0
 62
     7
 10
41.8821668703975689
 20
22.0741578752267316
 30
0.0
 42
0.0374030083531049
  0
VERTEX
  5
1296
  8
0
 62
     7
 10
41.9031538575119669
 20
22.3502461648740294
 30
0.0
 42
0.0322800258700478
  0
VERTEX
  5
1297
  8
0
 62
     7
 10
41.8847160060443429
 20
22.640550095335449
 30
0.0
 42
0.0413000014200114
  0
VERTEX
  5
1298
  8
0
 62
     7
 10
41.609508226360802
 20
23.9284805161355614
 30
0.0
 42
0.0422660012446059
  0
VERTEX
  5
1299
  8
0
 62
     7
 10
41.127749896249469
 20
25.143271518605399
 30
0.0
 42
0.0423519945579826
  0
VERTEX
  5
129A
  8
0
 62
     7
 10
40.4496613262539171
 20
26.2575265025566793
 30
0.0
 42
0.0418199938574062
  0
VERTEX
  5
129B
  8
0
 62
     7
 10
39.5909311644380395
 20
27.2466867028463504
 30
0.0
 42
0.044488004288981
  0
VERTEX
  5
129C
  8
0
 62
     7
 10
38.4882872460431003
 20
28.1444796696068416
 30
0.0
 42
0.0457029897225241
  0
VERTEX
  5
129D
  8
0
 62
     7
 10
37.253757103662771
 20
28.8238682558223012
 30
0.0
 42
0.0456100058696595
  0
SEQEND
  5
129E
  8
0
 62
     7
  0
POLYLINE
  5
6C7
  8
0
 62
     7
 66
     1
 10
0.0
 20
0.0
 30
0.0
 70
     1
  0
VERTEX
  5
129F
  8
0
 62
     7
 10
42.0677313279751175
 20
19.2201260596246186
 30
0.0
 42
-0.0012640602119101
  0
VERTEX
  5
12A0
  8
0
 62
     7
 10
41.8576660000000018
 20
19.612953000000001
 30
0.0
  0
VERTEX
  5
12A1
  8
0
 62
     7
 10
41.6767642588698592
 20
19.9539702387447591
 30
0.0
 42
-0.0371809690010933
  0
VERTEX
  5
12A2
  8
0
 62
     7
 10
41.6541861119087073
 20
20.0055505625914911
 30
0.0
 42
-0.0203610184337248
  0
VERTEX
  5
12A3
  8
0
 62
     7
 10
41.6413145024798226
 20
20.0475295808614611
 30
0.0
 42
-0.0315110027050255
  0
VERTEX
  5
12A4
  8
0
 62
     7
 10
41.6340103125340306
 20
20.0847302806225585
 30
0.0
 42
-0.024445035779932
  0
VERTEX
  5
12A5
  8
0
 62
     7
 10
41.6303956219396625
 20
20.1287677934835791
 30
0.0
 42
-0.0074849930016695
  0
VERTEX
  5
12A6
  8
0
 62
     7
 10
41.6291842415523234
 20
20.1955491908141411
 30
0.0
 42
-0.0405880113715692
  0
VERTEX
  5
12A7
  8
0
 62
     7
 10
41.6401365699740822
 20
20.3356342412640885
 30
0.0
 42
-0.065458026116917
  0
VERTEX
  5
12A8
  8
0
 62
     7
 10
41.6742887635081729
 20
20.4501309888707787
 30
0.0
 42
-0.0576230255002601
  0
VERTEX
  5
12A9
  8
0
 62
     7
 10
41.7404690513415275
 20
20.5616185394151501
 30
0.0
 42
-0.0246519862997075
  0
VERTEX
  5
12AA
  8
0
 62
     7
 10
41.8522899723654831
 20
20.6943439258802009
 30
0.0
 42
0.0247879694075666
  0
VERTEX
  5
12AB
  8
0
 62
     7
 10
42.0289196152355728
 20
20.9041047930658408
 30
0.0
 42
0.0276919896220319
  0
VERTEX
  5
12AC
  8
0
 62
     7
 10
42.1770115064474993
 20
21.1229568654153397
 30
0.0
 42
0.0281469018693847
  0
VERTEX
  5
12AD
  8
0
 62
     7
 10
42.2979796360935296
 20
21.3534707728297803
 30
0.0
 42
0.0274180923699993
  0
VERTEX
  5
12AE
  8
0
 62
     7
 10
42.393478203189197
 20
21.5981138285388887
 30
0.0
 42
0.0366879661731072
  0
VERTEX
  5
12AF
  8
0
 62
     7
 10
42.4810058583553882
 20
21.9496819690061393
 30
0.0
 42
0.0395569718212791
  0
VERTEX
  5
12B0
  8
0
 62
     7
 10
42.5133178226971467
 20
22.3014723094416993
 30
0.0
 42
0.0331990487825908
  0
VERTEX
  5
12B1
  8
0
 62
     7
 10
42.4916876934810688
 20
22.7026412963518993
 30
0.0
 42
0.0161029964814604
  0
VERTEX
  5
12B2
  8
0
 62
     7
 10
42.4136608123942267
 20
23.2105518148568315
 30
0.0
 42
0.0251399946741656
  0
VERTEX
  5
12B3
  8
0
 62
     7
 10
42.2156811586362295
 20
24.0377834093474796
 30
0.0
 42
0.025428009654548
  0
VERTEX
  5
12B4
  8
0
 62
     7
 10
41.9362785287481969
 20
24.8377581395639915
 30
0.0
 42
0.0254260012282341
  0
VERTEX
  5
12B5
  8
0
 62
     7
 10
41.5770798856996109
 20
25.6052916815927709
 30
0.0
 42
0.025125992657854
  0
VERTEX
  5
12B6
  8
0
 62
     7
 10
41.1405394656060892
 20
26.3355520083114811
 30
0.0
 42
0.0432179992936269
  0
VERTEX
  5
12B7
  8
0
 62
     7
 10
40.2359781936837777
 20
27.4646860189358115
 30
0.0
 42
0.042735009647448
  0
VERTEX
  5
12B8
  8
0
 62
     7
 10
39.1476017229467104
 20
28.4261809352283485
 30
0.0
 42
0.0427370073279637
  0
VERTEX
  5
12B9
  8
0
 62
     7
 10
37.9116742581964417
 20
29.1885950326550017
 30
0.0
 42
0.043234999964302
  0
VERTEX
  5
12BA
  8
0
 62
     7
 10
36.568810513037171
 20
29.7263495032108587
 30
0.0
 42
0.0263870176370453
  0
VERTEX
  5
12BB
  8
0
 62
     7
 10
35.7102760716482521
 20
29.93801207985722
 30
0.0
 42
0.0260690182065535
  0
VERTEX
  5
12BC
  8
0
 62
     7
 10
34.8307323206466677
 20
30.0591182612326193
 30
0.0
 42
0.0260119989307531
  0
VERTEX
  5
12BD
  8
0
 62
     7
 10
33.9414617145437276
 20
30.0882014266127094
 30
0.0
 42
0.0259980137555394
  0
VERTEX
  5
12BE
  8
0
 62
     7
 10
33.0538112812073308
 20
30.0248050578507311
 30
0.0
 42
0.0122969966842299
  0
VERTEX
  5
12BF
  8
0
 62
     7
 10
32.6636625125739783
 20
29.9666863276409607
 30
0.0
 42
0.0118149932242935
  0
VERTEX
  5
12C0
  8
0
 62
     7
 10
32.2715809547101173
 20
29.8887989592698418
 30
0.0
 42
0.011812998907314
  0
VERTEX
  5
12C1
  8
0
 62
     7
 10
31.8835291159630003
 20
29.7924534596163184
 30
0.0
 42
0.0122789952586061
  0
VERTEX
  5
12C2
  8
0
 62
     7
 10
31.5054871101781515
 20
29.6790117963285915
 30
0.0
 42
-0.0023930080519448
  0
VERTEX
  5
12C3
  8
0
 62
     7
 10
31.4464859520635684
 20
29.6600223638916312
 30
0.0
 42
-0.0039209328007817
  0
VERTEX
  5
12C4
  8
0
 62
     7
 10
31.3963129999999992
 20
29.6445790000000002
 30
0.0
  0
VERTEX
  5
12C5
  8
0
 62
     7
 10
31.3520455667246303
 20
29.631393443169479
 30
0.0
 42
-0.2879130334030964
  0
VERTEX
  5
12C6
  8
0
 62
     7
 10
31.3491276762937296
 20
29.6322077021070207
 30
0.0
 42
-0.1924620147664315
  0
VERTEX
  5
12C7
  8
0
 62
     7
 10
31.3479419999999998
 20
29.6353800000000014
 30
0.0
  0
VERTEX
  5
12C8
  8
0
 62
     7
 10
31.3498926742841491
 20
29.7191994027738104
 30
0.0
 42
-0.0016790083181626
  0
VERTEX
  5
12C9
  8
0
 62
     7
 10
31.3524263054852987
 20
29.8129570060422218
 30
0.0
 42
-0.0010240068466816
  0
VERTEX
  5
12CA
  8
0
 62
     7
 10
31.3560054861357997
 20
29.9236614563730789
 30
0.0
 42
0.001469018508185
  0
VERTEX
  5
12CB
  8
0
 62
     7
 10
31.3594950664378409
 20
30.0344363926239986
 30
0.0
 42
0.002396943791983
  0
VERTEX
  5
12CC
  8
0
 62
     7
 10
31.3617269999999984
 20
30.1284220000000005
 30
0.0
  0
VERTEX
  5
12CD
  8
0
 62
     7
 10
31.3632550888158015
 20
30.2119239469417202
 30
0.0
 42
0.2035120255820403
  0
VERTEX
  5
12CE
  8
0
 62
     7
 10
31.3615491099728594
 20
30.2161461338061983
 30
0.0
 42
0.1902159990895471
  0
VERTEX
  5
12CF
  8
0
 62
     7
 10
31.3556920000000012
 20
30.2186909999999997
 30
0.0
  0
VERTEX
  5
12D0
  8
0
 62
     7
 10
27.7940402221606888
 20
30.3380002902747705
 30
0.0
 42
0.0078669939095835
  0
VERTEX
  5
12D1
  8
0
 62
     7
 10
27.6515015478335613
 20
30.3405189694178112
 30
0.0
 42
0.1141339984326747
  0
VERTEX
  5
12D2
  8
0
 62
     7
 10
27.6443557027428888
 20
30.3388816056117285
 30
0.0
 42
0.0876200038790901
  0
VERTEX
  5
12D3
  8
0
 62
     7
 10
27.6378495475173516
 20
30.3341600468825412
 30
0.0
 42
0.0782519488852998
  0
VERTEX
  5
12D4
  8
0
 62
     7
 10
27.63277106288594
 20
30.3269320306199184
 30
0.0
 42
0.0657209999660695
  0
VERTEX
  5
12D5
  8
0
 62
     7
 10
27.6297786481502285
 20
30.3180496840404885
 30
0.0
 42
0.0394899863291201
  0
VERTEX
  5
12D6
  8
0
 62
     7
 10
27.6277162903327991
 20
30.3001505803583697
 30
0.0
  0
VERTEX
  5
12D7
  8
0
 62
     7
 10
27.6202180000000013
 20
30.0891930000000016
 30
0.0
  0
VERTEX
  5
12D8
  8
0
 62
     7
 10
27.6121540000000003
 20
29.8500979999999991
 30
0.0
  0
VERTEX
  5
12D9
  8
0
 62
     7
 10
27.5946919999999984
 20
29.2920359999999995
 30
0.0
  0
VERTEX
  5
12DA
  8
0
 62
     7
 10
27.5866299999999995
 20
29.056318000000001
 30
0.0
  0
VERTEX
  5
12DB
  8
0
 62
     7
 10
27.5789790000000004
 20
28.8446239999999996
 30
0.0
 42
-0.1248719919524098
  0
VERTEX
  5
12DC
  8
0
 62
     7
 10
27.5770569536415806
 20
28.8380520181987983
 30
0.0
 42
-0.1207099457226802
  0
VERTEX
  5
12DD
  8
0
 62
     7
 10
27.57424745798183
 20
28.8351732418613089
 30
0.0
 42
-0.0499690309072166
  0
VERTEX
  5
12DE
  8
0
 62
     7
 10
27.5693307511740215
 20
28.8327521889942311
 30
0.0
 42
-0.0455600163337965
  0
VERTEX
  5
12DF
  8
0
 62
     7
 10
27.5632931090582396
 20
28.8311035891113896
 30
0.0
 42
-0.0438510802611237
  0
VERTEX
  5
12E0
  8
0
 62
     7
 10
27.5569729639610088
 20
28.8305510000000211
 30
0.0
 42
0.0745380116169934
  0
VERTEX
  5
12E1
  8
0
 62
     7
 10
27.5455115840352711
 20
28.8288328307695494
 30
0.0
 42
0.0011209818148662
  0
VERTEX
  5
12E2
  8
0
 62
     7
 10
27.4807869940913996
 20
28.8088221519133505
 30
0.0
 42
0.0030039912046361
  0
VERTEX
  5
12E3
  8
0
 62
     7
 10
27.4057041200587399
 20
28.7849294765517811
 30
0.0
 42
0.0019779842208485
  0
VERTEX
  5
12E4
  8
0
 62
     7
 10
27.3195998309110486
 20
28.7565829022852206
 30
0.0
 42
0.0060010114220541
  0
VERTEX
  5
12E5
  8
0
 62
     7
 10
27.1461555691021594
 20
28.6963924121734308
 30
0.0
 42
0.0064449923873298
  0
VERTEX
  5
12E6
  8
0
 62
     7
 10
26.9783054347974485
 20
28.6334183741649895
 30
0.0
 42
0.0068040049192358
  0
VERTEX
  5
12E7
  8
0
 62
     7
 10
26.8223475993694613
 20
28.5701526794534608
 30
0.0
 42
0.0095240086243193
  0
VERTEX
  5
12E8
  8
0
 62
     7
 10
26.6849185698960305
 20
28.5090966074588117
 30
0.0
 42
-0.0028070291351744
  0
VERTEX
  5
12E9
  8
0
 62
     7
 10
26.6445107751499712
 20
28.4904894620304603
 30
0.0
 42
-0.004256992843471
  0
VERTEX
  5
12EA
  8
0
 62
     7
 10
26.6091478853000609
 20
28.4748124926118109
 30
0.0
 42
-0.0016770360905544
  0
VERTEX
  5
12EB
  8
0
 62
     7
 10
26.5786944549426991
 20
28.461734650488399
 30
0.0
 42
-0.1008760841602152
  0
VERTEX
  5
12EC
  8
0
 62
     7
 10
26.572873978197979
 20
28.4605530000000115
 30
0.0
 42
-0.2051689429536242
  0
VERTEX
  5
12ED
  8
0
 62
     7
 10
26.5672803967468205
 20
28.4629501340622788
 30
0.0
  0
VERTEX
  5
12EE
  8
0
 62
     7
 10
26.4168470000000006
 20
28.6208500000000008
 30
0.0
 42
-0.0012279750090248
  0
VERTEX
  5
12EF
  8
0
 62
     7
 10
26.2498964340661303
 20
28.7970128919372605
 30
0.0
  0
VERTEX
  5
12F0
  8
0
 62
     7
 10
26.0531579999999998
 20
29.0062479999999994
 30
0.0
  0
VERTEX
  5
12F1
  8
0
 62
     7
 10
25.5415880000000008
 20
29.5519490000000005
 30
0.0
  0
VERTEX
  5
12F2
  8
0
 62
     7
 10
25.5202010000000001
 20
29.5327930000000016
 30
0.0
 42
0.005635025302474
  0
VERTEX
  5
12F3
  8
0
 62
     7
 10
25.4708667768543293
 20
29.4875955310378401
 30
0.0
  0
VERTEX
  5
12F4
  8
0
 62
     7
 10
22.9129299999999994
 20
27.0904200000000017
 30
0.0
 42
0.0043890163788649
  0
VERTEX
  5
12F5
  8
0
 62
     7
 10
22.8511573124740899
 20
27.0314982085956501
 30
0.0
  0
VERTEX
  5
12F6
  8
0
 62
     7
 10
22.8135030000000008
 20
26.9949510000000004
 30
0.0
  0
VERTEX
  5
12F7
  8
0
 62
     7
 10
23.8422389999999993
 20
25.8980619999999995
 30
0.0
  0
VERTEX
  5
12F8
  8
0
 62
     7
 10
23.8071559999999991
 20
25.8368049999999982
 30
0.0
 42
0.0151580276020831
  0
VERTEX
  5
12F9
  8
0
 62
     7
 10
23.72351606274799
 20
25.6799416154718898
 30
0.0
 42
0.0070919981499279
  0
VERTEX
  5
12FA
  8
0
 62
     7
 10
23.624353635278819
 20
25.4722008050751185
 30
0.0
 42
0.0070409752648454
  0
VERTEX
  5
12FB
  8
0
 62
     7
 10
23.5269826668334403
 20
25.25244493675849
 30
0.0
 42
0.0102069919108898
  0
VERTEX
  5
12FC
  8
0
 62
     7
 10
23.4477491803824911
 20
25.0555504995853084
 30
0.0
  0
VERTEX
  5
12FD
  8
0
 62
     7
 10
23.3947049999999983
 20
24.9155499999999996
 30
0.0
  0
VERTEX
  5
12FE
  8
0
 62
     7
 10
23.3267589999999991
 20
24.9180470000000014
 30
0.0
 42
0.0014140012525023
  0
VERTEX
  5
12FF
  8
0
 62
     7
 10
22.9309407149655584
 20
24.9314455481857209
 30
0.0
  0
VERTEX
  5
1300
  8
0
 62
     7
 10
22.4385429999999992
 20
24.946000999999999
 30
0.0
  0
VERTEX
  5
1301
  8
0
 62
     7
 10
21.9051170000000006
 20
24.9609470000000009
 30
0.0
 42
0.2061920047337016
  0
VERTEX
  5
1302
  8
0
 62
     7
 10
21.8980687229906117
 20
24.9581402736944611
 30
0.0
 42
0.1902149999050965
  0
VERTEX
  5
1303
  8
0
 62
     7
 10
21.8949519860263102
 20
24.9509621418938004
 30
0.0
  0
VERTEX
  5
1304
  8
0
 62
     7
 10
21.7773059999999994
 20
21.4375479999999996
 30
0.0
 42
0.0074089927881145
  0
VERTEX
  5
1305
  8
0
 62
     7
 10
21.7739263331226205
 20
21.255075636261811
 30
0.0
  0
VERTEX
  5
1306
  8
0
 62
     7
 10
21.7738109999999985
 20
21.2245939999999997
 30
0.0
  0
VERTEX
  5
1307
  8
0
 62
     7
 10
22.7686479999999989
 20
21.193719999999999
 30
0.0
  0
VERTEX
  5
1308
  8
0
 62
     7
 10
23.007479
 20
21.1865769999999998
 30
0.0
  0
VERTEX
  5
1309
  8
0
 62
     7
 10
23.2160970000000013
 20
21.1804769999999998
 30
0.0
 42
0.0097150307695439
  0
VERTEX
  5
130A
  8
0
 62
     7
 10
23.2409276415922186
 20
21.1802384813601208
 30
0.0
 42
-0.0399159979144581
  0
VERTEX
  5
130B
  8
0
 62
     7
 10
23.259577426104169
 20
21.1789282029704182
 30
0.0
 42
-0.1569230023358203
  0
VERTEX
  5
130C
  8
0
 62
     7
 10
23.2697715417446389
 20
21.1738643361415697
 30
0.0
 42
-0.1176780018000869
  0
VERTEX
  5
130D
  8
0
 62
     7
 10
23.2767119428831286
 20
21.1628929064179303
 30
0.0
 42
-0.0181439813470572
  0
VERTEX
  5
130E
  8
0
 62
     7
 10
23.2842216052147712
 20
21.1380517780104817
 30
0.0
 42
0.0183490210572643
  0
VERTEX
  5
130F
  8
0
 62
     7
 10
23.3347384596118097
 20
20.9711654814636788
 30
0.0
 42
0.0062689993632375
  0
VERTEX
  5
1310
  8
0
 62
     7
 10
23.4198518379930505
 20
20.7329522436711216
 30
0.0
 42
0.0064299950242469
  0
VERTEX
  5
1311
  8
0
 62
     7
 10
23.514446476972239
 20
20.4880288291669892
 30
0.0
 42
0.0119249513678171
  0
VERTEX
  5
1312
  8
0
 62
     7
 10
23.5984609899810387
 20
20.2922031139684904
 30
0.0
 42
-0.001292988626979
  0
VERTEX
  5
1313
  8
0
 62
     7
 10
23.61968002202536
 20
20.2455115681461599
 30
0.0
 42
-0.0020609967819964
  0
VERTEX
  5
1314
  8
0
 62
     7
 10
23.63755083750765
 20
20.2054702069623389
 30
0.0
  0
VERTEX
  5
1315
  8
0
 62
     7
 10
23.6531139999999986
 20
20.170141000000001
 30
0.0
 42
-0.1038880517956665
  0
VERTEX
  5
1316
  8
0
 62
     7
 10
23.653811000000001
 20
20.1668169935024011
 30
0.0
 42
-0.2063720265606679
  0
VERTEX
  5
1317
  8
0
 62
     7
 10
23.6524973952709487
 20
20.1637676199197813
 30
0.0
  0
VERTEX
  5
1318
  8
0
 62
     7
 10
23.494451999999999
 20
20.0145449999999983
 30
0.0
  0
VERTEX
  5
1319
  8
0
 62
     7
 10
23.3193240000000017
 20
19.8496570000000006
 30
0.0
  0
VERTEX
  5
131A
  8
0
 62
     7
 10
22.9031009999999995
 20
19.4594960000000015
 30
0.0
  0
VERTEX
  5
131B
  8
0
 62
     7
 10
22.727329000000001
 20
19.2940809999999985
 30
0.0
  0
VERTEX
  5
131C
  8
0
 62
     7
 10
22.5692880000000002
 20
19.1449549999999995
 30
0.0
 42
0.1039749774473627
  0
VERTEX
  5
131D
  8
0
 62
     7
 10
22.5659483299510484
 20
19.1401505020188303
 30
0.0
 42
0.2954679751915092
  0
VERTEX
  5
131E
  8
0
 62
     7
 10
22.5668301060303413
 20
19.1351622067980891
 30
0.0
  0
VERTEX
  5
131F
  8
0
 62
     7
 10
22.9388919999999992
 20
18.7351950000000009
 30
0.0
  0
VERTEX
  5
1320
  8
0
 62
     7
 10
23.3503110000000014
 20
18.2939359999999986
 30
0.0
  0
VERTEX
  5
1321
  8
0
 62
     7
 10
23.8395609999999998
 20
17.7710839999999983
 30
0.0
  0
VERTEX
  5
1322
  8
0
 62
     7
 10
25.1160350000000001
 20
16.4087829999999997
 30
0.0
  0
VERTEX
  5
1323
  8
0
 62
     7
 10
25.1474249999999984
 20
16.4383510000000008
 30
0.0
  0
VERTEX
  5
1324
  8
0
 62
     7
 10
25.7835080000000012
 20
17.0365810000000018
 30
0.0
 42
-0.0042600297714426
  0
VERTEX
  5
1325
  8
0
 62
     7
 10
26.0478695743066986
 20
17.2805961933118901
 30
0.0
 42
-0.0032230103331473
  0
VERTEX
  5
1326
  8
0
 62
     7
 10
26.2095169799677699
 20
17.4253851584930715
 30
0.0
 42
-0.3369219888169359
  0
VERTEX
  5
1327
  8
0
 62
     7
 10
26.2374933742575394
 20
17.4274603383318301
 30
0.0
 42
0.0244179582970232
  0
VERTEX
  5
1328
  8
0
 62
     7
 10
26.2983874748264306
 20
17.3920194984911411
 30
0.0
 42
0.0028610344193199
  0
VERTEX
  5
1329
  8
0
 62
     7
 10
26.4383825608114584
 20
17.3204607660487113
 30
0.0
 42
0.0037549888141349
  0
VERTEX
  5
132A
  8
0
 62
     7
 10
26.5869335665374393
 20
17.2469829482181112
 30
0.0
 42
0.0070259254188991
  0
VERTEX
  5
132B
  8
0
 62
     7
 10
26.7083877254790814
 20
17.1901409880561005
 30
0.0
 42
0.010059906639041
  0
VERTEX
  5
132C
  8
0
 62
     7
 10
26.9040654613975292
 20
17.1065823443689204
 30
0.0
 42
0.0055870403273077
  0
VERTEX
  5
132D
  8
0
 62
     7
 10
27.1457905835627784
 20
17.0121903166992787
 30
0.0
  0
VERTEX
  5
132E
  8
0
 62
     7
 10
27.3980430000000013
 20
16.9174800000000012
 30
0.0
 42
0.293681043390644
  0
VERTEX
  5
132F
  8
0
 62
     7
 10
27.4185316837128283
 20
16.9219353253790992
 30
0.0
 42
0.1231890111276846
  0
VERTEX
  5
1330
  8
0
 62
     7
 10
27.4284135944937013
 20
16.9384159506011009
 30
0.0
  0
VERTEX
  5
1331
  8
0
 62
     7
 10
27.5125330000000012
 20
17.2156769999999995
 30
0.0
  0
VERTEX
  5
1332
  8
0
 62
     7
 10
27.5977780000000017
 20
17.4974939999999997
 30
0.0
 42
0.3418400203866299
  0
VERTEX
  5
1333
  8
0
 62
     7
 10
27.5950008272414813
 20
17.5047579642723115
 30
0.0
 42
0.0581609919864492
  0
VERTEX
  5
1334
  8
0
 62
     7
 10
27.5906512477428585
 20
17.5067567354334201
 30
0.0
 42
0.0037930200802163
  0
VERTEX
  5
1335
  8
0
 62
     7
 10
27.5774114765094112
 20
17.5109507600218102
 30
0.0
 42
0.0054739962573271
  0
VERTEX
  5
1336
  8
0
 62
     7
 10
27.5614977832392007
 20
17.5156680776261418
 30
0.0
 42
0.0040549849460886
  0
VERTEX
  5
1337
  8
0
 62
     7
 10
27.5438116961082784
 20
17.5205454600918387
 30
0.0
 42
-0.0219849899543768
  0
VERTEX
  5
1338
  8
0
 62
     7
 10
27.4710475177652889
 20
17.5434522180457115
 30
0.0
 42
-0.0033739960464263
  0
VERTEX
  5
1339
  8
0
 62
     7
 10
27.3288064230895493
 20
17.59630119666841
 30
0.0
 42
-0.0040539726384816
  0
VERTEX
  5
133A
  8
0
 62
     7
 10
27.1756931476962507
 20
17.6557922082744305
 30
0.0
 42
-0.0061730025392888
  0
VERTEX
  5
133B
  8
0
 62
     7
 10
27.0438097592532003
 20
17.7101573578919087
 30
0.0
 42
-0.0116169933519703
  0
VERTEX
  5
133C
  8
0
 62
     7
 10
26.8814023173912418
 20
17.7839746864434005
 30
0.0
 42
-0.0078010949595317
  0
VERTEX
  5
133D
  8
0
 62
     7
 10
26.6992001060974395
 20
17.8754861336033883
 30
0.0
 42
-0.0075410866865925
  0
VERTEX
  5
133E
  8
0
 62
     7
 10
26.5113832763492816
 20
17.9771471575805109
 30
0.0
 42
-0.0081580331580665
  0
VERTEX
  5
133F
  8
0
 62
     7
 10
26.3316232299103987
 20
18.0818737290706295
 30
0.0
  0
VERTEX
  5
1340
  8
0
 62
     7
 10
26.1316510000000015
 20
18.2027870000000007
 30
0.0
  0
VERTEX
  5
1341
  8
0
 62
     7
 10
26.0752330000000008
 20
18.1478999999999999
 30
0.0
 42
-0.0046960435852412
  0
VERTEX
  5
1342
  8
0
 62
     7
 10
25.9061098839568693
 20
17.9864298190713114
 30
0.0
  0
VERTEX
  5
1343
  8
0
 62
     7
 10
25.5546509999999998
 20
17.6580030000000008
 30
0.0
  0
VERTEX
  5
1344
  8
0
 62
     7
 10
25.1532760000000017
 20
17.2839740000000006
 30
0.0
 42
-0.1897519693209942
  0
VERTEX
  5
1345
  8
0
 62
     7
 10
25.14457498730388
 20
17.2805520000000108
 30
0.0
 42
-0.2061129381993757
  0
VERTEX
  5
1346
  8
0
 62
     7
 10
25.1392149051329099
 20
17.2828586072903185
 30
0.0
  0
VERTEX
  5
1347
  8
0
 62
     7
 10
24.9073180000000001
 20
17.5279920000000011
 30
0.0
  0
VERTEX
  5
1348
  8
0
 62
     7
 10
24.6508919999999989
 20
17.7999110000000016
 30
0.0
  0
VERTEX
  5
1349
  8
0
 62
     7
 10
24.347805000000001
 20
18.1229000000000013
 30
0.0
  0
VERTEX
  5
134A
  8
0
 62
     7
 10
23.540303999999999
 20
18.9845499999999987
 30
0.0
 42
0.0011759990287954
  0
VERTEX
  5
134B
  8
0
 62
     7
 10
23.4909040427769504
 20
19.0369881044682892
 30
0.0
  0
VERTEX
  5
134C
  8
0
 62
     7
 10
23.4229969999999987
 20
19.1087300000000013
 30
0.0
  0
VERTEX
  5
134D
  8
0
 62
     7
 10
24.4116290000000014
 20
20.0340039999999995
 30
0.0
  0
VERTEX
  5
134E
  8
0
 62
     7
 10
24.2932799999999993
 20
20.2647739999999992
 30
0.0
 42
-0.0118779779050301
  0
VERTEX
  5
134F
  8
0
 62
     7
 10
24.1359600091374915
 20
20.5903644308516895
 30
0.0
 42
-0.0163390314502366
  0
VERTEX
  5
1350
  8
0
 62
     7
 10
24.0112958654822783
 20
20.8904997582985317
 30
0.0
 42
-0.0165220044287298
  0
VERTEX
  5
1351
  8
0
 62
     7
 10
23.907531317864759
 20
21.1954679126645296
 30
0.0
 42
-0.012584994401778
  0
VERTEX
  5
1352
  8
0
 62
     7
 10
23.8135006834952598
 20
21.5355496338437185
 30
0.0
  0
VERTEX
  5
1353
  8
0
 62
     7
 10
23.7561
 20
21.7655509999999985
 30
0.0
  0
VERTEX
  5
1354
  8
0
 62
     7
 10
23.6974540000000005
 20
21.7718640000000008
 30
0.0
 42
0.0171000026287261
  0
VERTEX
  5
1355
  8
0
 62
     7
 10
23.6552558378013593
 20
21.7749515006879513
 30
0.0
  0
VERTEX
  5
1356
  8
0
 62
     7
 10
23.4775220000000004
 20
21.7816730000000014
 30
0.0
 42
0.0010100005649475
  0
VERTEX
  5
1357
  8
0
 62
     7
 10
23.2682061100360187
 20
21.7889623423986798
 30
0.0
  0
VERTEX
  5
1358
  8
0
 62
     7
 10
23.0310990000000011
 20
21.7964060000000011
 30
0.0
  0
VERTEX
  5
1359
  8
0
 62
     7
 10
22.7973749999999988
 20
21.8038460000000001
 30
0.0
 42
-0.001504902556951
  0
VERTEX
  5
135A
  8
0
 62
     7
 10
22.5989045851081087
 20
21.8111308147028389
 30
0.0
  0
VERTEX
  5
135B
  8
0
 62
     7
 10
22.4220790000000001
 20
21.8182219999999987
 30
0.0
 42
-0.1289930512111592
  0
VERTEX
  5
135C
  8
0
 62
     7
 10
22.4131621706523987
 20
21.8209544373040707
 30
0.0
 42
-0.2679510724234522
  0
VERTEX
  5
135D
  8
0
 62
     7
 10
22.4060097841879404
 20
21.8342464986632692
 30
0.0
  0
VERTEX
  5
135E
  8
0
 62
     7
 10
22.4804899999999996
 20
24.3099060000000016
 30
0.0
 42
-0.1910810281388203
  0
VERTEX
  5
135F
  8
0
 62
     7
 10
22.4885926018403914
 20
24.3286623885859399
 30
0.0
 42
-0.206437025716553
  0
VERTEX
  5
1360
  8
0
 62
     7
 10
22.4954556726137298
 20
24.3313901014837093
 30
0.0
  0
VERTEX
  5
1361
  8
0
 62
     7
 10
22.8065069999999999
 20
24.3223570000000002
 30
0.0
  0
VERTEX
  5
1362
  8
0
 62
     7
 10
23.1752490000000009
 20
24.3109040000000007
 30
0.0
  0
VERTEX
  5
1363
  8
0
 62
     7
 10
23.6638130000000011
 20
24.2943940000000005
 30
0.0
  0
VERTEX
  5
1364
  8
0
 62
     7
 10
23.8388120000000008
 20
24.2883299999999984
 30
0.0
  0
VERTEX
  5
1365
  8
0
 62
     7
 10
23.8879030000000014
 20
24.451941999999999
 30
0.0
 42
-0.0157350140223834
  0
VERTEX
  5
1366
  8
0
 62
     7
 10
24.002193893572489
 20
24.7934119018770396
 30
0.0
 42
-0.0164379963754876
  0
VERTEX
  5
1367
  8
0
 62
     7
 10
24.1362316623059989
 20
25.1219999622706602
 30
0.0
 42
-0.0161749533274036
  0
VERTEX
  5
1368
  8
0
 62
     7
 10
24.2937130602912497
 20
25.4459072269932705
 30
0.0
 42
-0.0142299578058491
  0
VERTEX
  5
1369
  8
0
 62
     7
 10
24.4783137352351901
 20
25.7733620810938611
 30
0.0
  0
VERTEX
  5
136A
  8
0
 62
     7
 10
24.603390000000001
 20
25.9811709999999998
 30
0.0
  0
VERTEX
  5
136B
  8
0
 62
     7
 10
24.1436020000000013
 20
26.4704529999999991
 30
0.0
  0
VERTEX
  5
136C
  8
0
 62
     7
 10
23.9673119999999997
 20
26.6587449999999997
 30
0.0
 42
-0.0015180143729108
  0
VERTEX
  5
136D
  8
0
 62
     7
 10
23.8188727491429191
 20
26.8188517614361395
 30
0.0
  0
VERTEX
  5
136E
  8
0
 62
     7
 10
23.6864600000000003
 20
26.9626260000000002
 30
0.0
 42
-0.1881799808925124
  0
VERTEX
  5
136F
  8
0
 62
     7
 10
23.6838119999999996
 20
26.9694139984251215
 30
0.0
 42
-0.1638090409052484
  0
VERTEX
  5
1370
  8
0
 62
     7
 10
23.6855891898392699
 20
26.9746959940370914
 30
0.0
 42
-0.018752985590844
  0
VERTEX
  5
1371
  8
0
 62
     7
 10
23.6936690779039516
 20
26.984544678633231
 30
0.0
 42
-0.021044022783467
  0
VERTEX
  5
1372
  8
0
 62
     7
 10
23.7045133130693308
 20
26.9958066049897205
 30
0.0
 42
-0.0156740259070373
  0
VERTEX
  5
1373
  8
0
 62
     7
 10
23.7173603113387514
 20
27.0073253931969184
 30
0.0
 42
0.0130889714565314
  0
VERTEX
  5
1374
  8
0
 62
     7
 10
23.7430324398804302
 20
27.0300985101913582
 30
0.0
  0
VERTEX
  5
1375
  8
0
 62
     7
 10
23.999727
 20
27.2701640000000012
 30
0.0
  0
VERTEX
  5
1376
  8
0
 62
     7
 10
24.291525
 20
27.5434570000000001
 30
0.0
  0
VERTEX
  5
1377
  8
0
 62
     7
 10
24.631495000000001
 20
27.86247100000001
 30
0.0
  0
VERTEX
  5
1378
  8
0
 62
     7
 10
25.512079
 20
28.6893940000000001
 30
0.0
  0
VERTEX
  5
1379
  8
0
 62
     7
 10
26.3852979999999988
 20
27.7563169999999992
 30
0.0
  0
VERTEX
  5
137A
  8
0
 62
     7
 10
26.440290000000001
 20
27.69709000000001
 30
0.0
  0
VERTEX
  5
137B
  8
0
 62
     7
 10
26.6195510000000013
 20
27.7930759999999992
 30
0.0
 42
-0.0147179842793113
  0
VERTEX
  5
137C
  8
0
 62
     7
 10
26.9388194283900688
 20
27.9521284554638889
 30
0.0
 42
-0.0164559737650889
  0
VERTEX
  5
137D
  8
0
 62
     7
 10
27.2553557762286616
 20
28.0858994641822584
 30
0.0
 42
-0.0163819824066078
  0
VERTEX
  5
137E
  8
0
 62
     7
 10
27.5812966095894616
 20
28.199070277867051
 30
0.0
 42
-0.0143230202722936
  0
VERTEX
  5
137F
  8
0
 62
     7
 10
27.9288112963175088
 20
28.2962848584080007
 30
0.0
 42
0.0021940220165654
  0
VERTEX
  5
1380
  8
0
 62
     7
 10
28.0176166186666791
 20
28.3188245385662185
 30
0.0
 42
0.0034219451579346
  0
VERTEX
  5
1381
  8
0
 62
     7
 10
28.0938879129363315
 20
28.3390905989346393
 30
0.0
 42
0.001005920853676
  0
VERTEX
  5
1382
  8
0
 62
     7
 10
28.1599170597856414
 20
28.3572681431305611
 30
0.0
 42
0.11426787832744
  0
VERTEX
  5
1383
  8
0
 62
     7
 10
28.1677984366339409
 20
28.3615517532248695
 30
0.0
 42
0.2023959844073743
  0
VERTEX
  5
1384
  8
0
 62
     7
 10
28.1716347458984089
 20
28.3695816152725513
 30
0.0
  0
VERTEX
  5
1385
  8
0
 62
     7
 10
28.1804890000000015
 20
28.5626010000000008
 30
0.0
 42
0.0020089203047773
  0
VERTEX
  5
1386
  8
0
 62
     7
 10
28.1894525895386998
 20
28.7791387423596596
 30
0.0
 42
0.0012270238031492
  0
VERTEX
  5
1387
  8
0
 62
     7
 10
28.1983741578223501
 20
29.0347889741140186
 30
0.0
  0
VERTEX
  5
1388
  8
0
 62
     7
 10
28.2070390000000017
 20
29.2902389999999997
 30
0.0
 42
-0.0011889930232462
  0
VERTEX
  5
1389
  8
0
 62
     7
 10
28.215192622156561
 20
29.5061862053819013
 30
0.0
  0
VERTEX
  5
138A
  8
0
 62
     7
 10
28.223001
 20
29.7001510000000017
 30
0.0
 42
-0.1884259925755752
  0
VERTEX
  5
138B
  8
0
 62
     7
 10
28.2252763955338715
 20
29.7053516044661308
 30
0.0
 42
-0.2057630045237632
  0
VERTEX
  5
138C
  8
0
 62
     7
 10
28.2304994315429596
 20
29.7074355328837285
 30
0.0
  0
VERTEX
  5
138D
  8
0
 62
     7
 10
28.5004840000000002
 20
29.7002960000000016
 30
0.0
  0
VERTEX
  5
138E
  8
0
 62
     7
 10
28.7999839999999985
 20
29.6918070000000007
 30
0.0
  0
VERTEX
  5
138F
  8
0
 62
     7
 10
29.1546969999999988
 20
29.6807020000000001
 30
0.0
  0
VERTEX
  5
1390
  8
0
 62
     7
 10
30.0806159999999991
 20
29.6505909999999986
 30
0.0
  0
VERTEX
  5
1391
  8
0
 62
     7
 10
30.4722330000000099
 20
29.6373670000000011
 30
0.0
  0
VERTEX
  5
1392
  8
0
 62
     7
 10
30.7255590000000112
 20
29.6284899999999993
 30
0.0
 42
-0.1897880018912974
  0
VERTEX
  5
1393
  8
0
 62
     7
 10
30.7320108164530801
 20
29.6256868053185691
 30
0.0
 42
-0.2060569808562545
  0
VERTEX
  5
1394
  8
0
 62
     7
 10
30.7333273036297783
 20
29.6223814231419702
 30
0.0
  0
VERTEX
  5
1395
  8
0
 62
     7
 10
30.7279610000000005
 20
29.4274410000000017
 30
0.0
  0
VERTEX
  5
1396
  8
0
 62
     7
 10
30.7216489999999993
 20
29.2114389999999986
 30
0.0
  0
VERTEX
  5
1397
  8
0
 62
     7
 10
30.7135120000000015
 20
28.9555170000000004
 30
0.0
 42
0.0012220147006851
  0
VERTEX
  5
1398
  8
0
 62
     7
 10
30.705696000176971
 20
28.6978889124551984
 30
0.0
 42
0.0020470035456821
  0
VERTEX
  5
1399
  8
0
 62
     7
 10
30.7005463470429305
 20
28.4812570035901302
 30
0.0
  0
VERTEX
  5
139A
  8
0
 62
     7
 10
30.6968439999999987
 20
28.2888219999999997
 30
0.0
 42
0.219117063294853
  0
VERTEX
  5
139B
  8
0
 62
     7
 10
30.7002334136277995
 20
28.2810754633988104
 30
0.0
 42
0.0983529312480695
  0
VERTEX
  5
139C
  8
0
 62
     7
 10
30.7076613859066896
 20
28.2767205132081898
 30
0.0
  0
VERTEX
  5
139D
  8
0
 62
     7
 10
30.7679790000000004
 20
28.2558730000000011
 30
0.0
 42
0.0030519183853218
  0
VERTEX
  5
139E
  8
0
 62
     7
 10
30.8376998044752995
 20
28.2323944674332488
 30
0.0
 42
0.0019640040792298
  0
VERTEX
  5
139F
  8
0
 62
     7
 10
30.9188084513254111
 20
28.2059805408807804
 30
0.0
 42
-0.0125559911739667
  0
VERTEX
  5
13A0
  8
0
 62
     7
 10
31.2597973105629805
 20
28.0868994969801484
 30
0.0
 42
-0.0165970043340555
  0
VERTEX
  5
13A1
  8
0
 62
     7
 10
31.5635500488189784
 20
27.9605124367646702
 30
0.0
 42
-0.0165249853920857
  0
VERTEX
  5
13A2
  8
0
 62
     7
 10
31.8592834414324102
 20
27.8137993879326295
 30
0.0
 42
-0.0122770009193359
  0
VERTEX
  5
13A3
  8
0
 62
     7
 10
32.176061926856498
 20
27.6332079475191286
 30
0.0
  0
VERTEX
  5
13A4
  8
0
 62
     7
 10
32.3833119999999965
 20
27.508223000000001
 30
0.0
  0
VERTEX
  5
13A5
  8
0
 62
     7
 10
32.6010630000000035
 20
27.7127629999999989
 30
0.0
  0
VERTEX
  5
13A6
  8
0
 62
     7
 10
33.0051190000000005
 20
28.0919090000000011
 30
0.0
 42
-0.0015990153002885
  0
VERTEX
  5
13A7
  8
0
 62
     7
 10
33.2177560236545801
 20
28.2899370307000702
 30
0.0
  0
VERTEX
  5
13A8
  8
0
 62
     7
 10
33.3656999999999968
 20
28.4266830000000006
 30
0.0
 42
-0.2855670114782219
  0
VERTEX
  5
13A9
  8
0
 62
     7
 10
33.3743382848496708
 20
28.4283389434562714
 30
0.0
 42
-0.1133770084077089
  0
VERTEX
  5
13AA
  8
0
 62
     7
 10
33.3901333089738728
 20
28.4176947902665518
 30
0.0
  0
VERTEX
  5
13AB
  8
0
 62
     7
 10
35.0795329999999979
 20
26.6114500000000014
 30
0.0
 42
-0.1902329898025177
  0
VERTEX
  5
13AC
  8
0
 62
     7
 10
35.0838109999999972
 20
26.6006199875435883
 30
0.0
 42
-0.2062889876591282
  0
VERTEX
  5
13AD
  8
0
 62
     7
 10
35.0803214498510698
 20
26.5925220251805499
 30
0.0
  0
VERTEX
  5
13AE
  8
0
 62
     7
 10
34.652003999999998
 20
26.1878600000000006
 30
0.0
  0
VERTEX
  5
13AF
  8
0
 62
     7
 10
34.2701950000000011
 20
25.8278709999999982
 30
0.0
 42
-0.0072909672483021
  0
VERTEX
  5
13B0
  8
0
 62
     7
 10
34.1355437141897369
 20
25.7048115112760911
 30
0.0
  0
VERTEX
  5
13B1
  8
0
 62
     7
 10
34.1022719999999993
 20
25.6752870000000009
 30
0.0
  0
VERTEX
  5
13B2
  8
0
 62
     7
 10
34.1961859999999973
 20
25.4954189999999983
 30
0.0
 42
-0.0136669970521718
  0
VERTEX
  5
13B3
  8
0
 62
     7
 10
34.3698665764428526
 20
25.1393649984642593
 30
0.0
 42
-0.0170290037826894
  0
VERTEX
  5
13B4
  8
0
 62
     7
 10
34.5106405894060586
 20
24.7992646756378115
 30
0.0
 42
-0.0172520045499796
  0
VERTEX
  5
13B5
  8
0
 62
     7
 10
34.6265050840642701
 20
24.4541361799839798
 30
0.0
 42
-0.0147059912721141
  0
VERTEX
  5
13B6
  8
0
 62
     7
 10
34.725215248000211
 20
24.0830468449692212
 30
0.0
 42
0.0026369760824549
  0
VERTEX
  5
13B7
  8
0
 62
     7
 10
34.7477730950607366
 20
23.9891609912141313
 30
0.0
 42
0.0418390118942217
  0
VERTEX
  5
13B8
  8
0
 62
     7
 10
34.758240409964742
 20
23.9580941240645586
 30
0.0
 42
0.139649983622905
  0
VERTEX
  5
13B9
  8
0
 62
     7
 10
34.7701328002851469
 20
23.9435628044336113
 30
0.0
 42
0.1168359750225837
  0
VERTEX
  5
13BA
  8
0
 62
     7
 10
34.7887425539380217
 20
23.936244586335679
 30
0.0
 42
0.0264409379082389
  0
VERTEX
  5
13BB
  8
0
 62
     7
 10
34.8120203005696993
 20
23.934154758161899
 30
0.0
  0
VERTEX
  5
13BC
  8
0
 62
     7
 10
34.9989009999999965
 20
23.9274249999999995
 30
0.0
  0
VERTEX
  5
13BD
  8
0
 62
     7
 10
35.2132679999999993
 20
23.9201160000000002
 30
0.0
  0
VERTEX
  5
13BE
  8
0
 62
     7
 10
35.4619560000000007
 20
23.9122699999999995
 30
0.0
  0
VERTEX
  5
13BF
  8
0
 62
     7
 10
35.708987999999998
 20
23.9042870000000001
 30
0.0
 42
-0.0014290242043958
  0
VERTEX
  5
13C0
  8
0
 62
     7
 10
35.9179884039148902
 20
23.8965659158882318
 30
0.0
  0
VERTEX
  5
13C1
  8
0
 62
     7
 10
36.105243999999999
 20
23.8890719999999988
 30
0.0
 42
-0.188473994777736
  0
VERTEX
  5
13C2
  8
0
 62
     7
 10
36.1112619420620433
 20
23.8864339211248016
 30
0.0
 42
-0.2029899913790353
  0
VERTEX
  5
13C3
  8
0
 62
     7
 10
36.113737959342977
 20
23.8803162386893
 30
0.0
  0
VERTEX
  5
13C4
  8
0
 62
     7
 10
36.0926779999999994
 20
22.5374850000000002
 30
0.0
  0
VERTEX
  5
13C5
  8
0
 62
     7
 10
36.0688480000000027
 20
21.0585249999999995
 30
0.0
  0
VERTEX
  5
13C6
  8
0
 62
     7
 10
36.0098610000000008
 20
17.5382609999999985
 30
0.0
  0
VERTEX
  5
13C7
  8
0
 62
     7
 10
35.9860040000000012
 20
16.0296459999999996
 30
0.0
  0
VERTEX
  5
13C8
  8
0
 62
     7
 10
35.9657900000000126
 20
14.6966400000000004
 30
0.0
 42
0.0148149977383446
  0
VERTEX
  5
13C9
  8
0
 62
     7
 10
35.9673780054202865
 20
14.5876569520155801
 30
0.0
 42
0.0833840238276487
  0
VERTEX
  5
13CA
  8
0
 62
     7
 10
36.1697274013757593
 20
13.6409417583239492
 30
0.0
 42
0.0808500055411465
  0
VERTEX
  5
13CB
  8
0
 62
     7
 10
36.6713098397511601
 20
12.8009605764729208
 30
0.0
 42
0.0806449492825491
  0
VERTEX
  5
13CC
  8
0
 62
     7
 10
37.4147057866710497
 20
12.1617326597685604
 30
0.0
 42
0.0823419721759028
  0
VERTEX
  5
13CD
  8
0
 62
     7
 10
38.3169754213453615
 20
11.7961758201664093
 30
0.0
 42
0.0229450214049487
  0
VERTEX
  5
13CE
  8
0
 62
     7
 10
38.5656776012052802
 20
11.7522648126363407
 30
0.0
 42
0.0223629784155352
  0
VERTEX
  5
13CF
  8
0
 62
     7
 10
38.8194989815550997
 20
11.7308574694226504
 30
0.0
 42
0.0090459653573029
  0
VERTEX
  5
13D0
  8
0
 62
     7
 10
39.2187832128876579
 20
11.7223361479525199
 30
0.0
  0
VERTEX
  5
13D1
  8
0
 62
     7
 10
40.2313120000000026
 20
11.7206539999999997
 30
0.0
  0
VERTEX
  5
13D2
  8
0
 62
     7
 10
41.5938110000000023
 20
11.7205510000000004
 30
0.0
  0
VERTEX
  5
13D3
  8
0
 62
     7
 10
41.5938950000000034
 20
15.5455509999999997
 30
0.0
  0
VERTEX
  5
13D4
  8
0
 62
     7
 10
41.9213519999999988
 20
15.6746479999999995
 30
0.0
 42
0.0051130825942793
  0
VERTEX
  5
13D5
  8
0
 62
     7
 10
42.2677217531919567
 20
15.8153079024832106
 30
0.0
 42
0.0253720794244299
  0
VERTEX
  5
13D6
  8
0
 62
     7
 10
42.4572474812862808
 20
15.90609711132565
 30
0.0
 42
0.0407149098177592
  0
VERTEX
  5
13D7
  8
0
 62
     7
 10
42.5917873038788173
 20
15.9940143268869992
 30
0.0
 42
0.0308829898307847
  0
VERTEX
  5
13D8
  8
0
 62
     7
 10
42.7241311900157115
 20
16.1105516409050509
 30
0.0
 42
0.0448620534657564
  0
VERTEX
  5
13D9
  8
0
 62
     7
 10
42.8752124196361208
 20
16.2908636884825491
 30
0.0
 42
0.048684015403969
  0
VERTEX
  5
13DA
  8
0
 62
     7
 10
42.9870365296546311
 20
16.4905538565294805
 30
0.0
 42
0.048362004985456
  0
VERTEX
  5
13DB
  8
0
 62
     7
 10
43.0586868554880624
 20
16.7093044926161092
 30
0.0
 42
0.0432279881135655
  0
VERTEX
  5
13DC
  8
0
 62
     7
 10
43.0904996221918992
 20
16.9462064980331597
 30
0.0
 42
0.0284480157409399
  0
VERTEX
  5
13DD
  8
0
 62
     7
 10
43.0890174145097973
 20
17.096732421408209
 30
0.0
 42
0.0294500018696839
  0
VERTEX
  5
13DE
  8
0
 62
     7
 10
43.0703888575245415
 20
17.2443614538575787
 30
0.0
 42
0.0300889960316716
  0
VERTEX
  5
13DF
  8
0
 62
     7
 10
43.0351111404130293
 20
17.3856764272824584
 30
0.0
 42
0.0329719949722451
  0
VERTEX
  5
13E0
  8
0
 62
     7
 10
42.9839409513766384
 20
17.5173408431902189
 30
0.0
 42
0.0138959971934316
  0
VERTEX
  5
13E1
  8
0
 62
     7
 10
42.9537218904771194
 20
17.5776587890728813
 30
0.0
  0
VERTEX
  5
13E2
  8
0
 62
     7
 10
42.7709010000000021
 20
17.9182659999999991
 30
0.0
  0
VERTEX
  5
13E3
  8
0
 62
     7
 10
42.5578270000000032
 20
18.3137250000000016
 30
0.0
  0
SEQEND
  5
13E4
  8
0
 62
     7
  0
POLYLINE
  5
6D0
  8
0
 62
     7
 66
     1
 10
0.0
 20
0.0
 30
0.0
 70
     1
  0
VERTEX
  5
13E8
  8
0
 62
     7
 10
21.4884270000000015
 20
9.4725940000000008
 30
0.0
 42
0.9999999999999998
  0
VERTEX
  5
13E9
  8
0
 62
     7
 10
20.760231000000001
 20
9.4725940000000008
 30
0.0
 42
1.0
  0
SEQEND
  5
13EA
  8
0
 62
     7
  0
POLYLINE
  5
6D1
  8
0
 62
     7
 66
     1
 10
0.0
 20
0.0
 30
0.0
 70
     1
  0
VERTEX
  5
13EB
  8
0
 62
     7
 10
25.2500059999999991
 20
6.9542330000000003
 30
0.0
 42
0.9999999999999998
  0
VERTEX
  5
13EC
  8
0
 62
     7
 10
22.8750579999999992
 20
6.9542330000000003
 30
0.0
 42
1.0
  0
SEQEND
  5
13ED
  8
0
 62
     7
  0
VIEWPORT
  5
650
 67
     1
  8
0
 62
     0
 10
0.0
 20
0.0
 30
0.0
 40
1000.0
 41
1000.0
 68
     1
 69
     1
1001
ACAD
1000
MVIEW
1002
{
1070
    16
1010
0.0
1020
0.0
1030
0.0
1010
0.0
1020
0.0
1030
1.0
1040
0.0
1040
1000.0
1040
0.0
1040
0.0
1040
50.0
1040
0.0
1040
0.0
1070
     0
1070
   100
1070
     1
1070
     1
1070
     0
1070
     0
1070
     0
1070
     0
1040
0.0
1040
0.0
1040
0.0
1040
1.0
1040
1.0
1040
1.0
1040
1.0
1070
     0
1002
{
1002
}
1002
}
  0
ENDSEC
  0
EOF
