ISO-10303-21;
HEADER;
/* Generated by software containing ST-Developer
 * from STEP Tools, Inc. (www.steptools.com) 
 */

FILE_DESCRIPTION(
/* description */ ('Sechskantschrauben - Produktklasse A und B'),
/* implementation_level */ '2;1');

FILE_NAME(
/* name */ 
'D:\\DEW Zeichnungen\\Kombiwalzwerk\\Adjustage Linie 1\\Reika Vereinze
lung\\3D-Daten\\ISO 4014 - M8 x 80ISO.stp',
/* time_stamp */ '2013-12-18T10:28:34+01:00',
/* author */ ('boenisch'),
/* organization */ (''),
/* preprocessor_version */ 'ST-DEVELOPER v15.2',
/* originating_system */ 'Autodesk Inventor 2014',
/* authorisation */ '');

FILE_SCHEMA (('AUTOMOTIVE_DESIGN { 1 0 10303 214 3 1 1 }'));
ENDSEC;

DATA;
#10=SHAPE_REPRESENTATION_RELATIONSHIP('SRR','None',#493,#11);
#11=ADVANCED_BREP_SHAPE_REPRESENTATION($,(#275),#484);
#12=STYLED_ITEM($,(#501),#275);
#13=LINE($,#453,#25);
#14=LINE($,#455,#26);
#15=LINE($,#456,#27);
#16=LINE($,#459,#28);
#17=LINE($,#460,#29);
#18=LINE($,#463,#30);
#19=LINE($,#464,#31);
#20=LINE($,#467,#32);
#21=LINE($,#469,#33);
#22=LINE($,#470,#34);
#23=LINE($,#474,#35);
#24=LINE($,#476,#36);
#25=VECTOR($,#347,4.11944341639926);
#26=VECTOR($,#348,7.50555349946513);
#27=VECTOR($,#349,4.11944341639926);
#28=VECTOR($,#352,4.11944341639926);
#29=VECTOR($,#353,7.50555349946513);
#30=VECTOR($,#356,4.11944341639926);
#31=VECTOR($,#357,7.50555349946513);
#32=VECTOR($,#360,7.50555349946513);
#33=VECTOR($,#361,7.50555349946513);
#34=VECTOR($,#362,7.50555349946513);
#35=VECTOR($,#367,4.11944341639926);
#36=VECTOR($,#370,4.11944341639926);
#37=(
BOUNDED_CURVE()
B_SPLINE_CURVE(2,(#394,#395,#396),.UNSPECIFIED.,.F.,.F.)
B_SPLINE_CURVE_WITH_KNOTS((3,3),(0.380711317203905,0.76142263440781),
 .UNSPECIFIED.)
CURVE()
GEOMETRIC_REPRESENTATION_ITEM()
RATIONAL_B_SPLINE_CURVE((1.,1.03795484930203,1.))
REPRESENTATION_ITEM($)
);
#38=(
BOUNDED_CURVE()
B_SPLINE_CURVE(2,(#399,#400,#401),.UNSPECIFIED.,.F.,.F.)
B_SPLINE_CURVE_WITH_KNOTS((3,3),(0.,0.380711317203905),.UNSPECIFIED.)
CURVE()
GEOMETRIC_REPRESENTATION_ITEM()
RATIONAL_B_SPLINE_CURVE((1.,1.03795484930204,1.))
REPRESENTATION_ITEM($)
);
#39=(
BOUNDED_CURVE()
B_SPLINE_CURVE(2,(#405,#406,#407),.UNSPECIFIED.,.F.,.F.)
B_SPLINE_CURVE_WITH_KNOTS((3,3),(0.,0.380711317203904),.UNSPECIFIED.)
CURVE()
GEOMETRIC_REPRESENTATION_ITEM()
RATIONAL_B_SPLINE_CURVE((1.,1.03795484930205,1.))
REPRESENTATION_ITEM($)
);
#40=(
BOUNDED_CURVE()
B_SPLINE_CURVE(2,(#408,#409,#410),.UNSPECIFIED.,.F.,.F.)
B_SPLINE_CURVE_WITH_KNOTS((3,3),(0.380711317203905,0.76142263440781),
 .UNSPECIFIED.)
CURVE()
GEOMETRIC_REPRESENTATION_ITEM()
RATIONAL_B_SPLINE_CURVE((1.,1.03795484930202,1.))
REPRESENTATION_ITEM($)
);
#41=(
BOUNDED_CURVE()
B_SPLINE_CURVE(2,(#415,#416,#417),.UNSPECIFIED.,.F.,.F.)
B_SPLINE_CURVE_WITH_KNOTS((3,3),(0.380711317203905,0.76142263440781),
 .UNSPECIFIED.)
CURVE()
GEOMETRIC_REPRESENTATION_ITEM()
RATIONAL_B_SPLINE_CURVE((1.,1.03795484930206,1.))
REPRESENTATION_ITEM($)
);
#42=(
BOUNDED_CURVE()
B_SPLINE_CURVE(2,(#419,#420,#421),.UNSPECIFIED.,.F.,.F.)
B_SPLINE_CURVE_WITH_KNOTS((3,3),(0.,0.380711317203905),.UNSPECIFIED.)
CURVE()
GEOMETRIC_REPRESENTATION_ITEM()
RATIONAL_B_SPLINE_CURVE((1.,1.03795484930205,1.))
REPRESENTATION_ITEM($)
);
#43=(
BOUNDED_CURVE()
B_SPLINE_CURVE(2,(#425,#426,#427),.UNSPECIFIED.,.F.,.F.)
B_SPLINE_CURVE_WITH_KNOTS((3,3),(0.,0.380711317203905),.UNSPECIFIED.)
CURVE()
GEOMETRIC_REPRESENTATION_ITEM()
RATIONAL_B_SPLINE_CURVE((1.,1.03795484930205,1.))
REPRESENTATION_ITEM($)
);
#44=(
BOUNDED_CURVE()
B_SPLINE_CURVE(2,(#428,#429,#430),.UNSPECIFIED.,.F.,.F.)
B_SPLINE_CURVE_WITH_KNOTS((3,3),(0.380711317203904,0.761422634407808),
 .UNSPECIFIED.)
CURVE()
GEOMETRIC_REPRESENTATION_ITEM()
RATIONAL_B_SPLINE_CURVE((1.,1.03795484930205,1.))
REPRESENTATION_ITEM($)
);
#45=(
BOUNDED_CURVE()
B_SPLINE_CURVE(2,(#435,#436,#437),.UNSPECIFIED.,.F.,.F.)
B_SPLINE_CURVE_WITH_KNOTS((3,3),(0.380711317203905,0.761422634407809),
 .UNSPECIFIED.)
CURVE()
GEOMETRIC_REPRESENTATION_ITEM()
RATIONAL_B_SPLINE_CURVE((1.,1.03795484930204,1.))
REPRESENTATION_ITEM($)
);
#46=(
BOUNDED_CURVE()
B_SPLINE_CURVE(2,(#439,#440,#441),.UNSPECIFIED.,.F.,.F.)
B_SPLINE_CURVE_WITH_KNOTS((3,3),(0.,0.380711317203905),.UNSPECIFIED.)
CURVE()
GEOMETRIC_REPRESENTATION_ITEM()
RATIONAL_B_SPLINE_CURVE((1.,1.03795484930205,1.))
REPRESENTATION_ITEM($)
);
#47=(
BOUNDED_CURVE()
B_SPLINE_CURVE(2,(#444,#445,#446),.UNSPECIFIED.,.F.,.F.)
B_SPLINE_CURVE_WITH_KNOTS((3,3),(0.,0.380711317203905),.UNSPECIFIED.)
CURVE()
GEOMETRIC_REPRESENTATION_ITEM()
RATIONAL_B_SPLINE_CURVE((1.,1.03795484930204,1.))
REPRESENTATION_ITEM($)
);
#48=(
BOUNDED_CURVE()
B_SPLINE_CURVE(2,(#447,#448,#449),.UNSPECIFIED.,.F.,.F.)
B_SPLINE_CURVE_WITH_KNOTS((3,3),(0.380711317203905,0.761422634407809),
 .UNSPECIFIED.)
CURVE()
GEOMETRIC_REPRESENTATION_ITEM()
RATIONAL_B_SPLINE_CURVE((1.,1.03795484930204,1.))
REPRESENTATION_ITEM($)
);
#49=PLANE($,#282);
#50=PLANE($,#295);
#51=PLANE($,#296);
#52=PLANE($,#297);
#53=PLANE($,#298);
#54=PLANE($,#300);
#55=PLANE($,#301);
#56=PLANE($,#302);
#57=PLANE($,#303);
#58=PLANE($,#306);
#59=CYLINDRICAL_SURFACE($,#280,4.00000000000001);
#60=CYLINDRICAL_SURFACE($,#304,5.815);
#61=FACE_BOUND($,#86,.T.);
#62=FACE_BOUND($,#88,.T.);
#63=FACE_BOUND($,#100,.T.);
#64=FACE_BOUND($,#106,.T.);
#65=FACE_BOUND($,#107,.T.);
#66=FACE_BOUND($,#108,.T.);
#67=FACE_OUTER_BOUND($,#85,.T.);
#68=FACE_OUTER_BOUND($,#87,.T.);
#69=FACE_OUTER_BOUND($,#89,.T.);
#70=FACE_OUTER_BOUND($,#90,.T.);
#71=FACE_OUTER_BOUND($,#91,.T.);
#72=FACE_OUTER_BOUND($,#92,.T.);
#73=FACE_OUTER_BOUND($,#93,.T.);
#74=FACE_OUTER_BOUND($,#94,.T.);
#75=FACE_OUTER_BOUND($,#95,.T.);
#76=FACE_OUTER_BOUND($,#96,.T.);
#77=FACE_OUTER_BOUND($,#97,.T.);
#78=FACE_OUTER_BOUND($,#98,.T.);
#79=FACE_OUTER_BOUND($,#99,.T.);
#80=FACE_OUTER_BOUND($,#101,.T.);
#81=FACE_OUTER_BOUND($,#102,.T.);
#82=FACE_OUTER_BOUND($,#103,.T.);
#83=FACE_OUTER_BOUND($,#104,.T.);
#84=FACE_OUTER_BOUND($,#105,.T.);
#85=EDGE_LOOP($,(#178));
#86=EDGE_LOOP($,(#179));
#87=EDGE_LOOP($,(#180));
#88=EDGE_LOOP($,(#181));
#89=EDGE_LOOP($,(#182));
#90=EDGE_LOOP($,(#183,#184,#185));
#91=EDGE_LOOP($,(#186,#187,#188));
#92=EDGE_LOOP($,(#189,#190,#191));
#93=EDGE_LOOP($,(#192,#193,#194));
#94=EDGE_LOOP($,(#195,#196,#197));
#95=EDGE_LOOP($,(#198,#199,#200));
#96=EDGE_LOOP($,(#201,#202,#203,#204,#205));
#97=EDGE_LOOP($,(#206,#207,#208,#209,#210));
#98=EDGE_LOOP($,(#211,#212,#213,#214,#215));
#99=EDGE_LOOP($,(#216,#217,#218,#219,#220,#221));
#100=EDGE_LOOP($,(#222));
#101=EDGE_LOOP($,(#223,#224,#225,#226,#227));
#102=EDGE_LOOP($,(#228,#229,#230,#231,#232));
#103=EDGE_LOOP($,(#233,#234,#235,#236,#237));
#104=EDGE_LOOP($,(#238,#239,#240,#241,#242,#243));
#105=EDGE_LOOP($,(#244));
#106=EDGE_LOOP($,(#245));
#107=EDGE_LOOP($,(#246));
#108=EDGE_LOOP($,(#247));
#109=CIRCLE($,#278,4.00000000000001);
#110=CIRCLE($,#279,3.23318750000001);
#111=CIRCLE($,#281,4.);
#112=CIRCLE($,#284,6.50000000000003);
#113=CIRCLE($,#286,6.50000000000003);
#114=CIRCLE($,#288,6.50000000000003);
#115=CIRCLE($,#290,6.50000000000003);
#116=CIRCLE($,#292,6.50000000000003);
#117=CIRCLE($,#294,6.50000000000003);
#118=CIRCLE($,#299,5.815);
#119=CIRCLE($,#305,5.815);
#120=VERTEX_POINT($,#383);
#121=VERTEX_POINT($,#385);
#122=VERTEX_POINT($,#388);
#123=VERTEX_POINT($,#392);
#124=VERTEX_POINT($,#393);
#125=VERTEX_POINT($,#397);
#126=VERTEX_POINT($,#403);
#127=VERTEX_POINT($,#404);
#128=VERTEX_POINT($,#413);
#129=VERTEX_POINT($,#414);
#130=VERTEX_POINT($,#423);
#131=VERTEX_POINT($,#424);
#132=VERTEX_POINT($,#433);
#133=VERTEX_POINT($,#434);
#134=VERTEX_POINT($,#443);
#135=VERTEX_POINT($,#452);
#136=VERTEX_POINT($,#454);
#137=VERTEX_POINT($,#458);
#138=VERTEX_POINT($,#462);
#139=VERTEX_POINT($,#466);
#140=VERTEX_POINT($,#468);
#141=VERTEX_POINT($,#471);
#142=VERTEX_POINT($,#480);
#143=EDGE_CURVE($,#120,#120,#109,.T.);
#144=EDGE_CURVE($,#121,#121,#110,.T.);
#145=EDGE_CURVE($,#122,#122,#111,.T.);
#146=EDGE_CURVE($,#123,#124,#37,.T.);
#147=EDGE_CURVE($,#125,#123,#112,.T.);
#148=EDGE_CURVE($,#124,#125,#38,.T.);
#149=EDGE_CURVE($,#126,#127,#39,.T.);
#150=EDGE_CURVE($,#125,#126,#40,.T.);
#151=EDGE_CURVE($,#127,#125,#113,.T.);
#152=EDGE_CURVE($,#128,#129,#41,.T.);
#153=EDGE_CURVE($,#123,#128,#114,.T.);
#154=EDGE_CURVE($,#129,#123,#42,.T.);
#155=EDGE_CURVE($,#130,#131,#43,.T.);
#156=EDGE_CURVE($,#127,#130,#44,.T.);
#157=EDGE_CURVE($,#131,#127,#115,.T.);
#158=EDGE_CURVE($,#132,#133,#45,.T.);
#159=EDGE_CURVE($,#128,#132,#116,.T.);
#160=EDGE_CURVE($,#133,#128,#46,.T.);
#161=EDGE_CURVE($,#134,#132,#47,.T.);
#162=EDGE_CURVE($,#131,#134,#48,.T.);
#163=EDGE_CURVE($,#132,#131,#117,.T.);
#164=EDGE_CURVE($,#135,#133,#13,.T.);
#165=EDGE_CURVE($,#136,#135,#14,.T.);
#166=EDGE_CURVE($,#136,#134,#15,.T.);
#167=EDGE_CURVE($,#137,#129,#16,.T.);
#168=EDGE_CURVE($,#135,#137,#17,.T.);
#169=EDGE_CURVE($,#138,#124,#18,.T.);
#170=EDGE_CURVE($,#137,#138,#19,.T.);
#171=EDGE_CURVE($,#138,#139,#20,.T.);
#172=EDGE_CURVE($,#139,#140,#21,.T.);
#173=EDGE_CURVE($,#140,#136,#22,.T.);
#174=EDGE_CURVE($,#141,#141,#118,.T.);
#175=EDGE_CURVE($,#139,#126,#23,.T.);
#176=EDGE_CURVE($,#140,#130,#24,.T.);
#177=EDGE_CURVE($,#142,#142,#119,.T.);
#178=ORIENTED_EDGE($,*,*,#143,.T.);
#179=ORIENTED_EDGE($,*,*,#144,.T.);
#180=ORIENTED_EDGE($,*,*,#145,.T.);
#181=ORIENTED_EDGE($,*,*,#143,.F.);
#182=ORIENTED_EDGE($,*,*,#144,.F.);
#183=ORIENTED_EDGE($,*,*,#146,.F.);
#184=ORIENTED_EDGE($,*,*,#147,.F.);
#185=ORIENTED_EDGE($,*,*,#148,.F.);
#186=ORIENTED_EDGE($,*,*,#149,.F.);
#187=ORIENTED_EDGE($,*,*,#150,.F.);
#188=ORIENTED_EDGE($,*,*,#151,.F.);
#189=ORIENTED_EDGE($,*,*,#152,.F.);
#190=ORIENTED_EDGE($,*,*,#153,.F.);
#191=ORIENTED_EDGE($,*,*,#154,.F.);
#192=ORIENTED_EDGE($,*,*,#155,.F.);
#193=ORIENTED_EDGE($,*,*,#156,.F.);
#194=ORIENTED_EDGE($,*,*,#157,.F.);
#195=ORIENTED_EDGE($,*,*,#158,.F.);
#196=ORIENTED_EDGE($,*,*,#159,.F.);
#197=ORIENTED_EDGE($,*,*,#160,.F.);
#198=ORIENTED_EDGE($,*,*,#161,.F.);
#199=ORIENTED_EDGE($,*,*,#162,.F.);
#200=ORIENTED_EDGE($,*,*,#163,.F.);
#201=ORIENTED_EDGE($,*,*,#161,.T.);
#202=ORIENTED_EDGE($,*,*,#158,.T.);
#203=ORIENTED_EDGE($,*,*,#164,.F.);
#204=ORIENTED_EDGE($,*,*,#165,.F.);
#205=ORIENTED_EDGE($,*,*,#166,.T.);
#206=ORIENTED_EDGE($,*,*,#160,.T.);
#207=ORIENTED_EDGE($,*,*,#152,.T.);
#208=ORIENTED_EDGE($,*,*,#167,.F.);
#209=ORIENTED_EDGE($,*,*,#168,.F.);
#210=ORIENTED_EDGE($,*,*,#164,.T.);
#211=ORIENTED_EDGE($,*,*,#154,.T.);
#212=ORIENTED_EDGE($,*,*,#146,.T.);
#213=ORIENTED_EDGE($,*,*,#169,.F.);
#214=ORIENTED_EDGE($,*,*,#170,.F.);
#215=ORIENTED_EDGE($,*,*,#167,.T.);
#216=ORIENTED_EDGE($,*,*,#170,.T.);
#217=ORIENTED_EDGE($,*,*,#171,.T.);
#218=ORIENTED_EDGE($,*,*,#172,.T.);
#219=ORIENTED_EDGE($,*,*,#173,.T.);
#220=ORIENTED_EDGE($,*,*,#165,.T.);
#221=ORIENTED_EDGE($,*,*,#168,.T.);
#222=ORIENTED_EDGE($,*,*,#174,.F.);
#223=ORIENTED_EDGE($,*,*,#150,.T.);
#224=ORIENTED_EDGE($,*,*,#175,.F.);
#225=ORIENTED_EDGE($,*,*,#171,.F.);
#226=ORIENTED_EDGE($,*,*,#169,.T.);
#227=ORIENTED_EDGE($,*,*,#148,.T.);
#228=ORIENTED_EDGE($,*,*,#156,.T.);
#229=ORIENTED_EDGE($,*,*,#176,.F.);
#230=ORIENTED_EDGE($,*,*,#172,.F.);
#231=ORIENTED_EDGE($,*,*,#175,.T.);
#232=ORIENTED_EDGE($,*,*,#149,.T.);
#233=ORIENTED_EDGE($,*,*,#162,.T.);
#234=ORIENTED_EDGE($,*,*,#166,.F.);
#235=ORIENTED_EDGE($,*,*,#173,.F.);
#236=ORIENTED_EDGE($,*,*,#176,.T.);
#237=ORIENTED_EDGE($,*,*,#155,.T.);
#238=ORIENTED_EDGE($,*,*,#147,.T.);
#239=ORIENTED_EDGE($,*,*,#153,.T.);
#240=ORIENTED_EDGE($,*,*,#159,.T.);
#241=ORIENTED_EDGE($,*,*,#163,.T.);
#242=ORIENTED_EDGE($,*,*,#157,.T.);
#243=ORIENTED_EDGE($,*,*,#151,.T.);
#244=ORIENTED_EDGE($,*,*,#177,.F.);
#245=ORIENTED_EDGE($,*,*,#174,.T.);
#246=ORIENTED_EDGE($,*,*,#145,.F.);
#247=ORIENTED_EDGE($,*,*,#177,.T.);
#248=CONICAL_SURFACE($,#277,3.61659375000001,44.9962642729674);
#249=CONICAL_SURFACE($,#283,7.00277674973256,60.);
#250=CONICAL_SURFACE($,#285,7.00277674973256,60.);
#251=CONICAL_SURFACE($,#287,7.00277674973256,60.);
#252=CONICAL_SURFACE($,#289,7.00277674973256,60.);
#253=CONICAL_SURFACE($,#291,7.00277674973256,60.);
#254=CONICAL_SURFACE($,#293,7.00277674973256,60.);
#255=ADVANCED_FACE($,(#67,#61),#248,.T.);
#256=ADVANCED_FACE($,(#68,#62),#59,.T.);
#257=ADVANCED_FACE($,(#69),#49,.T.);
#258=ADVANCED_FACE($,(#70),#249,.T.);
#259=ADVANCED_FACE($,(#71),#250,.T.);
#260=ADVANCED_FACE($,(#72),#251,.T.);
#261=ADVANCED_FACE($,(#73),#252,.T.);
#262=ADVANCED_FACE($,(#74),#253,.T.);
#263=ADVANCED_FACE($,(#75),#254,.T.);
#264=ADVANCED_FACE($,(#76),#50,.T.);
#265=ADVANCED_FACE($,(#77),#51,.T.);
#266=ADVANCED_FACE($,(#78),#52,.T.);
#267=ADVANCED_FACE($,(#79,#63),#53,.T.);
#268=ADVANCED_FACE($,(#80),#54,.T.);
#269=ADVANCED_FACE($,(#81),#55,.T.);
#270=ADVANCED_FACE($,(#82),#56,.T.);
#271=ADVANCED_FACE($,(#83),#57,.F.);
#272=ADVANCED_FACE($,(#84,#64),#60,.T.);
#273=ADVANCED_FACE($,(#65,#66),#58,.T.);
#274=CLOSED_SHELL($,(#255,#256,#257,#258,#259,#260,#261,#262,#263,#264,
#265,#266,#267,#268,#269,#270,#271,#272,#273));
#275=MANIFOLD_SOLID_BREP('Solid1',#274);
#276=AXIS2_PLACEMENT_3D('placement',#381,#307,#308);
#277=AXIS2_PLACEMENT_3D($,#382,#309,#310);
#278=AXIS2_PLACEMENT_3D($,#384,#311,#312);
#279=AXIS2_PLACEMENT_3D($,#386,#313,#314);
#280=AXIS2_PLACEMENT_3D($,#387,#315,#316);
#281=AXIS2_PLACEMENT_3D($,#389,#317,#318);
#282=AXIS2_PLACEMENT_3D($,#390,#319,#320);
#283=AXIS2_PLACEMENT_3D($,#391,#321,#322);
#284=AXIS2_PLACEMENT_3D($,#398,#323,#324);
#285=AXIS2_PLACEMENT_3D($,#402,#325,#326);
#286=AXIS2_PLACEMENT_3D($,#411,#327,#328);
#287=AXIS2_PLACEMENT_3D($,#412,#329,#330);
#288=AXIS2_PLACEMENT_3D($,#418,#331,#332);
#289=AXIS2_PLACEMENT_3D($,#422,#333,#334);
#290=AXIS2_PLACEMENT_3D($,#431,#335,#336);
#291=AXIS2_PLACEMENT_3D($,#432,#337,#338);
#292=AXIS2_PLACEMENT_3D($,#438,#339,#340);
#293=AXIS2_PLACEMENT_3D($,#442,#341,#342);
#294=AXIS2_PLACEMENT_3D($,#450,#343,#344);
#295=AXIS2_PLACEMENT_3D($,#451,#345,#346);
#296=AXIS2_PLACEMENT_3D($,#457,#350,#351);
#297=AXIS2_PLACEMENT_3D($,#461,#354,#355);
#298=AXIS2_PLACEMENT_3D($,#465,#358,#359);
#299=AXIS2_PLACEMENT_3D($,#472,#363,#364);
#300=AXIS2_PLACEMENT_3D($,#473,#365,#366);
#301=AXIS2_PLACEMENT_3D($,#475,#368,#369);
#302=AXIS2_PLACEMENT_3D($,#477,#371,#372);
#303=AXIS2_PLACEMENT_3D($,#478,#373,#374);
#304=AXIS2_PLACEMENT_3D($,#479,#375,#376);
#305=AXIS2_PLACEMENT_3D($,#481,#377,#378);
#306=AXIS2_PLACEMENT_3D($,#482,#379,#380);
#307=DIRECTION('axis',(0.,0.,1.));
#308=DIRECTION('refdir',(1.,0.,0.));
#309=DIRECTION('center_axis',(-1.,-1.23970159114274E-016,0.));
#310=DIRECTION('ref_axis',(5.54138502314896E-017,-1.,0.));
#311=DIRECTION('center_axis',(1.,1.23970159114274E-016,0.));
#312=DIRECTION('ref_axis',(0.,-1.,0.));
#313=DIRECTION('center_axis',(-1.,-1.23970159114274E-016,0.));
#314=DIRECTION('ref_axis',(1.23970159114274E-016,-1.,0.));
#315=DIRECTION('center_axis',(1.,1.23970159114274E-016,0.));
#316=DIRECTION('ref_axis',(0.,1.,0.));
#317=DIRECTION('center_axis',(1.,1.23970159114274E-016,0.));
#318=DIRECTION('ref_axis',(0.,1.,0.));
#319=DIRECTION('center_axis',(1.,1.23970159114274E-016,0.));
#320=DIRECTION('ref_axis',(0.,0.,-1.));
#321=DIRECTION('center_axis',(1.,0.,0.));
#322=DIRECTION('ref_axis',(0.,1.,0.));
#323=DIRECTION('center_axis',(-1.,-1.23082307674827E-016,3.19617406904931E-019));
#324=DIRECTION('ref_axis',(0.,1.,0.));
#325=DIRECTION('center_axis',(1.,0.,0.));
#326=DIRECTION('ref_axis',(0.,1.,0.));
#327=DIRECTION('center_axis',(-1.,-1.23082307674827E-016,3.19617406904931E-019));
#328=DIRECTION('ref_axis',(0.,1.,0.));
#329=DIRECTION('center_axis',(1.,0.,0.));
#330=DIRECTION('ref_axis',(0.,1.,0.));
#331=DIRECTION('center_axis',(-1.,-1.23082307674827E-016,3.19617406904931E-019));
#332=DIRECTION('ref_axis',(0.,1.,0.));
#333=DIRECTION('center_axis',(1.,0.,0.));
#334=DIRECTION('ref_axis',(0.,1.,0.));
#335=DIRECTION('center_axis',(-1.,-1.23082307674827E-016,3.19617406904931E-019));
#336=DIRECTION('ref_axis',(0.,1.,0.));
#337=DIRECTION('center_axis',(1.,0.,0.));
#338=DIRECTION('ref_axis',(0.,1.,0.));
#339=DIRECTION('center_axis',(-1.,-1.23082307674827E-016,3.19617406904931E-019));
#340=DIRECTION('ref_axis',(0.,1.,0.));
#341=DIRECTION('center_axis',(1.,0.,0.));
#342=DIRECTION('ref_axis',(0.,1.,0.));
#343=DIRECTION('center_axis',(-1.,-1.23082307674827E-016,3.19617406904931E-019));
#344=DIRECTION('ref_axis',(0.,1.,0.));
#345=DIRECTION('center_axis',(-6.98827315848798E-032,2.95840413289779E-016,
-1.));
#346=DIRECTION('ref_axis',(-1.,0.,0.));
#347=DIRECTION($,(-1.,-2.36217664813863E-016,0.));
#348=DIRECTION($,(-1.23970159114274E-016,1.,2.95840413289779E-016));
#349=DIRECTION($,(-1.,-2.36217664813863E-016,0.));
#350=DIRECTION('center_axis',(-2.04570498551443E-016,0.866025403784439,
-0.5));
#351=DIRECTION('ref_axis',(0.,0.5,0.866025403784439));
#352=DIRECTION($,(-1.,-2.36217664813863E-016,0.));
#353=DIRECTION($,(-6.1985079557137E-017,0.499999999999999,0.866025403784439));
#354=DIRECTION('center_axis',(-2.04570498551443E-016,0.866025403784438,
0.500000000000001));
#355=DIRECTION('ref_axis',(1.,0.,4.09140997102885E-016));
#356=DIRECTION($,(-1.,-2.36217664813863E-016,0.));
#357=DIRECTION($,(6.19850795571372E-017,-0.500000000000001,0.866025403784438));
#358=DIRECTION('center_axis',(1.,1.22897776478913E-016,8.93341661896667E-032));
#359=DIRECTION('ref_axis',(0.,0.,-1.));
#360=DIRECTION($,(1.23970159114274E-016,-1.,-7.39601033224448E-016));
#361=DIRECTION($,(6.1985079557137E-017,-0.499999999999999,-0.866025403784439));
#362=DIRECTION($,(-6.19850795571371E-017,0.5,-0.866025403784438));
#363=DIRECTION('center_axis',(1.,1.23970159114274E-016,0.));
#364=DIRECTION('ref_axis',(0.,1.,0.));
#365=DIRECTION('center_axis',(1.747068289622E-031,-7.39601033224448E-016,
1.));
#366=DIRECTION('ref_axis',(1.,0.,0.));
#367=DIRECTION($,(-1.,-2.36217664813863E-016,0.));
#368=DIRECTION('center_axis',(2.04570498551443E-016,-0.866025403784439,
0.5));
#369=DIRECTION('ref_axis',(0.,-0.5,-0.866025403784439));
#370=DIRECTION($,(-1.,-2.36217664813863E-016,0.));
#371=DIRECTION('center_axis',(2.04570498551443E-016,-0.866025403784438,
-0.5));
#372=DIRECTION('ref_axis',(-1.,0.,-4.09140997102885E-016));
#373=DIRECTION('center_axis',(1.,1.23082307674827E-016,-3.19617406904931E-019));
#374=DIRECTION('ref_axis',(0.,0.,-1.));
#375=DIRECTION('center_axis',(1.,1.23970159114274E-016,0.));
#376=DIRECTION('ref_axis',(0.,1.,0.));
#377=DIRECTION('center_axis',(1.,1.23970159114274E-016,0.));
#378=DIRECTION('ref_axis',(0.,1.,0.));
#379=DIRECTION('center_axis',(1.,1.23970159114274E-016,0.));
#380=DIRECTION('ref_axis',(0.,0.,-1.));
#381=CARTESIAN_POINT('',(0.,0.,0.));
#382=CARTESIAN_POINT('Origin',(79.61654375,7.72402404005023E-015,0.));
#383=CARTESIAN_POINT('',(79.2330875,4.00000000000001,4.89858719658942E-016));
#384=CARTESIAN_POINT('Origin',(79.2330875,7.67648690772437E-015,0.));
#385=CARTESIAN_POINT('',(80.,3.23318750000002,-3.95951272291824E-016));
#386=CARTESIAN_POINT('Origin',(80.,7.7715611723761E-015,0.));
#387=CARTESIAN_POINT('Origin',(69.,6.40788942211908E-015,0.));
#388=CARTESIAN_POINT('',(4.44089209850063E-015,4.,0.));
#389=CARTESIAN_POINT('Origin',(0.,-2.14605155676584E-015,0.));
#390=CARTESIAN_POINT('Origin',(80.,2.00000000000001,0.));
#391=CARTESIAN_POINT('Origin',(-5.00982170819963,0.,0.));
#392=CARTESIAN_POINT('',(-5.30010000000001,5.62916512459884,3.25));
#393=CARTESIAN_POINT('',(-4.71954341639926,3.75277674973253,6.5));
#394=CARTESIAN_POINT('Ctrl Pts',(-5.30010000000001,5.62916512459884,3.25));
#395=CARTESIAN_POINT('Ctrl Pts',(-5.30010000000002,4.7583302491977,4.75833024919769));
#396=CARTESIAN_POINT('Ctrl Pts',(-4.71954341639926,3.75277674973257,6.49999999999998));
#397=CARTESIAN_POINT('',(-5.30010000000001,-4.71844785465692E-015,6.5));
#398=CARTESIAN_POINT('Origin',(-5.30009999999999,0.,0.));
#399=CARTESIAN_POINT('Ctrl Pts',(-4.71954341639926,3.75277674973253,6.5));
#400=CARTESIAN_POINT('Ctrl Pts',(-5.30010000000001,1.74166975080228,6.5));
#401=CARTESIAN_POINT('Ctrl Pts',(-5.30010000000001,-4.71844785465692E-015,
6.5));
#402=CARTESIAN_POINT('Origin',(-5.00982170819963,0.,0.));
#403=CARTESIAN_POINT('',(-4.71954341639926,-3.75277674973254,6.49999999999999));
#404=CARTESIAN_POINT('',(-5.30010000000001,-5.62916512459885,3.24999999999999));
#405=CARTESIAN_POINT('Ctrl Pts',(-4.71954341639926,-3.75277674973259,6.49999999999996));
#406=CARTESIAN_POINT('Ctrl Pts',(-5.30010000000001,-4.75833024919771,4.75833024919768));
#407=CARTESIAN_POINT('Ctrl Pts',(-5.30010000000001,-5.62916512459885,3.24999999999999));
#408=CARTESIAN_POINT('Ctrl Pts',(-5.30010000000001,-4.71844785465692E-015,
6.5));
#409=CARTESIAN_POINT('Ctrl Pts',(-5.30010000000001,-1.74166975080229,6.49999999999999));
#410=CARTESIAN_POINT('Ctrl Pts',(-4.71954341639926,-3.75277674973254,6.49999999999999));
#411=CARTESIAN_POINT('Origin',(-5.30009999999999,0.,0.));
#412=CARTESIAN_POINT('Origin',(-5.00982170819963,0.,0.));
#413=CARTESIAN_POINT('',(-5.30010000000001,5.62916512459885,-3.24999999999999));
#414=CARTESIAN_POINT('',(-4.71954341639926,7.50555349946511,0.));
#415=CARTESIAN_POINT('Ctrl Pts',(-5.30010000000001,5.62916512459885,-3.24999999999999));
#416=CARTESIAN_POINT('Ctrl Pts',(-5.30010000000001,6.49999999999999,-1.74166975080229));
#417=CARTESIAN_POINT('Ctrl Pts',(-4.71954341639926,7.50555349946511,-1.60641015948044E-014));
#418=CARTESIAN_POINT('Origin',(-5.30009999999999,0.,0.));
#419=CARTESIAN_POINT('Ctrl Pts',(-4.71954341639926,7.50555349946512,2.85584028352079E-014));
#420=CARTESIAN_POINT('Ctrl Pts',(-5.30010000000001,6.49999999999999,1.74166975080231));
#421=CARTESIAN_POINT('Ctrl Pts',(-5.30010000000001,5.62916512459884,3.25));
#422=CARTESIAN_POINT('Origin',(-5.00982170819963,0.,0.));
#423=CARTESIAN_POINT('',(-4.71954341639926,-7.50555349946511,2.16493489801906E-014));
#424=CARTESIAN_POINT('',(-5.30010000000001,-5.62916512459885,-3.25));
#425=CARTESIAN_POINT('Ctrl Pts',(-4.71954341639926,-7.50555349946512,-3.21282031896089E-014));
#426=CARTESIAN_POINT('Ctrl Pts',(-5.30010000000001,-6.49999999999999,-1.74166975080231));
#427=CARTESIAN_POINT('Ctrl Pts',(-5.30010000000001,-5.62916512459885,-3.25));
#428=CARTESIAN_POINT('Ctrl Pts',(-5.30010000000001,-5.62916512459885,3.24999999999999));
#429=CARTESIAN_POINT('Ctrl Pts',(-5.30010000000001,-6.49999999999999,1.74166975080231));
#430=CARTESIAN_POINT('Ctrl Pts',(-4.71954341639926,-7.50555349946511,2.67735026580074E-014));
#431=CARTESIAN_POINT('Origin',(-5.30009999999999,0.,0.));
#432=CARTESIAN_POINT('Origin',(-5.00982170819963,0.,0.));
#433=CARTESIAN_POINT('',(-5.30010000000001,1.94289029309402E-015,-6.5));
#434=CARTESIAN_POINT('',(-4.71954341639926,3.75277674973253,-6.5));
#435=CARTESIAN_POINT('Ctrl Pts',(-5.30010000000001,1.94289029309402E-015,
-6.5));
#436=CARTESIAN_POINT('Ctrl Pts',(-5.30010000000001,1.74166975080229,-6.5));
#437=CARTESIAN_POINT('Ctrl Pts',(-4.71954341639926,3.75277674973254,-6.49999999999999));
#438=CARTESIAN_POINT('Origin',(-5.30009999999999,0.,0.));
#439=CARTESIAN_POINT('Ctrl Pts',(-4.71954341639926,3.75277674973258,-6.49999999999997));
#440=CARTESIAN_POINT('Ctrl Pts',(-5.30010000000001,4.7583302491977,-4.75833024919769));
#441=CARTESIAN_POINT('Ctrl Pts',(-5.30010000000001,5.62916512459885,-3.24999999999999));
#442=CARTESIAN_POINT('Origin',(-5.00982170819963,0.,0.));
#443=CARTESIAN_POINT('',(-4.71954341639926,-3.75277674973258,-6.49999999999997));
#444=CARTESIAN_POINT('Ctrl Pts',(-4.71954341639926,-3.75277674973253,-6.5));
#445=CARTESIAN_POINT('Ctrl Pts',(-5.30010000000001,-1.74166975080229,-6.5));
#446=CARTESIAN_POINT('Ctrl Pts',(-5.30010000000001,1.94289029309402E-015,
-6.5));
#447=CARTESIAN_POINT('Ctrl Pts',(-5.30010000000001,-5.62916512459885,-3.25));
#448=CARTESIAN_POINT('Ctrl Pts',(-5.30010000000001,-4.7583302491977,-4.75833024919769));
#449=CARTESIAN_POINT('Ctrl Pts',(-4.71954341639926,-3.75277674973258,-6.49999999999997));
#450=CARTESIAN_POINT('Origin',(-5.30009999999999,0.,0.));
#451=CARTESIAN_POINT('Origin',(-0.600099999999993,-3.75277674973256,-6.5));
#452=CARTESIAN_POINT('',(-0.600099999999994,3.75277674973256,-6.49999999999999));
#453=CARTESIAN_POINT($,(-0.600099999999994,3.75277674973256,-6.49999999999999));
#454=CARTESIAN_POINT('',(-0.600099999999993,-3.75277674973256,-6.5));
#455=CARTESIAN_POINT($,(-0.600099999999993,-3.75277674973256,-6.5));
#456=CARTESIAN_POINT($,(-0.600099999999993,-3.75277674973256,-6.5));
#457=CARTESIAN_POINT('Origin',(-0.600099999999994,3.75277674973256,-6.49999999999999));
#458=CARTESIAN_POINT('',(-0.600099999999995,7.50555349946513,6.85887371324728E-015));
#459=CARTESIAN_POINT($,(-0.600099999999995,7.50555349946513,6.85887371324728E-015));
#460=CARTESIAN_POINT($,(-0.600099999999994,3.75277674973256,-6.49999999999999));
#461=CARTESIAN_POINT('Origin',(-0.600099999999995,7.50555349946513,6.85887371324728E-015));
#462=CARTESIAN_POINT('',(-0.600099999999994,3.75277674973256,6.5));
#463=CARTESIAN_POINT($,(-0.600099999999994,3.75277674973256,6.5));
#464=CARTESIAN_POINT($,(-0.600099999999995,7.50555349946513,6.85887371324728E-015));
#465=CARTESIAN_POINT('Origin',(-0.600099999999994,-5.55111512312578E-016,
2.08166817117217E-016));
#466=CARTESIAN_POINT('',(-0.600099999999993,-3.75277674973257,6.49999999999999));
#467=CARTESIAN_POINT($,(-0.600099999999994,3.75277674973256,6.5));
#468=CARTESIAN_POINT('',(-0.600099999999993,-7.50555349946513,-3.96580077684799E-015));
#469=CARTESIAN_POINT($,(-0.600099999999993,-3.75277674973257,6.49999999999999));
#470=CARTESIAN_POINT($,(-0.600099999999993,-7.50555349946513,-3.96580077684799E-015));
#471=CARTESIAN_POINT('',(-0.600099999999995,5.815,0.));
#472=CARTESIAN_POINT('Origin',(-0.600100000000001,-2.22044604925031E-015,
0.));
#473=CARTESIAN_POINT('Origin',(-0.600099999999994,3.75277674973256,6.5));
#474=CARTESIAN_POINT($,(-0.600099999999993,-3.75277674973257,6.49999999999999));
#475=CARTESIAN_POINT('Origin',(-0.600099999999993,-3.75277674973257,6.49999999999999));
#476=CARTESIAN_POINT($,(-0.600099999999993,-7.50555349946513,-3.96580077684799E-015));
#477=CARTESIAN_POINT('Origin',(-0.600099999999993,-7.50555349946513,-3.96580077684799E-015));
#478=CARTESIAN_POINT('Origin',(-5.30009999999999,-1.65692375644815E-015,
-2.77555756156289E-016));
#479=CARTESIAN_POINT('Origin',(-0.300049999999992,-2.18324880300808E-015,
0.));
#480=CARTESIAN_POINT('',(4.5102810375397E-015,5.815,0.));
#481=CARTESIAN_POINT('Origin',(8.88178419700125E-015,-2.14605155676584E-015,
0.));
#482=CARTESIAN_POINT('Origin',(4.47558656802016E-015,4.9075,0.));
#483=UNCERTAINTY_MEASURE_WITH_UNIT(LENGTH_MEASURE(0.01),#485,
'DISTANCE_ACCURACY_VALUE',
'Maximum model space distance between geometric entities at asserted c
onnectivities');
#484=(
GEOMETRIC_REPRESENTATION_CONTEXT(3)
GLOBAL_UNCERTAINTY_ASSIGNED_CONTEXT((#483))
GLOBAL_UNIT_ASSIGNED_CONTEXT((#485,#488,#486))
REPRESENTATION_CONTEXT('','3D')
);
#485=(
LENGTH_UNIT()
NAMED_UNIT(*)
SI_UNIT(.MILLI.,.METRE.)
);
#486=(
NAMED_UNIT(*)
SI_UNIT($,.STERADIAN.)
SOLID_ANGLE_UNIT()
);
#487=DIMENSIONAL_EXPONENTS(0.,0.,0.,0.,0.,0.,0.);
#488=(
CONVERSION_BASED_UNIT('degree',#490)
NAMED_UNIT(#487)
PLANE_ANGLE_UNIT()
);
#489=(
NAMED_UNIT(*)
PLANE_ANGLE_UNIT()
SI_UNIT($,.RADIAN.)
);
#490=PLANE_ANGLE_MEASURE_WITH_UNIT(PLANE_ANGLE_MEASURE(0.01745329252),#489);
#491=SHAPE_DEFINITION_REPRESENTATION(#492,#493);
#492=PRODUCT_DEFINITION_SHAPE('',$,#495);
#493=SHAPE_REPRESENTATION('',(#276),#484);
#494=PRODUCT_DEFINITION_CONTEXT('3D Mechanical Parts',#498,'design');
#495=PRODUCT_DEFINITION('ISO 4014 - M8 x 80ISO','ISO 4014 - M8 x 80ISO',
#496,#494);
#496=PRODUCT_DEFINITION_FORMATION('',$,#500);
#497=APPLICATION_PROTOCOL_DEFINITION('international standard',
'automotive_design',2009,#498);
#498=APPLICATION_CONTEXT(
'Core Data for Automotive Mechanical Design Process');
#499=PRODUCT_CONTEXT('3D Mechanical Parts',#498,'mechanical');
#500=PRODUCT('ISO 4014 - M8 x 80ISO','ISO 4014 - M8 x 80ISO',$,(#499));
#501=PRESENTATION_STYLE_ASSIGNMENT((#502));
#502=SURFACE_STYLE_USAGE(.BOTH.,#503);
#503=SURFACE_SIDE_STYLE($,(#504));
#504=SURFACE_STYLE_FILL_AREA(#505);
#505=FILL_AREA_STYLE($,(#506));
#506=FILL_AREA_STYLE_COLOUR($,#507);
#507=COLOUR_RGB('',0.745098039215686,0.737254901960784,0.729411764705882);
ENDSEC;
END-ISO-10303-21;
