  0
SECTION
  2
HEADER
  9
$ACADVER
  1
AC1014
  9
$HANDSEED
  5
FFFF
  9
$MEASUREMENT
 70
     1
  0
ENDSEC
  0
SECTION
  2
TABLES
  0
TABLE
  2
VPORT
  5
8
330
0
100
AcDbSymbolTable
 70
     4
  0
VPORT
  5
2E
330
8
100
AcDbSymbolTableRecord
100
AcDbViewportTableRecord
  2
*ACTIVE
 70
     0
 10
0.0
 20
0.0
 11
1.0
 21
1.0
 12
210.0
 22
148.5
 13
0.0
 23
0.0
 14
10.0
 24
10.0
 15
10.0
 25
10.0
 16
0.0
 26
0.0
 36
1.0
 17
0.0
 27
0.0
 37
0.0
 40
341.0
 41
1.24
 42
50.0
 43
0.0
 44
0.0
 50
0.0
 51
0.0
 71
     0
 72
   100
 73
     1
 74
     3
 75
     0
 76
     0
 77
     0
 78
     0
  0
ENDTAB
  0
TABLE
  2
LTYPE
  5
5
330
0
100
AcDbSymbolTable
 70
     1
  0
LTYPE
  5
14
330
5
100
AcDbSymbolTableRecord
100
AcDbLinetypeTableRecord
  2
BYBLOCK
 70
     0
  3

 72
    65
 73
     0
 40
0.0
  0
LTYPE
  5
15
330
5
100
AcDbSymbolTableRecord
100
AcDbLinetypeTableRecord
  2
BYLAYER
 70
     0
  3

 72
    65
 73
     0
 40
0.0
  0
LTYPE
  5
16
330
5
100
AcDbSymbolTableRecord
100
AcDbLinetypeTableRecord
  2
CONTINUOUS
 70
     0
  3
Solid line
 72
    65
 73
     0
 40
0.0
  0
ENDTAB
  0
TABLE
  2
LAYER
  5
2
100
AcDbSymbolTable
 70
3
  0
LAYER
  5
50
100
AcDbSymbolTableRecord
100
AcDbLayerTableRecord
  2
0
 70
0
  6
CONTINUOUS
  0
LAYER
  5
51
100
AcDbSymbolTableRecord
100
AcDbLayerTableRecord
  2
Layer_1
 70
0
  6
CONTINUOUS
  0
LAYER
  5
52
100
AcDbSymbolTableRecord
100
AcDbLayerTableRecord
  2
Layer_2
 70
0
  6
CONTINUOUS
  0
ENDTAB
  0
TABLE
  2
STYLE
  5
3
330
0
100
AcDbSymbolTable
 70
     1
  0
STYLE
  5
11
330
3
100
AcDbSymbolTableRecord
100
AcDbTextStyleTableRecord
  2
STANDARD
 70
     0
 40
0.0
 41
1.0
 50
0.0
 71
     0
 42
2.5
  3
txt
  4

  0
ENDTAB
  0
TABLE
  2
VIEW
  5
6
330
0
100
AcDbSymbolTable
 70
     0
  0
ENDTAB
  0
TABLE
  2
UCS
  5
7
330
0
100
AcDbSymbolTable
 70
     0
  0
ENDTAB
  0
TABLE
  2
APPID
  5
9
330
0
100
AcDbSymbolTable
 70
     2
  0
APPID
  5
12
330
9
100
AcDbSymbolTableRecord
100
AcDbRegAppTableRecord
  2
ACAD
 70
     0
  0
ENDTAB
  0
TABLE
  2
DIMSTYLE
  5
A
330
0
100
AcDbSymbolTable
 70
     1
  0
DIMSTYLE
105
27
330
A
100
AcDbSymbolTableRecord
100
AcDbDimStyleTableRecord
  2
ISO-25
 70
     0
  3

  4

  5

  6

  7

 40
1.0
 41
2.5
 42
0.625
 43
3.75
 44
1.25
 45
0.0
 46
0.0
 47
0.0
 48
0.0
140
2.5
141
2.5
142
0.0
143
0.03937007874016
144
1.0
145
0.0
146
1.0
147
0.625
 71
     0
 72
     0
 73
     0
 74
     0
 75
     0
 76
     0
 77
     1
 78
     8
170
     0
171
     3
172
     1
173
     0
174
     0
175
     0
176
     0
177
     0
178
     0
270
     2
271
     2
272
     2
273
     2
274
     3
340
11
275
     0
280
     0
281
     0
282
     0
283
     0
284
     8
285
     0
286
     0
287
     3
288
     0
  0
ENDTAB
  0
TABLE
  2
BLOCK_RECORD
  5
1
330
0
100
AcDbSymbolTable
 70
     1
  0
BLOCK_RECORD
  5
1F
330
1
100
AcDbSymbolTableRecord
100
AcDbBlockTableRecord
  2
*MODEL_SPACE
  0
BLOCK_RECORD
  5
1B
330
1
100
AcDbSymbolTableRecord
100
AcDbBlockTableRecord
  2
*PAPER_SPACE
  0
ENDTAB
  0
ENDSEC
  0
SECTION
  2
BLOCKS
  0
BLOCK
  5
20
330
1F
100
AcDbEntity
  8
0
100
AcDbBlockBegin
  2
*MODEL_SPACE
 70
     0
 10
0.0
 20
0.0
 30
0.0
  3
*MODEL_SPACE
  1

  0
ENDBLK
  5
21
330
1F
100
AcDbEntity
  8
0
100
AcDbBlockEnd
  0
BLOCK
  5
1C
330
1B
100
AcDbEntity
 67
     1
  8
0
100
AcDbBlockBegin
  2
*PAPER_SPACE
  1

  0
ENDBLK
  5
1D
330
1B
100
AcDbEntity
 67
     1
  8
0
100
AcDbBlockEnd
  0
ENDSEC
  0
SECTION
  2
ENTITIES
  0
SPLINE
  5
100
100
AcDbEntity
  8
Layer_2
 62
7
100
AcDbSpline
 70
8
 71
3
 72
8
 73
4
 74
0
 40
0
 40
0
 40
0
 40
0
 40
1
 40
1
 40
1
 40
1
 10
903.567297
 20
-1.343739
 30
0.0
 10
903.685195
 20
-1.299898
 30
0.0
 10
903.569943
 20
2.258563
 30
0.0
 10
903.433656
 20
2.741427
 30
0.0
  0
SPLINE
  5
101
100
AcDbEntity
  8
Layer_2
 62
7
100
AcDbSpline
 70
8
 71
3
 72
8
 73
4
 74
0
 40
0
 40
0
 40
0
 40
0
 40
1
 40
1
 40
1
 40
1
 10
903.433656
 20
2.741427
 30
0.0
 10
903.332982
 20
3.101102
 30
0.0
 10
902.703035
 20
3.597460
 30
0.0
 10
901.358105
 20
4.376737
 30
0.0
  0
SPLINE
  5
102
100
AcDbEntity
  8
Layer_2
 62
7
100
AcDbSpline
 70
8
 71
3
 72
8
 73
4
 74
0
 40
0
 40
0
 40
0
 40
0
 40
1
 40
1
 40
1
 40
1
 10
901.358105
 20
4.376737
 30
0.0
 10
898.512247
 20
6.025780
 30
0.0
 10
880.693353
 20
16.436710
 30
0.0
 10
877.009560
 20
18.602590
 30
0.0
  0
SPLINE
  5
103
100
AcDbEntity
  8
Layer_2
 62
7
100
AcDbSpline
 70
8
 71
3
 72
8
 73
4
 74
0
 40
0
 40
0
 40
0
 40
0
 40
1
 40
1
 40
1
 40
1
 10
877.009560
 20
18.602590
 30
0.0
 10
875.262728
 20
19.629702
 30
0.0
 10
873.301160
 20
20.773760
 30
0.0
 10
872.650549
 20
21.145024
 30
0.0
  0
SPLINE
  5
104
100
AcDbEntity
  8
Layer_2
 62
7
100
AcDbSpline
 70
8
 71
3
 72
8
 73
4
 74
0
 40
0
 40
0
 40
0
 40
0
 40
1
 40
1
 40
1
 40
1
 10
872.650549
 20
21.145024
 30
0.0
 10
871.999965
 20
21.516261
 30
0.0
 10
870.548223
 20
22.362557
 30
0.0
 10
869.424485
 20
23.025603
 30
0.0
  0
SPLINE
  5
105
100
AcDbEntity
  8
Layer_2
 62
7
100
AcDbSpline
 70
8
 71
3
 72
8
 73
4
 74
0
 40
0
 40
0
 40
0
 40
0
 40
1
 40
1
 40
1
 40
1
 10
869.424485
 20
23.025603
 30
0.0
 10
868.300720
 20
23.688701
 30
0.0
 10
865.929603
 20
25.076679
 30
0.0
 10
864.155308
 20
26.110115
 30
0.0
  0
SPLINE
  5
106
100
AcDbEntity
  8
Layer_2
 62
7
100
AcDbSpline
 70
8
 71
3
 72
8
 73
4
 74
0
 40
0
 40
0
 40
0
 40
0
 40
1
 40
1
 40
1
 40
1
 10
864.155308
 20
26.110115
 30
0.0
 10
852.418391
 20
32.945361
 30
0.0
 10
851.291001
 20
33.639099
 30
0.0
 10
839.529478
 20
41.262538
 30
0.0
  0
SPLINE
  5
107
100
AcDbEntity
  8
Layer_2
 62
7
100
AcDbSpline
 70
8
 71
3
 72
8
 73
4
 74
0
 40
0
 40
0
 40
0
 40
0
 40
1
 40
1
 40
1
 40
1
 10
839.529478
 20
41.262538
 30
0.0
 10
837.577700
 20
42.527643
 30
0.0
 10
833.609691
 20
45.091324
 30
0.0
 10
830.711445
 20
46.959546
 30
0.0
  0
SPLINE
  5
108
100
AcDbEntity
  8
Layer_2
 62
7
100
AcDbSpline
 70
8
 71
3
 72
8
 73
4
 74
0
 40
0
 40
0
 40
0
 40
0
 40
1
 40
1
 40
1
 40
1
 10
830.711445
 20
46.959546
 30
0.0
 10
827.813464
 20
48.827743
 30
0.0
 10
821.667722
 20
52.794138
 30
0.0
 10
817.054447
 20
55.773611
 30
0.0
  0
SPLINE
  5
109
100
AcDbEntity
  8
Layer_2
 62
7
100
AcDbSpline
 70
8
 71
3
 72
8
 73
4
 74
0
 40
0
 40
0
 40
0
 40
0
 40
1
 40
1
 40
1
 40
1
 10
817.054447
 20
55.773611
 30
0.0
 10
812.441172
 20
58.753084
 30
0.0
 10
805.618097
 20
63.157338
 30
0.0
 10
801.891970
 20
65.561078
 30
0.0
  0
SPLINE
  5
10a
100
AcDbEntity
  8
Layer_2
 62
7
100
AcDbSpline
 70
8
 71
3
 72
8
 73
4
 74
0
 40
0
 40
0
 40
0
 40
0
 40
1
 40
1
 40
1
 40
1
 10
801.891970
 20
65.561078
 30
0.0
 10
798.165843
 20
67.964659
 30
0.0
 10
794.342878
 20
70.432851
 30
0.0
 10
793.396728
 20
71.045890
 30
0.0
  0
SPLINE
  5
10b
100
AcDbEntity
  8
Layer_2
 62
7
100
AcDbSpline
 70
8
 71
3
 72
8
 73
4
 74
0
 40
0
 40
0
 40
0
 40
0
 40
1
 40
1
 40
1
 40
1
 10
793.396728
 20
71.045890
 30
0.0
 10
792.450578
 20
71.658930
 30
0.0
 10
789.063118
 20
73.844917
 30
0.0
 10
785.869333
 20
75.903111
 30
0.0
  0
SPLINE
  5
10c
100
AcDbEntity
  8
Layer_2
 62
7
100
AcDbSpline
 70
8
 71
3
 72
8
 73
4
 74
0
 40
0
 40
0
 40
0
 40
0
 40
1
 40
1
 40
1
 40
1
 10
785.869333
 20
75.903111
 30
0.0
 10
782.675547
 20
77.961315
 30
0.0
 10
777.642908
 20
81.473659
 30
0.0
 10
774.685660
 20
83.707536
 30
0.0
  0
SPLINE
  5
10d
100
AcDbEntity
  8
Layer_2
 62
7
100
AcDbSpline
 70
8
 71
3
 72
8
 73
4
 74
0
 40
0
 40
0
 40
0
 40
0
 40
1
 40
1
 40
1
 40
1
 10
774.685660
 20
83.707536
 30
0.0
 10
771.728412
 20
85.941651
 30
0.0
 10
767.276533
 20
89.304532
 30
0.0
 10
764.792360
 20
91.180957
 30
0.0
  0
SPLINE
  5
10e
100
AcDbEntity
  8
Layer_2
 62
7
100
AcDbSpline
 70
8
 71
3
 72
8
 73
4
 74
0
 40
0
 40
0
 40
0
 40
0
 40
1
 40
1
 40
1
 40
1
 10
764.792360
 20
91.180957
 30
0.0
 10
762.308293
 20
93.057170
 30
0.0
 10
758.194974
 20
96.169411
 30
0.0
 10
755.651799
 20
98.097165
 30
0.0
  0
SPLINE
  5
10f
100
AcDbEntity
  8
Layer_2
 62
7
100
AcDbSpline
 70
8
 71
3
 72
8
 73
4
 74
0
 40
0
 40
0
 40
0
 40
0
 40
1
 40
1
 40
1
 40
1
 10
755.651799
 20
98.097165
 30
0.0
 10
753.108571
 20
100.024814
 30
0.0
 10
748.421795
 20
103.572453
 30
0.0
 10
745.236741
 20
105.980955
 30
0.0
  0
SPLINE
  5
110
100
AcDbEntity
  8
Layer_2
 62
7
100
AcDbSpline
 70
8
 71
3
 72
8
 73
4
 74
0
 40
0
 40
0
 40
0
 40
0
 40
1
 40
1
 40
1
 40
1
 10
745.236741
 20
105.980955
 30
0.0
 10
739.222762
 20
110.528613
 30
0.0
 10
734.627743
 20
114.007620
 30
0.0
 10
726.939745
 20
119.834538
 30
0.0
  0
SPLINE
  5
111
100
AcDbEntity
  8
Layer_2
 62
7
100
AcDbSpline
 70
8
 71
3
 72
8
 73
4
 74
0
 40
0
 40
0
 40
0
 40
0
 40
1
 40
1
 40
1
 40
1
 10
726.939745
 20
119.834538
 30
0.0
 10
724.455651
 20
121.717313
 30
0.0
 10
720.940318
 20
124.373995
 30
0.0
 10
719.127658
 20
125.738451
 30
0.0
  0
SPLINE
  5
112
100
AcDbEntity
  8
Layer_2
 62
7
100
AcDbSpline
 70
8
 71
3
 72
8
 73
4
 74
0
 40
0
 40
0
 40
0
 40
0
 40
1
 40
1
 40
1
 40
1
 10
719.127658
 20
125.738451
 30
0.0
 10
716.387103
 20
127.801486
 30
0.0
 10
711.107343
 20
132.395103
 30
0.0
 10
704.887518
 20
138.128624
 30
0.0
  0
SPLINE
  5
113
100
AcDbEntity
  8
Layer_2
 62
7
100
AcDbSpline
 70
8
 71
3
 72
8
 73
4
 74
0
 40
0
 40
0
 40
0
 40
0
 40
1
 40
1
 40
1
 40
1
 10
704.887518
 20
138.128624
 30
0.0
 10
704.232806
 20
138.732085
 30
0.0
 10
702.300263
 20
140.484024
 30
0.0
 10
700.593066
 20
142.021703
 30
0.0
  0
SPLINE
  5
114
100
AcDbEntity
  8
Layer_2
 62
7
100
AcDbSpline
 70
8
 71
3
 72
8
 73
4
 74
0
 40
0
 40
0
 40
0
 40
0
 40
1
 40
1
 40
1
 40
1
 10
700.593066
 20
142.021703
 30
0.0
 10
698.885868
 20
143.559382
 30
0.0
 10
696.853180
 20
145.398315
 30
0.0
 10
696.076364
 20
146.108192
 30
0.0
  0
SPLINE
  5
115
100
AcDbEntity
  8
Layer_2
 62
7
100
AcDbSpline
 70
8
 71
3
 72
8
 73
4
 74
0
 40
0
 40
0
 40
0
 40
0
 40
1
 40
1
 40
1
 40
1
 10
696.076364
 20
146.108192
 30
0.0
 10
694.711193
 20
147.355359
 30
0.0
 10
692.945814
 20
148.957490
 30
0.0
 10
684.463272
 20
156.647340
 30
0.0
  0
SPLINE
  5
116
100
AcDbEntity
  8
Layer_2
 62
7
100
AcDbSpline
 70
8
 71
3
 72
8
 73
4
 74
0
 40
0
 40
0
 40
0
 40
0
 40
1
 40
1
 40
1
 40
1
 10
684.463272
 20
156.647340
 30
0.0
 10
682.098717
 20
158.790942
 30
0.0
 10
680.414618
 20
160.482476
 30
0.0
 10
680.311960
 20
160.816380
 30
0.0
  0
SPLINE
  5
117
100
AcDbEntity
  8
Layer_2
 62
7
100
AcDbSpline
 70
8
 71
3
 72
8
 73
4
 74
0
 40
0
 40
0
 40
0
 40
0
 40
1
 40
1
 40
1
 40
1
 10
680.311960
 20
160.816380
 30
0.0
 10
680.217159
 20
161.125466
 30
0.0
 10
680.197078
 20
163.217209
 30
0.0
 10
680.267324
 20
165.464845
 30
0.0
  0
SPLINE
  5
118
100
AcDbEntity
  8
Layer_2
 62
7
100
AcDbSpline
 70
8
 71
3
 72
8
 73
4
 74
0
 40
0
 40
0
 40
0
 40
0
 40
1
 40
1
 40
1
 40
1
 10
680.267324
 20
165.464845
 30
0.0
 10
680.337598
 20
167.712348
 30
0.0
 10
680.436049
 20
170.857847
 30
0.0
 10
680.486135
 20
172.454607
 30
0.0
  0
SPLINE
  5
119
100
AcDbEntity
  8
Layer_2
 62
7
100
AcDbSpline
 70
8
 71
3
 72
8
 73
4
 74
0
 40
0
 40
0
 40
0
 40
0
 40
1
 40
1
 40
1
 40
1
 10
680.486135
 20
172.454607
 30
0.0
 10
680.747464
 20
180.790040
 30
0.0
 10
680.829352
 20
183.509957
 30
0.0
 10
681.026784
 20
190.413201
 30
0.0
  0
SPLINE
  5
11a
100
AcDbEntity
  8
Layer_2
 62
7
100
AcDbSpline
 70
8
 71
3
 72
8
 73
4
 74
0
 40
0
 40
0
 40
0
 40
0
 40
1
 40
1
 40
1
 40
1
 10
681.026784
 20
190.413201
 30
0.0
 10
681.233530
 20
197.642676
 30
0.0
 10
681.315974
 20
200.381113
 30
0.0
 10
681.561005
 20
208.156688
 30
0.0
  0
SPLINE
  5
11b
100
AcDbEntity
  8
Layer_2
 62
7
100
AcDbSpline
 70
8
 71
3
 72
8
 73
4
 74
0
 40
0
 40
0
 40
0
 40
0
 40
1
 40
1
 40
1
 40
1
 10
681.561005
 20
208.156688
 30
0.0
 10
681.622494
 20
210.108467
 30
0.0
 10
681.769470
 20
215.092740
 30
0.0
 10
681.887606
 20
219.232940
 30
0.0
  0
SPLINE
  5
11c
100
AcDbEntity
  8
Layer_2
 62
7
100
AcDbSpline
 70
8
 71
3
 72
8
 73
4
 74
0
 40
0
 40
0
 40
0
 40
0
 40
1
 40
1
 40
1
 40
1
 10
681.887606
 20
219.232940
 30
0.0
 10
682.091944
 20
226.395740
 30
0.0
 10
682.164202
 20
228.799745
 30
0.0
 10
682.420874
 20
236.976428
 30
0.0
  0
SPLINE
  5
11d
100
AcDbEntity
  8
Layer_2
 62
7
100
AcDbSpline
 70
8
 71
3
 72
8
 73
4
 74
0
 40
0
 40
0
 40
0
 40
0
 40
1
 40
1
 40
1
 40
1
 10
682.420874
 20
236.976428
 30
0.0
 10
682.482125
 20
238.928206
 30
0.0
 10
682.628413
 20
243.912480
 30
0.0
 10
682.745968
 20
248.052680
 30
0.0
  0
SPLINE
  5
11e
100
AcDbEntity
  8
Layer_2
 62
7
100
AcDbSpline
 70
8
 71
3
 72
8
 73
4
 74
0
 40
0
 40
0
 40
0
 40
0
 40
1
 40
1
 40
1
 40
1
 10
682.745968
 20
248.052680
 30
0.0
 10
682.863469
 20
252.192880
 30
0.0
 10
683.006688
 20
256.160836
 30
0.0
 10
683.064208
 20
256.870713
 30
0.0
  0
SPLINE
  5
11f
100
AcDbEntity
  8
Layer_2
 62
7
100
AcDbSpline
 70
8
 71
3
 72
8
 73
4
 74
0
 40
0
 40
0
 40
0
 40
0
 40
1
 40
1
 40
1
 40
1
 10
683.064208
 20
256.870713
 30
0.0
 10
683.121702
 20
257.580458
 30
0.0
 10
683.218355
 20
259.903103
 30
0.0
 10
683.278997
 20
262.032470
 30
0.0
  0
SPLINE
  5
120
100
AcDbEntity
  8
Layer_2
 62
7
100
AcDbSpline
 70
8
 71
3
 72
8
 73
4
 74
0
 40
0
 40
0
 40
0
 40
0
 40
1
 40
1
 40
1
 40
1
 10
683.278997
 20
262.032470
 30
0.0
 10
683.383164
 20
265.691922
 30
0.0
 10
683.526171
 20
269.562511
 30
0.0
 10
684.035864
 20
282.518099
 30
0.0
  0
SPLINE
  5
121
100
AcDbEntity
  8
Layer_2
 62
7
100
AcDbSpline
 70
8
 71
3
 72
8
 73
4
 74
0
 40
0
 40
0
 40
0
 40
0
 40
1
 40
1
 40
1
 40
1
 10
684.035864
 20
282.518099
 30
0.0
 10
684.155694
 20
285.563982
 30
0.0
 10
684.302432
 20
289.556280
 30
0.0
 10
684.361963
 20
291.389842
 30
0.0
  0
SPLINE
  5
122
100
AcDbEntity
  8
Layer_2
 62
7
100
AcDbSpline
 70
8
 71
3
 72
8
 73
4
 74
0
 40
0
 40
0
 40
0
 40
0
 40
1
 40
1
 40
1
 40
1
 10
684.361963
 20
291.389842
 30
0.0
 10
684.421468
 20
293.223326
 30
0.0
 10
684.562703
 20
296.901113
 30
0.0
 10
684.675812
 20
299.562557
 30
0.0
  0
SPLINE
  5
123
100
AcDbEntity
  8
Layer_2
 62
7
100
AcDbSpline
 70
8
 71
3
 72
8
 73
4
 74
0
 40
0
 40
0
 40
0
 40
0
 40
1
 40
1
 40
1
 40
1
 10
684.675812
 20
299.562557
 30
0.0
 10
684.788921
 20
302.224001
 30
0.0
 10
684.935474
 20
306.385632
 30
0.0
 10
685.001461
 20
308.810538
 30
0.0
  0
SPLINE
  5
124
100
AcDbEntity
  8
Layer_2
 62
7
100
AcDbSpline
 70
8
 71
3
 72
8
 73
4
 74
0
 40
0
 40
0
 40
0
 40
0
 40
1
 40
1
 40
1
 40
1
 10
685.001461
 20
308.810538
 30
0.0
 10
685.067448
 20
311.235471
 30
0.0
 10
685.164947
 20
313.655059
 30
0.0
 10
685.218128
 20
314.187401
 30
0.0
  0
SPLINE
  5
125
100
AcDbEntity
  8
Layer_2
 62
7
100
AcDbSpline
 70
8
 71
3
 72
8
 73
4
 74
0
 40
0
 40
0
 40
0
 40
0
 40
1
 40
1
 40
1
 40
1
 10
685.218128
 20
314.187401
 30
0.0
 10
685.271257
 20
314.719716
 30
0.0
 10
685.370740
 20
317.187775
 30
0.0
 10
685.439135
 20
319.671683
 30
0.0
  0
SPLINE
  5
126
100
AcDbEntity
  8
Layer_2
 62
7
100
AcDbSpline
 70
8
 71
3
 72
8
 73
4
 74
0
 40
0
 40
0
 40
0
 40
0
 40
1
 40
1
 40
1
 40
1
 10
685.439135
 20
319.671683
 30
0.0
 10
685.507530
 20
322.155777
 30
0.0
 10
685.642335
 20
326.075394
 30
0.0
 10
685.738643
 20
328.382031
 30
0.0
  0
SPLINE
  5
127
100
AcDbEntity
  8
Layer_2
 62
7
100
AcDbSpline
 70
8
 71
3
 72
8
 73
4
 74
0
 40
0
 40
0
 40
0
 40
0
 40
1
 40
1
 40
1
 40
1
 10
685.738643
 20
328.382031
 30
0.0
 10
685.834951
 20
330.688669
 30
0.0
 10
685.901944
 20
333.205121
 30
0.0
 10
685.887471
 20
333.974000
 30
0.0
  0
SPLINE
  5
128
100
AcDbEntity
  8
Layer_2
 62
7
100
AcDbSpline
 70
8
 71
3
 72
8
 73
4
 74
0
 40
0
 40
0
 40
0
 40
0
 40
1
 40
1
 40
1
 40
1
 10
684.678378
 20
335.396045
 30
0.0
 10
684.027794
 20
335.409285
 30
0.0
 10
681.559735
 20
335.485850
 30
0.0
 10
679.194095
 20
335.566196
 30
0.0
  0
SPLINE
  5
129
100
AcDbEntity
  8
Layer_2
 62
7
100
AcDbSpline
 70
8
 71
3
 72
8
 73
4
 74
0
 40
0
 40
0
 40
0
 40
0
 40
1
 40
1
 40
1
 40
1
 10
679.194095
 20
335.566196
 30
0.0
 10
676.828297
 20
335.646542
 30
0.0
 10
673.489414
 20
335.755958
 30
0.0
 10
671.774120
 20
335.809343
 30
0.0
  0
SPLINE
  5
12a
100
AcDbEntity
  8
Layer_2
 62
7
100
AcDbSpline
 70
8
 71
3
 72
8
 73
4
 74
0
 40
0
 40
0
 40
0
 40
0
 40
1
 40
1
 40
1
 40
1
 10
671.774120
 20
335.809343
 30
0.0
 10
670.058932
 20
335.862728
 30
0.0
 10
667.494220
 20
335.958100
 30
0.0
 10
666.074730
 20
336.021282
 30
0.0
  0
SPLINE
  5
12b
100
AcDbEntity
  8
Layer_2
 62
7
100
AcDbSpline
 70
8
 71
3
 72
8
 73
4
 74
0
 40
0
 40
0
 40
0
 40
0
 40
1
 40
1
 40
1
 40
1
 10
654.030791
 20
327.504125
 30
0.0
 10
643.892223
 20
318.255879
 30
0.0
 10
643.827135
 20
318.196877
 30
0.0
 10
633.268143
 20
308.584301
 30
0.0
  0
SPLINE
  5
12c
100
AcDbEntity
  8
Layer_2
 62
7
100
AcDbSpline
 70
8
 71
3
 72
8
 73
4
 74
0
 40
0
 40
0
 40
0
 40
0
 40
1
 40
1
 40
1
 40
1
 10
633.268143
 20
308.584301
 30
0.0
 10
629.428245
 20
305.088626
 30
0.0
 10
625.028225
 20
301.079130
 30
0.0
 10
623.490466
 20
299.674722
 30
0.0
  0
SPLINE
  5
12d
100
AcDbEntity
  8
Layer_2
 62
7
100
AcDbSpline
 70
8
 71
3
 72
8
 73
4
 74
0
 40
0
 40
0
 40
0
 40
0
 40
1
 40
1
 40
1
 40
1
 10
623.490466
 20
299.674722
 30
0.0
 10
617.182535
 20
293.912891
 30
0.0
 10
606.646827
 20
284.315659
 30
0.0
 10
605.305918
 20
283.109689
 30
0.0
  0
SPLINE
  5
12e
100
AcDbEntity
  8
Layer_2
 62
7
100
AcDbSpline
 70
8
 71
3
 72
8
 73
4
 74
0
 40
0
 40
0
 40
0
 40
0
 40
1
 40
1
 40
1
 40
1
 10
605.305918
 20
283.109689
 30
0.0
 10
604.516719
 20
282.399944
 30
0.0
 10
600.161889
 20
278.431855
 30
0.0
 10
595.628518
 20
274.291655
 30
0.0
  0
SPLINE
  5
12f
100
AcDbEntity
  8
Layer_2
 62
7
100
AcDbSpline
 70
8
 71
3
 72
8
 73
4
 74
0
 40
0
 40
0
 40
0
 40
0
 40
1
 40
1
 40
1
 40
1
 10
595.628518
 20
274.291655
 30
0.0
 10
591.095148
 20
270.151455
 30
0.0
 10
586.687454
 20
266.135080
 30
0.0
 10
585.833643
 20
265.366201
 30
0.0
  0
SPLINE
  5
130
100
AcDbEntity
  8
Layer_2
 62
7
100
AcDbSpline
 70
8
 71
3
 72
8
 73
4
 74
0
 40
0
 40
0
 40
0
 40
0
 40
1
 40
1
 40
1
 40
1
 10
585.833643
 20
265.366201
 30
0.0
 10
584.979727
 20
264.597322
 30
0.0
 10
582.312039
 20
262.180353
 30
0.0
 10
579.905125
 20
259.995424
 30
0.0
  0
SPLINE
  5
131
100
AcDbEntity
  8
Layer_2
 62
7
100
AcDbSpline
 70
8
 71
3
 72
8
 73
4
 74
0
 40
0
 40
0
 40
0
 40
0
 40
1
 40
1
 40
1
 40
1
 10
579.905125
 20
259.995424
 30
0.0
 10
575.269889
 20
255.787226
 30
0.0
 10
571.065660
 20
251.988603
 30
0.0
 10
560.259018
 20
242.245322
 30
0.0
  0
SPLINE
  5
132
100
AcDbEntity
  8
Layer_2
 62
7
100
AcDbSpline
 70
8
 71
3
 72
8
 73
4
 74
0
 40
0
 40
0
 40
0
 40
0
 40
1
 40
1
 40
1
 40
1
 10
560.259018
 20
242.245322
 30
0.0
 10
546.593289
 20
229.924205
 30
0.0
 10
540.328485
 20
224.273764
 30
0.0
 10
535.095556
 20
219.549893
 30
0.0
  0
SPLINE
  5
133
100
AcDbEntity
  8
Layer_2
 62
7
100
AcDbSpline
 70
8
 71
3
 72
8
 73
4
 74
0
 40
0
 40
0
 40
0
 40
0
 40
1
 40
1
 40
1
 40
1
 10
535.095556
 20
219.549893
 30
0.0
 10
529.248000
 20
214.270926
 30
0.0
 10
519.732525
 20
205.692605
 30
0.0
 10
503.157702
 20
190.757934
 30
0.0
  0
SPLINE
  5
134
100
AcDbEntity
  8
Layer_2
 62
7
100
AcDbSpline
 70
8
 71
3
 72
8
 73
4
 74
0
 40
0
 40
0
 40
0
 40
0
 40
1
 40
1
 40
1
 40
1
 10
503.157702
 20
190.757934
 30
0.0
 10
497.302737
 20
185.482143
 30
0.0
 10
491.344850
 20
180.101047
 30
0.0
 10
489.917952
 20
178.799826
 30
0.0
  0
SPLINE
  5
135
100
AcDbEntity
  8
Layer_2
 62
7
100
AcDbSpline
 70
8
 71
3
 72
8
 73
4
 74
0
 40
0
 40
0
 40
0
 40
0
 40
1
 40
1
 40
1
 40
1
 10
489.917952
 20
178.799826
 30
0.0
 10
488.490895
 20
177.498632
 30
0.0
 10
486.024079
 20
175.272666
 30
0.0
 10
484.436314
 20
173.853176
 30
0.0
  0
SPLINE
  5
136
100
AcDbEntity
  8
Layer_2
 62
7
100
AcDbSpline
 70
8
 71
3
 72
8
 73
4
 74
0
 40
0
 40
0
 40
0
 40
0
 40
1
 40
1
 40
1
 40
1
 10
484.436314
 20
173.853176
 30
0.0
 10
482.848444
 20
172.433713
 30
0.0
 10
480.967098
 20
170.737443
 30
0.0
 10
480.255368
 20
170.083393
 30
0.0
  0
SPLINE
  5
137
100
AcDbEntity
  8
Layer_2
 62
7
100
AcDbSpline
 70
8
 71
3
 72
8
 73
4
 74
0
 40
0
 40
0
 40
0
 40
0
 40
1
 40
1
 40
1
 40
1
 10
480.255368
 20
170.083393
 30
0.0
 10
479.543692
 20
169.429528
 30
0.0
 10
478.477501
 20
168.467953
 30
0.0
 10
477.886051
 20
167.946538
 30
0.0
  0
SPLINE
  5
138
100
AcDbEntity
  8
Layer_2
 62
7
100
AcDbSpline
 70
8
 71
3
 72
8
 73
4
 74
0
 40
0
 40
0
 40
0
 40
0
 40
1
 40
1
 40
1
 40
1
 10
477.886051
 20
167.946538
 30
0.0
 10
477.294601
 20
167.425124
 30
0.0
 10
476.209783
 20
166.442832
 30
0.0
 10
475.475353
 20
165.763673
 30
0.0
  0
LWPOLYLINE
  5
139
100
AcDbEntity
  8
Layer_2
 62
7
100
AcDbPolyline
 90
3
 70
0
 10
685.887471
 20
333.974000
 30
0.0
 10
685.861278
 20
335.371979
 30
0.0
 10
684.678378
 20
335.396045
 30
0.0
  0
SPLINE
  5
13a
100
AcDbEntity
  8
Layer_2
 62
7
100
AcDbSpline
 70
8
 71
3
 72
8
 73
4
 74
0
 40
0
 40
0
 40
0
 40
0
 40
1
 40
1
 40
1
 40
1
 10
474.025304
 20
159.942787
 30
0.0
 10
473.767044
 20
149.617951
 30
0.0
 10
473.684441
 20
146.076239
 30
0.0
 10
473.584799
 20
141.054447
 30
0.0
  0
SPLINE
  5
13b
100
AcDbEntity
  8
Layer_2
 62
7
100
AcDbSpline
 70
8
 71
3
 72
8
 73
4
 74
0
 40
0
 40
0
 40
0
 40
0
 40
1
 40
1
 40
1
 40
1
 10
473.584799
 20
141.054447
 30
0.0
 10
473.338843
 20
128.659512
 30
0.0
 10
473.243090
 20
124.433851
 30
0.0
 10
473.146173
 20
121.698060
 30
0.0
  0
SPLINE
  5
13c
100
AcDbEntity
  8
Layer_2
 62
7
100
AcDbSpline
 70
8
 71
3
 72
8
 73
4
 74
0
 40
0
 40
0
 40
0
 40
0
 40
1
 40
1
 40
1
 40
1
 10
473.146173
 20
121.698060
 30
0.0
 10
473.089605
 20
120.101140
 30
0.0
 10
473.031952
 20
116.619912
 30
0.0
 10
473.018088
 20
113.962172
 30
0.0
  0
SPLINE
  5
13d
100
AcDbEntity
  8
Layer_2
 62
7
100
AcDbSpline
 70
8
 71
3
 72
8
 73
4
 74
0
 40
0
 40
0
 40
0
 40
0
 40
1
 40
1
 40
1
 40
1
 10
473.018088
 20
113.962172
 30
0.0
 10
472.997715
 20
110.068564
 30
0.0
 10
473.050341
 20
109.095691
 30
0.0
 10
473.288730
 20
108.955197
 30
0.0
  0
SPLINE
  5
13e
100
AcDbEntity
  8
Layer_2
 62
7
100
AcDbSpline
 70
8
 71
3
 72
8
 73
4
 74
0
 40
0
 40
0
 40
0
 40
0
 40
1
 40
1
 40
1
 40
1
 10
473.288730
 20
108.955197
 30
0.0
 10
473.451449
 20
108.859296
 30
0.0
 10
474.455649
 20
108.288685
 30
0.0
 10
475.520253
 20
107.687181
 30
0.0
  0
SPLINE
  5
13f
100
AcDbEntity
  8
Layer_2
 62
7
100
AcDbSpline
 70
8
 71
3
 72
8
 73
4
 74
0
 40
0
 40
0
 40
0
 40
0
 40
1
 40
1
 40
1
 40
1
 10
475.520253
 20
107.687181
 30
0.0
 10
480.386734
 20
104.937631
 30
0.0
 10
483.964430
 20
102.216656
 30
0.0
 10
487.805386
 20
98.343950
 30
0.0
  0
SPLINE
  5
140
100
AcDbEntity
  8
Layer_2
 62
7
100
AcDbSpline
 70
8
 71
3
 72
8
 73
4
 74
0
 40
0
 40
0
 40
0
 40
0
 40
1
 40
1
 40
1
 40
1
 10
487.805386
 20
98.343950
 30
0.0
 10
496.085257
 20
89.995552
 30
0.0
 10
501.191980
 20
79.672834
 30
0.0
 10
502.990882
 20
67.646973
 30
0.0
  0
SPLINE
  5
141
100
AcDbEntity
  8
Layer_2
 62
7
100
AcDbSpline
 70
8
 71
3
 72
8
 73
4
 74
0
 40
0
 40
0
 40
0
 40
0
 40
1
 40
1
 40
1
 40
1
 10
502.990882
 20
67.646973
 30
0.0
 10
503.652525
 20
63.224198
 30
0.0
 10
503.635407
 20
56.322278
 30
0.0
 10
502.952359
 20
52.121223
 30
0.0
  0
SPLINE
  5
142
100
AcDbEntity
  8
Layer_2
 62
7
100
AcDbSpline
 70
8
 71
3
 72
8
 73
4
 74
0
 40
0
 40
0
 40
0
 40
0
 40
1
 40
1
 40
1
 40
1
 10
502.952359
 20
52.121223
 30
0.0
 10
500.958670
 20
39.858315
 30
0.0
 10
495.860996
 20
29.768430
 30
0.0
 10
487.468148
 20
21.474536
 30
0.0
  0
SPLINE
  5
143
100
AcDbEntity
  8
Layer_2
 62
7
100
AcDbSpline
 70
8
 71
3
 72
8
 73
4
 74
0
 40
0
 40
0
 40
0
 40
0
 40
1
 40
1
 40
1
 40
1
 10
487.468148
 20
21.474536
 30
0.0
 10
482.404552
 20
16.469942
 30
0.0
 10
476.111173
 20
12.295082
 30
0.0
 10
469.961727
 20
9.861444
 30
0.0
  0
SPLINE
  5
144
100
AcDbEntity
  8
Layer_2
 62
7
100
AcDbSpline
 70
8
 71
3
 72
8
 73
4
 74
0
 40
0
 40
0
 40
0
 40
0
 40
1
 40
1
 40
1
 40
1
 10
469.961727
 20
9.861444
 30
0.0
 10
468.781342
 20
9.394296
 30
0.0
 10
468.712100
 20
9.327568
 30
0.0
 10
468.824601
 20
8.765117
 30
0.0
  0
SPLINE
  5
145
100
AcDbEntity
  8
Layer_2
 62
7
100
AcDbSpline
 70
8
 71
3
 72
8
 73
4
 74
0
 40
0
 40
0
 40
0
 40
0
 40
1
 40
1
 40
1
 40
1
 10
468.824601
 20
8.765117
 30
0.0
 10
468.890482
 20
8.435737
 30
0.0
 10
469.011714
 20
5.974556
 30
0.0
 10
469.094026
 20
3.295650
 30
0.0
  0
LWPOLYLINE
  5
146
100
AcDbEntity
  8
Layer_2
 62
7
100
AcDbPolyline
 90
3
 70
0
 10
666.074730
 20
336.021282
 30
0.0
 10
663.493879
 20
336.136156
 30
0.0
 10
654.030791
 20
327.504125
 30
0.0
  0
SPLINE
  5
147
100
AcDbEntity
  8
Layer_2
 62
7
100
AcDbSpline
 70
8
 71
3
 72
8
 73
4
 74
0
 40
0
 40
0
 40
0
 40
0
 40
1
 40
1
 40
1
 40
1
 10
686.379279
 20
-1.469125
 30
0.0
 10
805.804258
 20
-1.410864
 30
0.0
 10
903.538695
 20
-1.354190
 30
0.0
 10
903.567800
 20
-1.343184
 30
0.0
  0
LWPOLYLINE
  5
148
100
AcDbEntity
  8
Layer_2
 62
7
100
AcDbPolyline
 90
3
 70
0
 10
475.475353
 20
165.763673
 30
0.0
 10
474.140027
 20
164.528810
 30
0.0
 10
474.025304
 20
159.942787
 30
0.0
  0
SPLINE
  5
149
100
AcDbEntity
  8
Layer_2
 62
7
100
AcDbSpline
 70
8
 71
3
 72
8
 73
4
 74
0
 40
0
 40
0
 40
0
 40
0
 40
1
 40
1
 40
1
 40
1
 10
766.128426
 20
28.480411
 30
0.0
 10
768.011915
 20
29.084561
 30
0.0
 10
768.273324
 20
29.220557
 30
0.0
 10
769.836032
 20
30.408986
 30
0.0
  0
SPLINE
  5
14a
100
AcDbEntity
  8
Layer_2
 62
7
100
AcDbSpline
 70
8
 71
3
 72
8
 73
4
 74
0
 40
0
 40
0
 40
0
 40
0
 40
1
 40
1
 40
1
 40
1
 10
769.836032
 20
30.408986
 30
0.0
 10
771.963468
 20
32.026913
 30
0.0
 10
773.588089
 20
34.507646
 30
0.0
 10
774.274153
 20
37.186288
 30
0.0
  0
SPLINE
  5
14b
100
AcDbEntity
  8
Layer_2
 62
7
100
AcDbSpline
 70
8
 71
3
 72
8
 73
4
 74
0
 40
0
 40
0
 40
0
 40
0
 40
1
 40
1
 40
1
 40
1
 10
774.274153
 20
37.186288
 30
0.0
 10
774.816284
 20
39.302425
 30
0.0
 10
774.609407
 20
42.419746
 30
0.0
 10
773.789701
 20
44.485878
 30
0.0
  0
SPLINE
  5
14c
100
AcDbEntity
  8
Layer_2
 62
7
100
AcDbSpline
 70
8
 71
3
 72
8
 73
4
 74
0
 40
0
 40
0
 40
0
 40
0
 40
1
 40
1
 40
1
 40
1
 10
773.789701
 20
44.485878
 30
0.0
 10
770.465741
 20
52.864173
 30
0.0
 10
759.730536
 20
54.849077
 30
0.0
 10
753.434511
 20
48.249575
 30
0.0
  0
SPLINE
  5
14d
100
AcDbEntity
  8
Layer_2
 62
7
100
AcDbSpline
 70
8
 71
3
 72
8
 73
4
 74
0
 40
0
 40
0
 40
0
 40
0
 40
1
 40
1
 40
1
 40
1
 10
753.434511
 20
48.249575
 30
0.0
 10
749.405966
 20
44.026561
 30
0.0
 10
749.065447
 20
37.458809
 30
0.0
 10
752.620494
 20
32.545496
 30
0.0
  0
SPLINE
  5
14e
100
AcDbEntity
  8
Layer_2
 62
7
100
AcDbSpline
 70
8
 71
3
 72
8
 73
4
 74
0
 40
0
 40
0
 40
0
 40
0
 40
1
 40
1
 40
1
 40
1
 10
752.620494
 20
32.545496
 30
0.0
 10
754.415798
 20
30.064340
 30
0.0
 10
757.742299
 20
28.216913
 30
0.0
 10
760.919415
 20
27.935925
 30
0.0
  0
SPLINE
  5
14f
100
AcDbEntity
  8
Layer_2
 62
7
100
AcDbSpline
 70
8
 71
3
 72
8
 73
4
 74
0
 40
0
 40
0
 40
0
 40
0
 40
1
 40
1
 40
1
 40
1
 10
760.919415
 20
27.935925
 30
0.0
 10
763.097492
 20
27.743441
 30
0.0
 10
764.185961
 20
27.857185
 30
0.0
 10
766.128267
 20
28.480200
 30
0.0
  0
LWPOLYLINE
  5
150
100
AcDbEntity
  8
Layer_2
 62
7
100
AcDbPolyline
 90
3
 70
0
 10
469.094026
 20
3.295650
 30
0.0
 10
469.243675
 20
-1.575065
 30
0.0
 10
686.379279
 20
-1.469125
 30
0.0
  0
SPLINE
  5
151
100
AcDbEntity
  8
Layer_2
 62
7
100
AcDbSpline
 70
8
 71
3
 72
8
 73
4
 74
0
 40
0
 40
0
 40
0
 40
0
 40
1
 40
1
 40
1
 40
1
 10
691.173291
 20
47.712180
 30
0.0
 10
698.440336
 20
48.437377
 30
0.0
 10
704.318320
 20
52.496641
 30
0.0
 10
707.565816
 20
59.033172
 30
0.0
  0
SPLINE
  5
152
100
AcDbEntity
  8
Layer_2
 62
7
100
AcDbSpline
 70
8
 71
3
 72
8
 73
4
 74
0
 40
0
 40
0
 40
0
 40
0
 40
1
 40
1
 40
1
 40
1
 10
707.565816
 20
59.033172
 30
0.0
 10
709.110559
 20
62.142026
 30
0.0
 10
709.511641
 20
63.989611
 30
0.0
 10
709.496930
 20
67.928993
 30
0.0
  0
SPLINE
  5
153
100
AcDbEntity
  8
Layer_2
 62
7
100
AcDbSpline
 70
8
 71
3
 72
8
 73
4
 74
0
 40
0
 40
0
 40
0
 40
0
 40
1
 40
1
 40
1
 40
1
 10
709.496930
 20
67.928993
 30
0.0
 10
709.486876
 20
70.644411
 30
0.0
 10
709.399061
 20
71.573099
 30
0.0
 10
709.023829
 20
72.936761
 30
0.0
  0
SPLINE
  5
154
100
AcDbEntity
  8
Layer_2
 62
7
100
AcDbSpline
 70
8
 71
3
 72
8
 73
4
 74
0
 40
0
 40
0
 40
0
 40
0
 40
1
 40
1
 40
1
 40
1
 10
709.023829
 20
72.936761
 30
0.0
 10
707.082475
 20
79.992151
 30
0.0
 10
701.901774
 20
85.286464
 30
0.0
 10
694.845337
 20
87.425885
 30
0.0
  0
SPLINE
  5
155
100
AcDbEntity
  8
Layer_2
 62
7
100
AcDbSpline
 70
8
 71
3
 72
8
 73
4
 74
0
 40
0
 40
0
 40
0
 40
0
 40
1
 40
1
 40
1
 40
1
 10
694.845337
 20
87.425885
 30
0.0
 10
693.115412
 20
87.950421
 30
0.0
 10
692.649242
 20
87.998284
 30
0.0
 10
689.300464
 20
87.995162
 30
0.0
  0
SPLINE
  5
156
100
AcDbEntity
  8
Layer_2
 62
7
100
AcDbSpline
 70
8
 71
3
 72
8
 73
4
 74
0
 40
0
 40
0
 40
0
 40
0
 40
1
 40
1
 40
1
 40
1
 10
689.300464
 20
87.995162
 30
0.0
 10
685.660326
 20
87.991722
 30
0.0
 10
685.633868
 20
87.988283
 30
0.0
 10
683.292570
 20
87.199507
 30
0.0
  0
SPLINE
  5
157
100
AcDbEntity
  8
Layer_2
 62
7
100
AcDbSpline
 70
8
 71
3
 72
8
 73
4
 74
0
 40
0
 40
0
 40
0
 40
0
 40
1
 40
1
 40
1
 40
1
 10
683.292570
 20
87.199507
 30
0.0
 10
679.428331
 20
85.897651
 30
0.0
 10
675.973137
 20
83.572863
 30
0.0
 10
673.749314
 20
80.778070
 30
0.0
  0
SPLINE
  5
158
100
AcDbEntity
  8
Layer_2
 62
7
100
AcDbSpline
 70
8
 71
3
 72
8
 73
4
 74
0
 40
0
 40
0
 40
0
 40
0
 40
1
 40
1
 40
1
 40
1
 10
673.749314
 20
80.778070
 30
0.0
 10
670.562408
 20
76.772796
 30
0.0
 10
669.191072
 20
72.860138
 30
0.0
 10
669.191072
 20
67.771142
 30
0.0
  0
SPLINE
  5
159
100
AcDbEntity
  8
Layer_2
 62
7
100
AcDbSpline
 70
8
 71
3
 72
8
 73
4
 74
0
 40
0
 40
0
 40
0
 40
0
 40
1
 40
1
 40
1
 40
1
 10
669.191072
 20
67.771142
 30
0.0
 10
669.191072
 20
63.021078
 30
0.0
 10
670.643741
 20
58.958665
 30
0.0
 10
673.812020
 20
54.848892
 30
0.0
  0
SPLINE
  5
15a
100
AcDbEntity
  8
Layer_2
 62
7
100
AcDbSpline
 70
8
 71
3
 72
8
 73
4
 74
0
 40
0
 40
0
 40
0
 40
0
 40
1
 40
1
 40
1
 40
1
 10
673.812020
 20
54.848892
 30
0.0
 10
674.327402
 20
54.180317
 30
0.0
 10
676.599670
 20
52.084526
 30
0.0
 10
677.532591
 20
51.417246
 30
0.0
  0
SPLINE
  5
15b
100
AcDbEntity
  8
Layer_2
 62
7
100
AcDbSpline
 70
8
 71
3
 72
8
 73
4
 74
0
 40
0
 40
0
 40
0
 40
0
 40
1
 40
1
 40
1
 40
1
 10
677.532591
 20
51.417246
 30
0.0
 10
680.230547
 20
49.487376
 30
0.0
 10
683.235949
 20
48.262355
 30
0.0
 10
686.289506
 20
47.848017
 30
0.0
  0
SPLINE
  5
15c
100
AcDbEntity
  8
Layer_2
 62
7
100
AcDbSpline
 70
8
 71
3
 72
8
 73
4
 74
0
 40
0
 40
0
 40
0
 40
0
 40
1
 40
1
 40
1
 40
1
 10
686.289506
 20
47.848017
 30
0.0
 10
689.013920
 20
47.478315
 30
0.0
 10
688.869220
 20
47.482337
 30
0.0
 10
691.173185
 20
47.712286
 30
0.0
  0
LWPOLYLINE
  5
15d
100
AcDbEntity
  8
Layer_2
 62
7
100
AcDbPolyline
 90
2
 70
0
 10
903.567800
 20
-1.343184
 30
0.0
 10
903.567297
 20
-1.343739
 30
0.0
  0
SPLINE
  5
15e
100
AcDbEntity
  8
Layer_2
 62
7
100
AcDbSpline
 70
8
 71
3
 72
8
 73
4
 74
0
 40
0
 40
0
 40
0
 40
0
 40
1
 40
1
 40
1
 40
1
 10
584.441961
 20
77.836564
 30
0.0
 10
590.779791
 20
78.631082
 30
0.0
 10
597.100686
 20
81.283556
 30
0.0
 10
602.518824
 20
85.422698
 30
0.0
  0
SPLINE
  5
15f
100
AcDbEntity
  8
Layer_2
 62
7
100
AcDbSpline
 70
8
 71
3
 72
8
 73
4
 74
0
 40
0
 40
0
 40
0
 40
0
 40
1
 40
1
 40
1
 40
1
 10
602.518824
 20
85.422698
 30
0.0
 10
604.764158
 20
87.137912
 30
0.0
 10
608.112116
 20
90.655891
 30
0.0
 10
609.897524
 20
93.176312
 30
0.0
  0
SPLINE
  5
160
100
AcDbEntity
  8
Layer_2
 62
7
100
AcDbSpline
 70
8
 71
3
 72
8
 73
4
 74
0
 40
0
 40
0
 40
0
 40
0
 40
1
 40
1
 40
1
 40
1
 10
609.897524
 20
93.176312
 30
0.0
 10
612.029933
 20
96.186477
 30
0.0
 10
614.331147
 20
100.844731
 30
0.0
 10
615.315661
 20
104.144085
 30
0.0
  0
SPLINE
  5
161
100
AcDbEntity
  8
Layer_2
 62
7
100
AcDbSpline
 70
8
 71
3
 72
8
 73
4
 74
0
 40
0
 40
0
 40
0
 40
0
 40
1
 40
1
 40
1
 40
1
 10
615.315661
 20
104.144085
 30
0.0
 10
617.336972
 20
110.917154
 30
0.0
 10
617.291702
 20
118.918948
 30
0.0
 10
615.192815
 20
125.855529
 30
0.0
  0
SPLINE
  5
162
100
AcDbEntity
  8
Layer_2
 62
7
100
AcDbSpline
 70
8
 71
3
 72
8
 73
4
 74
0
 40
0
 40
0
 40
0
 40
0
 40
1
 40
1
 40
1
 40
1
 10
615.192815
 20
125.855529
 30
0.0
 10
614.345143
 20
128.656937
 30
0.0
 10
611.732595
 20
133.913414
 30
0.0
 10
609.884215
 20
136.536758
 30
0.0
  0
SPLINE
  5
163
100
AcDbEntity
  8
Layer_2
 62
7
100
AcDbSpline
 70
8
 71
3
 72
8
 73
4
 74
0
 40
0
 40
0
 40
0
 40
0
 40
1
 40
1
 40
1
 40
1
 10
609.884215
 20
136.536758
 30
0.0
 10
608.056791
 20
139.130230
 30
0.0
 10
603.874734
 20
143.312737
 30
0.0
 10
601.228372
 20
145.193925
 30
0.0
  0
SPLINE
  5
164
100
AcDbEntity
  8
Layer_2
 62
7
100
AcDbSpline
 70
8
 71
3
 72
8
 73
4
 74
0
 40
0
 40
0
 40
0
 40
0
 40
1
 40
1
 40
1
 40
1
 10
601.228372
 20
145.193925
 30
0.0
 10
597.138972
 20
148.100637
 30
0.0
 10
591.241674
 20
150.646458
 30
0.0
 10
586.710949
 20
151.460581
 30
0.0
  0
SPLINE
  5
165
100
AcDbEntity
  8
Layer_2
 62
7
100
AcDbSpline
 70
8
 71
3
 72
8
 73
4
 74
0
 40
0
 40
0
 40
0
 40
0
 40
1
 40
1
 40
1
 40
1
 10
586.710949
 20
151.460581
 30
0.0
 10
581.364249
 20
152.421389
 30
0.0
 10
575.264809
 20
152.235784
 30
0.0
 10
570.304930
 20
150.961392
 30
0.0
  0
SPLINE
  5
166
100
AcDbEntity
  8
Layer_2
 62
7
100
AcDbSpline
 70
8
 71
3
 72
8
 73
4
 74
0
 40
0
 40
0
 40
0
 40
0
 40
1
 40
1
 40
1
 40
1
 10
570.304930
 20
150.961392
 30
0.0
 10
560.750561
 20
148.506508
 30
0.0
 10
552.203726
 20
142.003923
 30
0.0
 10
547.244376
 20
133.416606
 30
0.0
  0
SPLINE
  5
167
100
AcDbEntity
  8
Layer_2
 62
7
100
AcDbSpline
 70
8
 71
3
 72
8
 73
4
 74
0
 40
0
 40
0
 40
0
 40
0
 40
1
 40
1
 40
1
 40
1
 10
547.244376
 20
133.416606
 30
0.0
 10
544.026778
 20
127.845010
 30
0.0
 10
542.581095
 20
122.684312
 30
0.0
 10
542.355934
 20
115.964160
 30
0.0
  0
SPLINE
  5
168
100
AcDbEntity
  8
Layer_2
 62
7
100
AcDbSpline
 70
8
 71
3
 72
8
 73
4
 74
0
 40
0
 40
0
 40
0
 40
0
 40
1
 40
1
 40
1
 40
1
 10
542.355934
 20
115.964160
 30
0.0
 10
542.116777
 20
108.827290
 30
0.0
 10
543.614742
 20
102.671758
 30
0.0
 10
547.084567
 20
96.533425
 30
0.0
  0
SPLINE
  5
169
100
AcDbEntity
  8
Layer_2
 62
7
100
AcDbSpline
 70
8
 71
3
 72
8
 73
4
 74
0
 40
0
 40
0
 40
0
 40
0
 40
1
 40
1
 40
1
 40
1
 10
547.084567
 20
96.533425
 30
0.0
 10
548.213968
 20
94.535345
 30
0.0
 10
548.969142
 20
93.400758
 30
0.0
 10
550.734759
 20
91.049142
 30
0.0
  0
SPLINE
  5
16a
100
AcDbEntity
  8
Layer_2
 62
7
100
AcDbSpline
 70
8
 71
3
 72
8
 73
4
 74
0
 40
0
 40
0
 40
0
 40
0
 40
1
 40
1
 40
1
 40
1
 10
550.734759
 20
91.049142
 30
0.0
 10
551.796982
 20
89.634415
 30
0.0
 10
555.221828
 20
86.429781
 30
0.0
 10
557.424749
 20
84.789629
 30
0.0
  0
SPLINE
  5
16b
100
AcDbEntity
  8
Layer_2
 62
7
100
AcDbSpline
 70
8
 71
3
 72
8
 73
4
 74
0
 40
0
 40
0
 40
0
 40
0
 40
1
 40
1
 40
1
 40
1
 10
557.424749
 20
84.789629
 30
0.0
 10
565.186301
 20
79.010335
 30
0.0
 10
574.560488
 20
76.597854
 30
0.0
 10
584.441353
 20
77.836644
 30
0.0
  0
LWPOLYLINE
  5
16c
100
AcDbEntity
  8
Layer_2
 62
7
100
AcDbPolyline
 90
2
 70
0
 10
766.128267
 20
28.480200
 30
0.0
 10
766.128426
 20
28.480411
 30
0.0
  0
SPLINE
  5
16d
100
AcDbEntity
  8
Layer_2
 62
7
100
AcDbSpline
 70
8
 71
3
 72
8
 73
4
 74
0
 40
0
 40
0
 40
0
 40
0
 40
1
 40
1
 40
1
 40
1
 10
627.979149
 20
195.494815
 30
0.0
 10
636.411420
 20
197.460404
 30
0.0
 10
642.658232
 20
204.466306
 30
0.0
 10
643.612849
 20
213.027959
 30
0.0
  0
SPLINE
  5
16e
100
AcDbEntity
  8
Layer_2
 62
7
100
AcDbSpline
 70
8
 71
3
 72
8
 73
4
 74
0
 40
0
 40
0
 40
0
 40
0
 40
1
 40
1
 40
1
 40
1
 10
643.612849
 20
213.027959
 30
0.0
 10
644.169374
 20
218.018794
 30
0.0
 10
642.737263
 20
223.298290
 30
0.0
 10
639.712626
 20
227.405681
 30
0.0
  0
SPLINE
  5
16f
100
AcDbEntity
  8
Layer_2
 62
7
100
AcDbSpline
 70
8
 71
3
 72
8
 73
4
 74
0
 40
0
 40
0
 40
0
 40
0
 40
1
 40
1
 40
1
 40
1
 10
639.712626
 20
227.405681
 30
0.0
 10
638.749754
 20
228.713305
 30
0.0
 10
636.314318
 20
231.065134
 30
0.0
 10
634.995370
 20
231.960484
 30
0.0
  0
SPLINE
  5
170
100
AcDbEntity
  8
Layer_2
 62
7
100
AcDbSpline
 70
8
 71
3
 72
8
 73
4
 74
0
 40
0
 40
0
 40
0
 40
0
 40
1
 40
1
 40
1
 40
1
 10
634.995370
 20
231.960484
 30
0.0
 10
633.802813
 20
232.770294
 30
0.0
 10
631.713214
 20
233.831987
 30
0.0
 10
630.210645
 20
234.391660
 30
0.0
  0
SPLINE
  5
171
100
AcDbEntity
  8
Layer_2
 62
7
100
AcDbSpline
 70
8
 71
3
 72
8
 73
4
 74
0
 40
0
 40
0
 40
0
 40
0
 40
1
 40
1
 40
1
 40
1
 10
630.210645
 20
234.391660
 30
0.0
 10
626.395353
 20
235.812685
 30
0.0
 10
620.862386
 20
235.844593
 30
0.0
 10
617.173566
 20
234.466879
 30
0.0
  0
SPLINE
  5
172
100
AcDbEntity
  8
Layer_2
 62
7
100
AcDbSpline
 70
8
 71
3
 72
8
 73
4
 74
0
 40
0
 40
0
 40
0
 40
0
 40
1
 40
1
 40
1
 40
1
 10
617.173566
 20
234.466879
 30
0.0
 10
616.388653
 20
234.173720
 30
0.0
 10
615.504495
 20
233.856988
 30
0.0
 10
615.208770
 20
233.763034
 30
0.0
  0
SPLINE
  5
173
100
AcDbEntity
  8
Layer_2
 62
7
100
AcDbSpline
 70
8
 71
3
 72
8
 73
4
 74
0
 40
0
 40
0
 40
0
 40
0
 40
1
 40
1
 40
1
 40
1
 10
615.208770
 20
233.763034
 30
0.0
 10
614.641239
 20
233.582715
 30
0.0
 10
612.872816
 20
232.575505
 30
0.0
 10
611.708068
 20
231.769240
 30
0.0
  0
SPLINE
  5
174
100
AcDbEntity
  8
Layer_2
 62
7
100
AcDbSpline
 70
8
 71
3
 72
8
 73
4
 74
0
 40
0
 40
0
 40
0
 40
0
 40
1
 40
1
 40
1
 40
1
 10
611.708068
 20
231.769240
 30
0.0
 10
611.326777
 20
231.505292
 30
0.0
 10
610.401449
 20
230.705853
 30
0.0
 10
609.651753
 20
229.992695
 30
0.0
  0
SPLINE
  5
175
100
AcDbEntity
  8
Layer_2
 62
7
100
AcDbSpline
 70
8
 71
3
 72
8
 73
4
 74
0
 40
0
 40
0
 40
0
 40
0
 40
1
 40
1
 40
1
 40
1
 10
609.651753
 20
229.992695
 30
0.0
 10
605.161244
 20
225.720997
 30
0.0
 10
603.040344
 20
220.521141
 30
0.0
 10
603.289317
 20
214.393656
 30
0.0
  0
SPLINE
  5
176
100
AcDbEntity
  8
Layer_2
 62
7
100
AcDbSpline
 70
8
 71
3
 72
8
 73
4
 74
0
 40
0
 40
0
 40
0
 40
0
 40
1
 40
1
 40
1
 40
1
 10
603.289317
 20
214.393656
 30
0.0
 10
603.663755
 20
205.180070
 30
0.0
 10
610.170071
 20
197.379095
 30
0.0
 10
619.079915
 20
195.461131
 30
0.0
  0
SPLINE
  5
177
100
AcDbEntity
  8
Layer_2
 62
7
100
AcDbSpline
 70
8
 71
3
 72
8
 73
4
 74
0
 40
0
 40
0
 40
0
 40
0
 40
1
 40
1
 40
1
 40
1
 10
619.079915
 20
195.461131
 30
0.0
 10
621.716382
 20
194.893546
 30
0.0
 10
625.460342
 20
194.907649
 30
0.0
 10
627.978911
 20
195.494706
 30
0.0
  0
LWPOLYLINE
  5
178
100
AcDbEntity
  8
Layer_2
 62
7
100
AcDbPolyline
 90
2
 70
0
 10
691.173185
 20
47.712286
 30
0.0
 10
691.173291
 20
47.712180
 30
0.0
  0
SPLINE
  5
179
100
AcDbEntity
  8
Layer_2
 62
7
100
AcDbSpline
 70
8
 71
3
 72
8
 73
4
 74
0
 40
0
 40
0
 40
0
 40
0
 40
1
 40
1
 40
1
 40
1
 10
650.829095
 20
261.048114
 30
0.0
 10
653.891382
 20
262.116051
 30
0.0
 10
656.366030
 20
264.354612
 30
0.0
 10
657.803511
 20
267.357103
 30
0.0
  0
SPLINE
  5
17a
100
AcDbEntity
  8
Layer_2
 62
7
100
AcDbSpline
 70
8
 71
3
 72
8
 73
4
 74
0
 40
0
 40
0
 40
0
 40
0
 40
1
 40
1
 40
1
 40
1
 10
657.803511
 20
267.357103
 30
0.0
 10
659.738965
 20
271.399407
 30
0.0
 10
659.371141
 20
275.895207
 30
0.0
 10
656.811562
 20
279.482428
 30
0.0
  0
SPLINE
  5
17b
100
AcDbEntity
  8
Layer_2
 62
7
100
AcDbSpline
 70
8
 71
3
 72
8
 73
4
 74
0
 40
0
 40
0
 40
0
 40
0
 40
1
 40
1
 40
1
 40
1
 10
656.811562
 20
279.482428
 30
0.0
 10
655.529100
 20
281.279716
 30
0.0
 10
654.163348
 20
282.430416
 30
0.0
 10
652.105154
 20
283.447739
 30
0.0
  0
SPLINE
  5
17c
100
AcDbEntity
  8
Layer_2
 62
7
100
AcDbSpline
 70
8
 71
3
 72
8
 73
4
 74
0
 40
0
 40
0
 40
0
 40
0
 40
1
 40
1
 40
1
 40
1
 10
652.105154
 20
283.447739
 30
0.0
 10
648.941266
 20
285.011691
 30
0.0
 10
645.532110
 20
285.084054
 30
0.0
 10
642.083266
 20
283.660527
 30
0.0
  0
SPLINE
  5
17d
100
AcDbEntity
  8
Layer_2
 62
7
100
AcDbSpline
 70
8
 71
3
 72
8
 73
4
 74
0
 40
0
 40
0
 40
0
 40
0
 40
1
 40
1
 40
1
 40
1
 10
642.083266
 20
283.660527
 30
0.0
 10
636.247881
 20
281.252025
 30
0.0
 10
633.225810
 20
274.789048
 30
0.0
 10
635.124460
 20
268.778773
 30
0.0
  0
SPLINE
  5
17e
100
AcDbEntity
  8
Layer_2
 62
7
100
AcDbSpline
 70
8
 71
3
 72
8
 73
4
 74
0
 40
0
 40
0
 40
0
 40
0
 40
1
 40
1
 40
1
 40
1
 10
635.124460
 20
268.778773
 30
0.0
 10
635.777769
 20
266.710710
 30
0.0
 10
636.244970
 20
265.915188
 30
0.0
 10
637.818448
 20
264.191956
 30
0.0
  0
SPLINE
  5
17f
100
AcDbEntity
  8
Layer_2
 62
7
100
AcDbSpline
 70
8
 71
3
 72
8
 73
4
 74
0
 40
0
 40
0
 40
0
 40
0
 40
1
 40
1
 40
1
 40
1
 10
637.818448
 20
264.191956
 30
0.0
 10
641.122300
 20
260.573779
 30
0.0
 10
646.052545
 20
259.382361
 30
0.0
 10
650.829068
 20
261.048177
 30
0.0
  0
LWPOLYLINE
  5
180
100
AcDbEntity
  8
Layer_2
 62
7
100
AcDbPolyline
 90
2
 70
0
 10
584.441353
 20
77.836644
 30
0.0
 10
584.441961
 20
77.836564
 30
0.0
  0
LWPOLYLINE
  5
181
100
AcDbEntity
  8
Layer_2
 62
7
100
AcDbPolyline
 90
2
 70
0
 10
627.978911
 20
195.494706
 30
0.0
 10
627.979149
 20
195.494815
 30
0.0
  0
ENDSEC
  0
SECTION
  2
OBJECTS
  0
DICTIONARY
  5
C
330
0
100
AcDbDictionary
  3
ACAD_GROUP
350
D
  3
ACAD_MLINESTYLE
350
17
  0
DICTIONARY
  5
D
330
C
100
AcDbDictionary
  0
DICTIONARY
  5
1A
330
C
100
AcDbDictionary
  0
DICTIONARY
  5
17
330
C
100
AcDbDictionary
  3
STANDARD
350
18
  0
DICTIONARY
  5
19
330
C
100
AcDbDictionary
  0
ENDSEC
  0
EOF
