  0
SECTION
  2
HEADER
  9
$ACADVER
  1
AC1014
  9
$HANDSEED
  5
FFFF
  9
$MEASUREMENT
 70
     1
  0
ENDSEC
  0
SECTION
  2
TABLES
  0
TABLE
  2
VPORT
  5
8
330
0
100
AcDbSymbolTable
 70
     4
  0
VPORT
  5
2E
330
8
100
AcDbSymbolTableRecord
100
AcDbViewportTableRecord
  2
*ACTIVE
 70
     0
 10
0.0
 20
0.0
 11
1.0
 21
1.0
 12
210.0
 22
148.5
 13
0.0
 23
0.0
 14
10.0
 24
10.0
 15
10.0
 25
10.0
 16
0.0
 26
0.0
 36
1.0
 17
0.0
 27
0.0
 37
0.0
 40
341.0
 41
1.24
 42
50.0
 43
0.0
 44
0.0
 50
0.0
 51
0.0
 71
     0
 72
   100
 73
     1
 74
     3
 75
     0
 76
     0
 77
     0
 78
     0
  0
ENDTAB
  0
TABLE
  2
LTYPE
  5
5
330
0
100
AcDbSymbolTable
 70
     1
  0
LTYPE
  5
14
330
5
100
AcDbSymbolTableRecord
100
AcDbLinetypeTableRecord
  2
BYBLOCK
 70
     0
  3

 72
    65
 73
     0
 40
0.0
  0
LTYPE
  5
15
330
5
100
AcDbSymbolTableRecord
100
AcDbLinetypeTableRecord
  2
BYLAYER
 70
     0
  3

 72
    65
 73
     0
 40
0.0
  0
LTYPE
  5
16
330
5
100
AcDbSymbolTableRecord
100
AcDbLinetypeTableRecord
  2
CONTINUOUS
 70
     0
  3
Solid line
 72
    65
 73
     0
 40
0.0
  0
ENDTAB
  0
TABLE
  2
LAYER
  5
2
100
AcDbSymbolTable
 70
2
  0
LAYER
  5
50
100
AcDbSymbolTableRecord
100
AcDbLayerTableRecord
  2
0
 70
0
  6
CONTINUOUS
  0
LAYER
  5
51
100
AcDbSymbolTableRecord
100
AcDbLayerTableRecord
  2
Ebene_1
 70
0
  6
CONTINUOUS
  0
ENDTAB
  0
TABLE
  2
STYLE
  5
3
330
0
100
AcDbSymbolTable
 70
     1
  0
STYLE
  5
11
330
3
100
AcDbSymbolTableRecord
100
AcDbTextStyleTableRecord
  2
STANDARD
 70
     0
 40
0.0
 41
1.0
 50
0.0
 71
     0
 42
2.5
  3
txt
  4

  0
ENDTAB
  0
TABLE
  2
VIEW
  5
6
330
0
100
AcDbSymbolTable
 70
     0
  0
ENDTAB
  0
TABLE
  2
UCS
  5
7
330
0
100
AcDbSymbolTable
 70
     0
  0
ENDTAB
  0
TABLE
  2
APPID
  5
9
330
0
100
AcDbSymbolTable
 70
     2
  0
APPID
  5
12
330
9
100
AcDbSymbolTableRecord
100
AcDbRegAppTableRecord
  2
ACAD
 70
     0
  0
ENDTAB
  0
TABLE
  2
DIMSTYLE
  5
A
330
0
100
AcDbSymbolTable
 70
     1
  0
DIMSTYLE
105
27
330
A
100
AcDbSymbolTableRecord
100
AcDbDimStyleTableRecord
  2
ISO-25
 70
     0
  3

  4

  5

  6

  7

 40
1.0
 41
2.5
 42
0.625
 43
3.75
 44
1.25
 45
0.0
 46
0.0
 47
0.0
 48
0.0
140
2.5
141
2.5
142
0.0
143
0.03937007874016
144
1.0
145
0.0
146
1.0
147
0.625
 71
     0
 72
     0
 73
     0
 74
     0
 75
     0
 76
     0
 77
     1
 78
     8
170
     0
171
     3
172
     1
173
     0
174
     0
175
     0
176
     0
177
     0
178
     0
270
     2
271
     2
272
     2
273
     2
274
     3
340
11
275
     0
280
     0
281
     0
282
     0
283
     0
284
     8
285
     0
286
     0
287
     3
288
     0
  0
ENDTAB
  0
TABLE
  2
BLOCK_RECORD
  5
1
330
0
100
AcDbSymbolTable
 70
     1
  0
BLOCK_RECORD
  5
1F
330
1
100
AcDbSymbolTableRecord
100
AcDbBlockTableRecord
  2
*MODEL_SPACE
  0
BLOCK_RECORD
  5
1B
330
1
100
AcDbSymbolTableRecord
100
AcDbBlockTableRecord
  2
*PAPER_SPACE
  0
ENDTAB
  0
ENDSEC
  0
SECTION
  2
BLOCKS
  0
BLOCK
  5
20
330
1F
100
AcDbEntity
  8
0
100
AcDbBlockBegin
  2
*MODEL_SPACE
 70
     0
 10
0.0
 20
0.0
 30
0.0
  3
*MODEL_SPACE
  1

  0
ENDBLK
  5
21
330
1F
100
AcDbEntity
  8
0
100
AcDbBlockEnd
  0
BLOCK
  5
1C
330
1B
100
AcDbEntity
 67
     1
  8
0
100
AcDbBlockBegin
  2
*PAPER_SPACE
  1

  0
ENDBLK
  5
1D
330
1B
100
AcDbEntity
 67
     1
  8
0
100
AcDbBlockEnd
  0
ENDSEC
  0
SECTION
  2
ENTITIES
  0
SPLINE
  5
100
100
AcDbEntity
  8
Ebene_1
 62
7
100
AcDbSpline
 70
8
 71
3
 72
8
 73
4
 74
0
 40
0
 40
0
 40
0
 40
0
 40
1
 40
1
 40
1
 40
1
 10
61.209408
 20
140.449830
 30
0.0
 10
61.209408
 20
140.661743
 30
0.0
 10
61.264095
 20
140.854290
 30
0.0
 10
61.373470
 20
141.027470
 30
0.0
  0
SPLINE
  5
101
100
AcDbEntity
  8
Ebene_1
 62
7
100
AcDbSpline
 70
8
 71
3
 72
8
 73
4
 74
0
 40
0
 40
0
 40
0
 40
0
 40
1
 40
1
 40
1
 40
1
 10
61.373470
 20
141.027470
 30
0.0
 10
61.485124
 20
141.202923
 30
0.0
 10
61.648047
 20
141.341920
 30
0.0
 10
61.862240
 20
141.444460
 30
0.0
  0
SPLINE
  5
102
100
AcDbEntity
  8
Ebene_1
 62
7
100
AcDbSpline
 70
8
 71
3
 72
8
 73
4
 74
0
 40
0
 40
0
 40
0
 40
0
 40
1
 40
1
 40
1
 40
1
 10
61.862240
 20
141.444460
 30
0.0
 10
62.076433
 20
141.547000
 30
0.0
 10
62.328223
 20
141.598270
 30
0.0
 10
62.617611
 20
141.598270
 30
0.0
  0
SPLINE
  5
103
100
AcDbEntity
  8
Ebene_1
 62
7
100
AcDbSpline
 70
8
 71
3
 72
8
 73
4
 74
0
 40
0
 40
0
 40
0
 40
0
 40
1
 40
1
 40
1
 40
1
 10
62.617611
 20
141.598270
 30
0.0
 10
62.904720
 20
141.598270
 30
0.0
 10
63.153093
 20
141.544720
 30
0.0
 10
63.362728
 20
141.437620
 30
0.0
  0
SPLINE
  5
104
100
AcDbEntity
  8
Ebene_1
 62
7
100
AcDbSpline
 70
8
 71
3
 72
8
 73
4
 74
0
 40
0
 40
0
 40
0
 40
0
 40
1
 40
1
 40
1
 40
1
 10
63.362728
 20
141.437620
 30
0.0
 10
63.572363
 20
141.330527
 30
0.0
 10
63.728451
 20
141.190390
 30
0.0
 10
63.830990
 20
141.017210
 30
0.0
  0
SPLINE
  5
105
100
AcDbEntity
  8
Ebene_1
 62
7
100
AcDbSpline
 70
8
 71
3
 72
8
 73
4
 74
0
 40
0
 40
0
 40
0
 40
0
 40
1
 40
1
 40
1
 40
1
 10
63.830990
 20
141.017210
 30
0.0
 10
63.935807
 20
140.844037
 30
0.0
 10
63.988216
 20
140.664023
 30
0.0
 10
63.988216
 20
140.477170
 30
0.0
  0
SPLINE
  5
106
100
AcDbEntity
  8
Ebene_1
 62
7
100
AcDbSpline
 70
8
 71
3
 72
8
 73
4
 74
0
 40
0
 40
0
 40
0
 40
0
 40
1
 40
1
 40
1
 40
1
 10
63.988216
 20
140.477170
 30
0.0
 10
63.988216
 20
140.221963
 30
0.0
 10
63.903906
 20
139.999797
 30
0.0
 10
63.735287
 20
139.810670
 30
0.0
  0
SPLINE
  5
107
100
AcDbEntity
  8
Ebene_1
 62
7
100
AcDbSpline
 70
8
 71
3
 72
8
 73
4
 74
0
 40
0
 40
0
 40
0
 40
0
 40
1
 40
1
 40
1
 40
1
 10
63.735287
 20
139.810670
 30
0.0
 10
63.566667
 20
139.621543
 30
0.0
 10
63.318295
 20
139.428997
 30
0.0
 10
62.990170
 20
139.233030
 30
0.0
  0
SPLINE
  5
108
100
AcDbEntity
  8
Ebene_1
 62
7
100
AcDbSpline
 70
8
 71
3
 72
8
 73
4
 74
0
 40
0
 40
0
 40
0
 40
0
 40
1
 40
1
 40
1
 40
1
 10
62.990170
 20
139.233030
 30
0.0
 10
63.104102
 20
139.098590
 30
0.0
 10
63.210059
 20
138.972127
 30
0.0
 10
63.308041
 20
138.853640
 30
0.0
  0
SPLINE
  5
109
100
AcDbEntity
  8
Ebene_1
 62
7
100
AcDbSpline
 70
8
 71
3
 72
8
 73
4
 74
0
 40
0
 40
0
 40
0
 40
0
 40
1
 40
1
 40
1
 40
1
 10
63.308041
 20
138.853640
 30
0.0
 10
63.406022
 20
138.735147
 30
0.0
 10
63.500586
 20
138.624630
 30
0.0
 10
63.591732
 20
138.522090
 30
0.0
  0
SPLINE
  5
10a
100
AcDbEntity
  8
Ebene_1
 62
7
100
AcDbSpline
 70
8
 71
3
 72
8
 73
4
 74
0
 40
0
 40
0
 40
0
 40
0
 40
1
 40
1
 40
1
 40
1
 10
63.591732
 20
138.522090
 30
0.0
 10
63.682878
 20
138.419557
 30
0.0
 10
63.766049
 20
138.331830
 30
0.0
 10
63.841244
 20
138.258910
 30
0.0
  0
SPLINE
  5
10b
100
AcDbEntity
  8
Ebene_1
 62
7
100
AcDbSpline
 70
8
 71
3
 72
8
 73
4
 74
0
 40
0
 40
0
 40
0
 40
0
 40
1
 40
1
 40
1
 40
1
 10
63.841244
 20
138.258910
 30
0.0
 10
63.875424
 20
138.322710
 30
0.0
 10
63.927833
 20
138.442340
 30
0.0
 10
63.998470
 20
138.617800
 30
0.0
  0
SPLINE
  5
10c
100
AcDbEntity
  8
Ebene_1
 62
7
100
AcDbSpline
 70
8
 71
3
 72
8
 73
4
 74
0
 40
0
 40
0
 40
0
 40
0
 40
1
 40
1
 40
1
 40
1
 10
63.998470
 20
138.617800
 30
0.0
 10
64.071387
 20
138.793253
 30
0.0
 10
64.138607
 20
138.919717
 30
0.0
 10
64.200130
 20
138.997190
 30
0.0
  0
SPLINE
  5
10d
100
AcDbEntity
  8
Ebene_1
 62
7
100
AcDbSpline
 70
8
 71
3
 72
8
 73
4
 74
0
 40
0
 40
0
 40
0
 40
0
 40
1
 40
1
 40
1
 40
1
 10
64.200130
 20
138.997190
 30
0.0
 10
64.263930
 20
139.074663
 30
0.0
 10
64.352797
 20
139.113400
 30
0.0
 10
64.466732
 20
139.113400
 30
0.0
  0
SPLINE
  5
10e
100
AcDbEntity
  8
Ebene_1
 62
7
100
AcDbSpline
 70
8
 71
3
 72
8
 73
4
 74
0
 40
0
 40
0
 40
0
 40
0
 40
1
 40
1
 40
1
 40
1
 10
64.466732
 20
139.113400
 30
0.0
 10
64.573829
 20
139.113400
 30
0.0
 10
64.668392
 20
139.074663
 30
0.0
 10
64.750423
 20
138.997190
 30
0.0
  0
SPLINE
  5
10f
100
AcDbEntity
  8
Ebene_1
 62
7
100
AcDbSpline
 70
8
 71
3
 72
8
 73
4
 74
0
 40
0
 40
0
 40
0
 40
0
 40
1
 40
1
 40
1
 40
1
 10
64.750423
 20
138.997190
 30
0.0
 10
64.832454
 20
138.921997
 30
0.0
 10
64.873470
 20
138.829713
 30
0.0
 10
64.873470
 20
138.720340
 30
0.0
  0
SPLINE
  5
110
100
AcDbEntity
  8
Ebene_1
 62
7
100
AcDbSpline
 70
8
 71
3
 72
8
 73
4
 74
0
 40
0
 40
0
 40
0
 40
0
 40
1
 40
1
 40
1
 40
1
 10
64.873470
 20
138.720340
 30
0.0
 10
64.873470
 20
138.620080
 30
0.0
 10
64.838151
 20
138.477663
 30
0.0
 10
64.767513
 20
138.293090
 30
0.0
  0
SPLINE
  5
111
100
AcDbEntity
  8
Ebene_1
 62
7
100
AcDbSpline
 70
8
 71
3
 72
8
 73
4
 74
0
 40
0
 40
0
 40
0
 40
0
 40
1
 40
1
 40
1
 40
1
 10
64.767513
 20
138.293090
 30
0.0
 10
64.696875
 20
138.110797
 30
0.0
 10
64.594336
 20
137.907997
 30
0.0
 10
64.459896
 20
137.684690
 30
0.0
  0
SPLINE
  5
112
100
AcDbEntity
  8
Ebene_1
 62
7
100
AcDbSpline
 70
8
 71
3
 72
8
 73
4
 74
0
 40
0
 40
0
 40
0
 40
0
 40
1
 40
1
 40
1
 40
1
 10
64.459896
 20
137.684690
 30
0.0
 10
64.544206
 20
137.611777
 30
0.0
 10
64.677507
 20
137.501263
 30
0.0
 10
64.859798
 20
137.353150
 30
0.0
  0
SPLINE
  5
113
100
AcDbEntity
  8
Ebene_1
 62
7
100
AcDbSpline
 70
8
 71
3
 72
8
 73
4
 74
0
 40
0
 40
0
 40
0
 40
0
 40
1
 40
1
 40
1
 40
1
 10
64.859798
 20
137.353150
 30
0.0
 10
65.044369
 20
137.205037
 30
0.0
 10
65.157162
 20
137.103637
 30
0.0
 10
65.198177
 20
137.048950
 30
0.0
  0
SPLINE
  5
114
100
AcDbEntity
  8
Ebene_1
 62
7
100
AcDbSpline
 70
8
 71
3
 72
8
 73
4
 74
0
 40
0
 40
0
 40
0
 40
0
 40
1
 40
1
 40
1
 40
1
 10
65.198177
 20
137.048950
 30
0.0
 10
65.241470
 20
136.996550
 30
0.0
 10
65.263117
 20
136.925913
 30
0.0
 10
65.263117
 20
136.837040
 30
0.0
  0
SPLINE
  5
115
100
AcDbEntity
  8
Ebene_1
 62
7
100
AcDbSpline
 70
8
 71
3
 72
8
 73
4
 74
0
 40
0
 40
0
 40
0
 40
0
 40
1
 40
1
 40
1
 40
1
 10
65.263117
 20
136.837040
 30
0.0
 10
65.263117
 20
136.718547
 30
0.0
 10
65.219823
 20
136.618283
 30
0.0
 10
65.133234
 20
136.536250
 30
0.0
  0
SPLINE
  5
116
100
AcDbEntity
  8
Ebene_1
 62
7
100
AcDbSpline
 70
8
 71
3
 72
8
 73
4
 74
0
 40
0
 40
0
 40
0
 40
0
 40
1
 40
1
 40
1
 40
1
 10
65.133234
 20
136.536250
 30
0.0
 10
65.048924
 20
136.456503
 30
0.0
 10
64.954360
 20
136.416630
 30
0.0
 10
64.849543
 20
136.416630
 30
0.0
  0
SPLINE
  5
117
100
AcDbEntity
  8
Ebene_1
 62
7
100
AcDbSpline
 70
8
 71
3
 72
8
 73
4
 74
0
 40
0
 40
0
 40
0
 40
0
 40
1
 40
1
 40
1
 40
1
 10
64.849543
 20
136.416630
 30
0.0
 10
64.742446
 20
136.416630
 30
0.0
 10
64.638768
 20
136.450810
 30
0.0
 10
64.538507
 20
136.519170
 30
0.0
  0
SPLINE
  5
118
100
AcDbEntity
  8
Ebene_1
 62
7
100
AcDbSpline
 70
8
 71
3
 72
8
 73
4
 74
0
 40
0
 40
0
 40
0
 40
0
 40
1
 40
1
 40
1
 40
1
 10
64.538507
 20
136.519170
 30
0.0
 10
64.438247
 20
136.587523
 30
0.0
 10
64.225194
 20
136.755003
 30
0.0
 10
63.899347
 20
137.021610
 30
0.0
  0
SPLINE
  5
119
100
AcDbEntity
  8
Ebene_1
 62
7
100
AcDbSpline
 70
8
 71
3
 72
8
 73
4
 74
0
 40
0
 40
0
 40
0
 40
0
 40
1
 40
1
 40
1
 40
1
 10
63.899347
 20
137.021610
 30
0.0
 10
63.751235
 20
136.882610
 30
0.0
 10
63.597426
 20
136.768677
 30
0.0
 10
63.437921
 20
136.679810
 30
0.0
  0
SPLINE
  5
11a
100
AcDbEntity
  8
Ebene_1
 62
7
100
AcDbSpline
 70
8
 71
3
 72
8
 73
4
 74
0
 40
0
 40
0
 40
0
 40
0
 40
1
 40
1
 40
1
 40
1
 10
63.437921
 20
136.679810
 30
0.0
 10
63.280695
 20
136.590943
 30
0.0
 10
63.110936
 20
136.524863
 30
0.0
 10
62.928644
 20
136.481570
 30
0.0
  0
SPLINE
  5
11b
100
AcDbEntity
  8
Ebene_1
 62
7
100
AcDbSpline
 70
8
 71
3
 72
8
 73
4
 74
0
 40
0
 40
0
 40
0
 40
0
 40
1
 40
1
 40
1
 40
1
 10
62.928644
 20
136.481570
 30
0.0
 10
62.748631
 20
136.438303
 30
0.0
 10
62.546971
 20
136.416670
 30
0.0
 10
62.323664
 20
136.416670
 30
0.0
  0
SPLINE
  5
11c
100
AcDbEntity
  8
Ebene_1
 62
7
100
AcDbSpline
 70
8
 71
3
 72
8
 73
4
 74
0
 40
0
 40
0
 40
0
 40
0
 40
1
 40
1
 40
1
 40
1
 10
62.323664
 20
136.416670
 30
0.0
 10
62.038833
 20
136.416670
 30
0.0
 10
61.782486
 20
136.457683
 30
0.0
 10
61.554621
 20
136.539710
 30
0.0
  0
SPLINE
  5
11d
100
AcDbEntity
  8
Ebene_1
 62
7
100
AcDbSpline
 70
8
 71
3
 72
8
 73
4
 74
0
 40
0
 40
0
 40
0
 40
0
 40
1
 40
1
 40
1
 40
1
 10
61.554621
 20
136.539710
 30
0.0
 10
61.329035
 20
136.624023
 30
0.0
 10
61.141047
 20
136.736817
 30
0.0
 10
60.990656
 20
136.878090
 30
0.0
  0
SPLINE
  5
11e
100
AcDbEntity
  8
Ebene_1
 62
7
100
AcDbSpline
 70
8
 71
3
 72
8
 73
4
 74
0
 40
0
 40
0
 40
0
 40
0
 40
1
 40
1
 40
1
 40
1
 10
60.990656
 20
136.878090
 30
0.0
 10
60.840265
 20
137.019370
 30
0.0
 10
60.728612
 20
137.175457
 30
0.0
 10
60.655695
 20
137.346350
 30
0.0
  0
SPLINE
  5
11f
100
AcDbEntity
  8
Ebene_1
 62
7
100
AcDbSpline
 70
8
 71
3
 72
8
 73
4
 74
0
 40
0
 40
0
 40
0
 40
0
 40
1
 40
1
 40
1
 40
1
 10
60.655695
 20
137.346350
 30
0.0
 10
60.582778
 20
137.519530
 30
0.0
 10
60.546320
 20
137.694987
 30
0.0
 10
60.546320
 20
137.872720
 30
0.0
  0
SPLINE
  5
120
100
AcDbEntity
  8
Ebene_1
 62
7
100
AcDbSpline
 70
8
 71
3
 72
8
 73
4
 74
0
 40
0
 40
0
 40
0
 40
0
 40
1
 40
1
 40
1
 40
1
 10
60.546320
 20
137.872720
 30
0.0
 10
60.546320
 20
138.043620
 30
0.0
 10
60.573663
 20
138.199707
 30
0.0
 10
60.628350
 20
138.340980
 30
0.0
  0
SPLINE
  5
121
100
AcDbEntity
  8
Ebene_1
 62
7
100
AcDbSpline
 70
8
 71
3
 72
8
 73
4
 74
0
 40
0
 40
0
 40
0
 40
0
 40
1
 40
1
 40
1
 40
1
 10
60.628350
 20
138.340980
 30
0.0
 10
60.683037
 20
138.484533
 30
0.0
 10
60.759371
 20
138.613277
 30
0.0
 10
60.857354
 20
138.727210
 30
0.0
  0
SPLINE
  5
122
100
AcDbEntity
  8
Ebene_1
 62
7
100
AcDbSpline
 70
8
 71
3
 72
8
 73
4
 74
0
 40
0
 40
0
 40
0
 40
0
 40
1
 40
1
 40
1
 40
1
 10
60.857354
 20
138.727210
 30
0.0
 10
60.957615
 20
138.843423
 30
0.0
 10
61.079522
 20
138.952800
 30
0.0
 10
61.223077
 20
139.055340
 30
0.0
  0
SPLINE
  5
123
100
AcDbEntity
  8
Ebene_1
 62
7
100
AcDbSpline
 70
8
 71
3
 72
8
 73
4
 74
0
 40
0
 40
0
 40
0
 40
0
 40
1
 40
1
 40
1
 40
1
 10
61.223077
 20
139.055340
 30
0.0
 10
61.368910
 20
139.160153
 30
0.0
 10
61.537530
 20
139.261553
 30
0.0
 10
61.728936
 20
139.359540
 30
0.0
  0
SPLINE
  5
124
100
AcDbEntity
  8
Ebene_1
 62
7
100
AcDbSpline
 70
8
 71
3
 72
8
 73
4
 74
0
 40
0
 40
0
 40
0
 40
0
 40
1
 40
1
 40
1
 40
1
 10
61.728936
 20
139.359540
 30
0.0
 10
61.558037
 20
139.573733
 30
0.0
 10
61.428155
 20
139.764000
 30
0.0
 10
61.339288
 20
139.930340
 30
0.0
  0
SPLINE
  5
125
100
AcDbEntity
  8
Ebene_1
 62
7
100
AcDbSpline
 70
8
 71
3
 72
8
 73
4
 74
0
 40
0
 40
0
 40
0
 40
0
 40
1
 40
1
 40
1
 40
1
 10
61.339288
 20
139.930340
 30
0.0
 10
61.252699
 20
140.098960
 30
0.0
 10
61.209405
 20
140.272137
 30
0.0
 10
61.209405
 20
140.449870
 30
0.0
  0
SPLINE
  5
126
100
AcDbEntity
  8
Ebene_1
 62
7
100
AcDbSpline
 70
8
 71
3
 72
8
 73
4
 74
0
 40
0
 40
0
 40
0
 40
0
 40
1
 40
1
 40
1
 40
1
 10
62.176693
 20
138.812620
 30
0.0
 10
61.944271
 20
138.678180
 30
0.0
 10
61.769955
 20
138.543740
 30
0.0
 10
61.653744
 20
138.409300
 30
0.0
  0
SPLINE
  5
127
100
AcDbEntity
  8
Ebene_1
 62
7
100
AcDbSpline
 70
8
 71
3
 72
8
 73
4
 74
0
 40
0
 40
0
 40
0
 40
0
 40
1
 40
1
 40
1
 40
1
 10
61.653744
 20
138.409300
 30
0.0
 10
61.539811
 20
138.274860
 30
0.0
 10
61.482845
 20
138.115357
 30
0.0
 10
61.482845
 20
137.930790
 30
0.0
  0
SPLINE
  5
128
100
AcDbEntity
  8
Ebene_1
 62
7
100
AcDbSpline
 70
8
 71
3
 72
8
 73
4
 74
0
 40
0
 40
0
 40
0
 40
0
 40
1
 40
1
 40
1
 40
1
 10
61.482845
 20
137.930790
 30
0.0
 10
61.482845
 20
137.825970
 30
0.0
 10
61.503352
 20
137.725707
 30
0.0
 10
61.544365
 20
137.630000
 30
0.0
  0
SPLINE
  5
129
100
AcDbEntity
  8
Ebene_1
 62
7
100
AcDbSpline
 70
8
 71
3
 72
8
 73
4
 74
0
 40
0
 40
0
 40
0
 40
0
 40
1
 40
1
 40
1
 40
1
 10
61.544365
 20
137.630000
 30
0.0
 10
61.587658
 20
137.534300
 30
0.0
 10
61.649182
 20
137.445433
 30
0.0
 10
61.728935
 20
137.363400
 30
0.0
  0
SPLINE
  5
12a
100
AcDbEntity
  8
Ebene_1
 62
7
100
AcDbSpline
 70
8
 71
3
 72
8
 73
4
 74
0
 40
0
 40
0
 40
0
 40
0
 40
1
 40
1
 40
1
 40
1
 10
61.728935
 20
137.363400
 30
0.0
 10
61.810966
 20
137.281373
 30
0.0
 10
61.905530
 20
137.218713
 30
0.0
 10
62.012626
 20
137.175420
 30
0.0
  0
SPLINE
  5
12b
100
AcDbEntity
  8
Ebene_1
 62
7
100
AcDbSpline
 70
8
 71
3
 72
8
 73
4
 74
0
 40
0
 40
0
 40
0
 40
0
 40
1
 40
1
 40
1
 40
1
 10
62.012626
 20
137.175420
 30
0.0
 10
62.119723
 20
137.132087
 30
0.0
 10
62.232516
 20
137.110420
 30
0.0
 10
62.351005
 20
137.110420
 30
0.0
  0
SPLINE
  5
12c
100
AcDbEntity
  8
Ebene_1
 62
7
100
AcDbSpline
 70
8
 71
3
 72
8
 73
4
 74
0
 40
0
 40
0
 40
0
 40
0
 40
1
 40
1
 40
1
 40
1
 10
62.351005
 20
137.110420
 30
0.0
 10
62.467216
 20
137.110420
 30
0.0
 10
62.580009
 20
137.128653
 30
0.0
 10
62.689384
 20
137.165120
 30
0.0
  0
SPLINE
  5
12d
100
AcDbEntity
  8
Ebene_1
 62
7
100
AcDbSpline
 70
8
 71
3
 72
8
 73
4
 74
0
 40
0
 40
0
 40
0
 40
0
 40
1
 40
1
 40
1
 40
1
 10
62.689384
 20
137.165120
 30
0.0
 10
62.798759
 20
137.201587
 30
0.0
 10
62.902438
 20
137.252857
 30
0.0
 10
63.000419
 20
137.318930
 30
0.0
  0
SPLINE
  5
12e
100
AcDbEntity
  8
Ebene_1
 62
7
100
AcDbSpline
 70
8
 71
3
 72
8
 73
4
 74
0
 40
0
 40
0
 40
0
 40
0
 40
1
 40
1
 40
1
 40
1
 10
63.000419
 20
137.318930
 30
0.0
 10
63.098401
 20
137.387290
 30
0.0
 10
63.199801
 20
137.471600
 30
0.0
 10
63.304619
 20
137.571860
 30
0.0
  0
SPLINE
  5
12f
100
AcDbEntity
  8
Ebene_1
 62
7
100
AcDbSpline
 70
8
 71
3
 72
8
 73
4
 74
0
 40
0
 40
0
 40
0
 40
0
 40
1
 40
1
 40
1
 40
1
 10
63.304619
 20
137.571860
 30
0.0
 10
63.101819
 20
137.758707
 30
0.0
 10
62.919527
 20
137.943277
 30
0.0
 10
62.757744
 20
138.125570
 30
0.0
  0
SPLINE
  5
130
100
AcDbEntity
  8
Ebene_1
 62
7
100
AcDbSpline
 70
8
 71
3
 72
8
 73
4
 74
0
 40
0
 40
0
 40
0
 40
0
 40
1
 40
1
 40
1
 40
1
 10
62.757744
 20
138.125570
 30
0.0
 10
62.595960
 20
138.310143
 30
0.0
 10
62.402275
 20
138.539147
 30
0.0
 10
62.176689
 20
138.812580
 30
0.0
  0
LWPOLYLINE
  5
131
100
AcDbEntity
  8
Ebene_1
 62
7
100
AcDbPolyline
 90
1
 70
1
 10
61.209405
 20
140.449870
 30
0.0
  0
SPLINE
  5
132
100
AcDbEntity
  8
Ebene_1
 62
7
100
AcDbSpline
 70
8
 71
3
 72
8
 73
4
 74
0
 40
0
 40
0
 40
0
 40
0
 40
1
 40
1
 40
1
 40
1
 10
62.525326
 20
139.749150
 30
0.0
 10
62.757748
 20
139.897257
 30
0.0
 10
62.925228
 20
140.021440
 30
0.0
 10
63.027767
 20
140.121700
 30
0.0
  0
SPLINE
  5
133
100
AcDbEntity
  8
Ebene_1
 62
7
100
AcDbSpline
 70
8
 71
3
 72
8
 73
4
 74
0
 40
0
 40
0
 40
0
 40
0
 40
1
 40
1
 40
1
 40
1
 10
63.027767
 20
140.121700
 30
0.0
 10
63.132585
 20
140.224240
 30
0.0
 10
63.184994
 20
140.347287
 30
0.0
 10
63.184994
 20
140.490840
 30
0.0
  0
SPLINE
  5
134
100
AcDbEntity
  8
Ebene_1
 62
7
100
AcDbSpline
 70
8
 71
3
 72
8
 73
4
 74
0
 40
0
 40
0
 40
0
 40
0
 40
1
 40
1
 40
1
 40
1
 10
63.184994
 20
140.490840
 30
0.0
 10
63.184994
 20
140.632120
 30
0.0
 10
63.132585
 20
140.750610
 30
0.0
 10
63.027767
 20
140.846310
 30
0.0
  0
SPLINE
  5
135
100
AcDbEntity
  8
Ebene_1
 62
7
100
AcDbSpline
 70
8
 71
3
 72
8
 73
4
 74
0
 40
0
 40
0
 40
0
 40
0
 40
1
 40
1
 40
1
 40
1
 10
63.027767
 20
140.846310
 30
0.0
 10
62.925228
 20
140.942017
 30
0.0
 10
62.795346
 20
140.989870
 30
0.0
 10
62.638119
 20
140.989870
 30
0.0
  0
SPLINE
  5
136
100
AcDbEntity
  8
Ebene_1
 62
7
100
AcDbSpline
 70
8
 71
3
 72
8
 73
4
 74
0
 40
0
 40
0
 40
0
 40
0
 40
1
 40
1
 40
1
 40
1
 10
62.638119
 20
140.989870
 30
0.0
 10
62.480892
 20
140.989870
 30
0.0
 10
62.348731
 20
140.940880
 30
0.0
 10
62.241634
 20
140.842900
 30
0.0
  0
SPLINE
  5
137
100
AcDbEntity
  8
Ebene_1
 62
7
100
AcDbSpline
 70
8
 71
3
 72
8
 73
4
 74
0
 40
0
 40
0
 40
0
 40
0
 40
1
 40
1
 40
1
 40
1
 10
62.241634
 20
140.842900
 30
0.0
 10
62.136817
 20
140.744913
 30
0.0
 10
62.084408
 20
140.629840
 30
0.0
 10
62.084408
 20
140.497680
 30
0.0
  0
SPLINE
  5
138
100
AcDbEntity
  8
Ebene_1
 62
7
100
AcDbSpline
 70
8
 71
3
 72
8
 73
4
 74
0
 40
0
 40
0
 40
0
 40
0
 40
1
 40
1
 40
1
 40
1
 10
62.084408
 20
140.497680
 30
0.0
 10
62.084408
 20
140.429320
 30
0.0
 10
62.103775
 20
140.355263
 30
0.0
 10
62.142508
 20
140.275510
 30
0.0
  0
SPLINE
  5
139
100
AcDbEntity
  8
Ebene_1
 62
7
100
AcDbSpline
 70
8
 71
3
 72
8
 73
4
 74
0
 40
0
 40
0
 40
0
 40
0
 40
1
 40
1
 40
1
 40
1
 10
62.142508
 20
140.275510
 30
0.0
 10
62.183521
 20
140.198037
 30
0.0
 10
62.233652
 20
140.120563
 30
0.0
 10
62.292899
 20
140.043090
 30
0.0
  0
SPLINE
  5
13a
100
AcDbEntity
  8
Ebene_1
 62
7
100
AcDbSpline
 70
8
 71
3
 72
8
 73
4
 74
0
 40
0
 40
0
 40
0
 40
0
 40
1
 40
1
 40
1
 40
1
 10
62.292899
 20
140.043090
 30
0.0
 10
62.352146
 20
139.965617
 30
0.0
 10
62.429620
 20
139.867637
 30
0.0
 10
62.525321
 20
139.749150
 30
0.0
  0
LWPOLYLINE
  5
13b
100
AcDbEntity
  8
Ebene_1
 62
7
100
AcDbPolyline
 90
1
 70
1
 10
62.176689
 20
138.812580
 30
0.0
  0
LWPOLYLINE
  5
13c
100
AcDbEntity
  8
Ebene_1
 62
7
100
AcDbPolyline
 90
1
 70
1
 10
62.525321
 20
139.749150
 30
0.0
  0
ENDSEC
  0
SECTION
  2
OBJECTS
  0
DICTIONARY
  5
C
330
0
100
AcDbDictionary
  3
ACAD_GROUP
350
D
  3
ACAD_MLINESTYLE
350
17
  0
DICTIONARY
  5
D
330
C
100
AcDbDictionary
  0
DICTIONARY
  5
1A
330
C
100
AcDbDictionary
  0
DICTIONARY
  5
17
330
C
100
AcDbDictionary
  3
STANDARD
350
18
  0
DICTIONARY
  5
19
330
C
100
AcDbDictionary
  0
ENDSEC
  0
EOF
