ISO-10303-21;
HEADER;
FILE_DESCRIPTION( ( 'Unknown' ), '1' );
FILE_NAME( 'E:/CAD/Gr\X2\00FC\X0\nbeck/21045_RO/Rohrleitungsteile/PE/Fittings/PE_stumpf/Winkel/SDR_11/Testteil.stp', 'Unknown', ( 'Unknown' ), ( 'Unknown' ), 'PSStep 17.0.49', 'Unknown', '  ' );
FILE_SCHEMA( ( 'AUTOMOTIVE_DESIGN { 1 0 10303 214 1 1 1 1 }' ) );
ENDSEC;
DATA;
#1 = MECHANICAL_DESIGN_GEOMETRIC_PRESENTATION_REPRESENTATION( ' ', ( #10, #11, #12, #13, #14, #15, #16, #17, #18, #19, #20, #21, #22, #23, #24, #25 ), #6 );
#2 = PRODUCT_DEFINITION_CONTEXT( '', #26, 'design' );
#3 = APPLICATION_PROTOCOL_DEFINITION( 'international standard', 'automotive_design', 2001, #26 );
#4 = PRODUCT_CATEGORY_RELATIONSHIP( 'NONE', 'NONE', #27, #28 );
#5 = SHAPE_DEFINITION_REPRESENTATION( #29, #30 );
#6 =  ( GEOMETRIC_REPRESENTATION_CONTEXT( 3 )GLOBAL_UNCERTAINTY_ASSIGNED_CONTEXT( ( #33 ) )GLOBAL_UNIT_ASSIGNED_CONTEXT( ( #35, #36, #37 ) )REPRESENTATION_CONTEXT( 'NONE', 'WORKSPACE' ) );
#10 = STYLED_ITEM( '', ( #39 ), #40 );
#11 = STYLED_ITEM( '', ( #41 ), #42 );
#12 = STYLED_ITEM( '', ( #43 ), #44 );
#13 = STYLED_ITEM( '', ( #45 ), #46 );
#14 = STYLED_ITEM( '', ( #47 ), #48 );
#15 = STYLED_ITEM( '', ( #49 ), #50 );
#16 = STYLED_ITEM( '', ( #51 ), #52 );
#17 = STYLED_ITEM( '', ( #53 ), #54 );
#18 = STYLED_ITEM( '', ( #55 ), #56 );
#19 = STYLED_ITEM( '', ( #57 ), #58 );
#20 = STYLED_ITEM( '', ( #59 ), #60 );
#21 = STYLED_ITEM( '', ( #61 ), #62 );
#22 = STYLED_ITEM( '', ( #63 ), #64 );
#23 = STYLED_ITEM( '', ( #65 ), #66 );
#24 = STYLED_ITEM( '', ( #67 ), #68 );
#25 = STYLED_ITEM( '', ( #69 ), #70 );
#26 = APPLICATION_CONTEXT( 'core data for automotive mechanical design processes' );
#27 = PRODUCT_CATEGORY( 'part', 'NONE' );
#28 = PRODUCT_RELATED_PRODUCT_CATEGORY( 'detail', ' ', ( #71 ) );
#29 = PRODUCT_DEFINITION_SHAPE( 'NONE', 'NONE', #72 );
#30 = ADVANCED_BREP_SHAPE_REPRESENTATION( '1', ( #73, #74 ), #6 );
#33 = UNCERTAINTY_MEASURE_WITH_UNIT( LENGTH_MEASURE( 0.00100000000000000 ), #35, '', '' );
#35 =  ( CONVERSION_BASED_UNIT( 'MILLIMETRE', #77 )LENGTH_UNIT(  )NAMED_UNIT( #80 ) );
#36 =  ( NAMED_UNIT( #82 )PLANE_ANGLE_UNIT(  )SI_UNIT( $, .RADIAN. ) );
#37 =  ( NAMED_UNIT( #82 )SI_UNIT( $, .STERADIAN. )SOLID_ANGLE_UNIT(  ) );
#39 = PRESENTATION_STYLE_ASSIGNMENT( ( #88 ) );
#40 = ADVANCED_FACE( '', ( #89, #90 ), #91, .T. );
#41 = PRESENTATION_STYLE_ASSIGNMENT( ( #92 ) );
#42 = ADVANCED_FACE( '', ( #93, #94 ), #95, .T. );
#43 = PRESENTATION_STYLE_ASSIGNMENT( ( #96 ) );
#44 = ADVANCED_FACE( '', ( #97, #98 ), #99, .F. );
#45 = PRESENTATION_STYLE_ASSIGNMENT( ( #100 ) );
#46 = ADVANCED_FACE( '', ( #101, #102 ), #103, .T. );
#47 = PRESENTATION_STYLE_ASSIGNMENT( ( #104 ) );
#48 = ADVANCED_FACE( '', ( #105, #106 ), #107, .T. );
#49 = PRESENTATION_STYLE_ASSIGNMENT( ( #108 ) );
#50 = EDGE_CURVE( '', #109, #109, #110, .T. );
#51 = PRESENTATION_STYLE_ASSIGNMENT( ( #111 ) );
#52 = EDGE_CURVE( '', #112, #112, #113, .T. );
#53 = PRESENTATION_STYLE_ASSIGNMENT( ( #114 ) );
#54 = EDGE_CURVE( '', #115, #115, #116, .T. );
#55 = PRESENTATION_STYLE_ASSIGNMENT( ( #117 ) );
#56 = EDGE_CURVE( '', #118, #118, #119, .T. );
#57 = PRESENTATION_STYLE_ASSIGNMENT( ( #120 ) );
#58 = EDGE_CURVE( '', #121, #121, #122, .T. );
#59 = PRESENTATION_STYLE_ASSIGNMENT( ( #123 ) );
#60 = ADVANCED_FACE( '', ( #124, #125 ), #126, .F. );
#61 = PRESENTATION_STYLE_ASSIGNMENT( ( #127 ) );
#62 = EDGE_CURVE( '', #128, #128, #129, .T. );
#63 = PRESENTATION_STYLE_ASSIGNMENT( ( #130 ) );
#64 = EDGE_CURVE( '', #131, #131, #132, .T. );
#65 = PRESENTATION_STYLE_ASSIGNMENT( ( #133 ) );
#66 = EDGE_CURVE( '', #134, #134, #135, .T. );
#67 = PRESENTATION_STYLE_ASSIGNMENT( ( #136 ) );
#68 = ADVANCED_FACE( '', ( #137, #138 ), #139, .T. );
#69 = PRESENTATION_STYLE_ASSIGNMENT( ( #140 ) );
#70 = ADVANCED_FACE( '', ( #141, #142 ), #143, .F. );
#71 = PRODUCT( '1', '1', 'PART-1-DESC', ( #144 ) );
#72 = PRODUCT_DEFINITION( 'NONE', 'NONE', #145, #2 );
#73 = MANIFOLD_SOLID_BREP( '1', #146 );
#74 = AXIS2_PLACEMENT_3D( '', #147, #148, #149 );
#77 = LENGTH_MEASURE_WITH_UNIT( LENGTH_MEASURE( 1.00000000000000 ), #150 );
#80 = DIMENSIONAL_EXPONENTS( 1.00000000000000, 0.000000000000000, 0.000000000000000, 0.000000000000000, 0.000000000000000, 0.000000000000000, 0.000000000000000 );
#82 = DIMENSIONAL_EXPONENTS( 0.000000000000000, 0.000000000000000, 0.000000000000000, 0.000000000000000, 0.000000000000000, 0.000000000000000, 0.000000000000000 );
#88 = SURFACE_STYLE_USAGE( .BOTH., #151 );
#89 = FACE_OUTER_BOUND( '', #152, .T. );
#90 = FACE_OUTER_BOUND( '', #153, .T. );
#91 = CYLINDRICAL_SURFACE( '', #154, 25.0000000000000 );
#92 = SURFACE_STYLE_USAGE( .BOTH., #155 );
#93 = FACE_OUTER_BOUND( '', #156, .T. );
#94 = FACE_OUTER_BOUND( '', #157, .T. );
#95 = TOROIDAL_SURFACE( '', #158, 37.0000000000000, 25.0000000000000 );
#96 = SURFACE_STYLE_USAGE( .BOTH., #159 );
#97 = FACE_OUTER_BOUND( '', #160, .T. );
#98 = FACE_OUTER_BOUND( '', #161, .T. );
#99 = TOROIDAL_SURFACE( '', #162, 37.0000000000000, 20.4000000000000 );
#100 = SURFACE_STYLE_USAGE( .BOTH., #163 );
#101 = FACE_OUTER_BOUND( '', #164, .T. );
#102 = FACE_BOUND( '', #165, .T. );
#103 = PLANE( '', #166 );
#104 = SURFACE_STYLE_USAGE( .BOTH., #167 );
#105 = FACE_OUTER_BOUND( '', #168, .T. );
#106 = FACE_OUTER_BOUND( '', #169, .T. );
#107 = CYLINDRICAL_SURFACE( '', #170, 25.0000000000000 );
#108 = CURVE_STYLE( '', #171, POSITIVE_LENGTH_MEASURE( 1.00000000000000E-006 ), #172 );
#109 = VERTEX_POINT( '', #173 );
#110 = CIRCLE( '', #174, 25.0000000000000 );
#111 = CURVE_STYLE( '', #175, POSITIVE_LENGTH_MEASURE( 1.00000000000000E-006 ), #176 );
#112 = VERTEX_POINT( '', #177 );
#113 = CIRCLE( '', #178, 20.4000000000000 );
#114 = CURVE_STYLE( '', #179, POSITIVE_LENGTH_MEASURE( 1.00000000000000E-006 ), #180 );
#115 = VERTEX_POINT( '', #181 );
#116 = CIRCLE( '', #182, 20.4000000000000 );
#117 = CURVE_STYLE( '', #183, POSITIVE_LENGTH_MEASURE( 1.00000000000000E-006 ), #184 );
#118 = VERTEX_POINT( '', #185 );
#119 = CIRCLE( '', #186, 25.0000000000000 );
#120 = CURVE_STYLE( '', #187, POSITIVE_LENGTH_MEASURE( 1.00000000000000E-006 ), #188 );
#121 = VERTEX_POINT( '', #189 );
#122 = CIRCLE( '', #190, 20.4000000000000 );
#123 = SURFACE_STYLE_USAGE( .BOTH., #191 );
#124 = FACE_OUTER_BOUND( '', #192, .T. );
#125 = FACE_OUTER_BOUND( '', #193, .T. );
#126 = CYLINDRICAL_SURFACE( '', #194, 20.4000000000000 );
#127 = CURVE_STYLE( '', #195, POSITIVE_LENGTH_MEASURE( 1.00000000000000E-006 ), #196 );
#128 = VERTEX_POINT( '', #197 );
#129 = CIRCLE( '', #198, 25.0000000000000 );
#130 = CURVE_STYLE( '', #199, POSITIVE_LENGTH_MEASURE( 1.00000000000000E-006 ), #200 );
#131 = VERTEX_POINT( '', #201 );
#132 = CIRCLE( '', #202, 25.0000000000000 );
#133 = CURVE_STYLE( '', #203, POSITIVE_LENGTH_MEASURE( 1.00000000000000E-006 ), #204 );
#134 = VERTEX_POINT( '', #205 );
#135 = CIRCLE( '', #206, 20.4000000000000 );
#136 = SURFACE_STYLE_USAGE( .BOTH., #207 );
#137 = FACE_OUTER_BOUND( '', #208, .T. );
#138 = FACE_BOUND( '', #209, .T. );
#139 = PLANE( '', #210 );
#140 = SURFACE_STYLE_USAGE( .BOTH., #211 );
#141 = FACE_OUTER_BOUND( '', #212, .T. );
#142 = FACE_OUTER_BOUND( '', #213, .T. );
#143 = CYLINDRICAL_SURFACE( '', #214, 20.4000000000000 );
#144 = PRODUCT_CONTEXT( '', #26, 'mechanical' );
#145 = PRODUCT_DEFINITION_FORMATION_WITH_SPECIFIED_SOURCE( ' ', 'NONE', #71, .NOT_KNOWN. );
#146 = CLOSED_SHELL( '', ( #44, #48, #42, #70, #68, #46, #60, #40 ) );
#147 = CARTESIAN_POINT( '', ( 0.000000000000000, 0.000000000000000, 0.000000000000000 ) );
#148 = DIRECTION( '', ( 0.000000000000000, 0.000000000000000, 1.00000000000000 ) );
#149 = DIRECTION( '', ( 1.00000000000000, 0.000000000000000, 0.000000000000000 ) );
#150 =  ( LENGTH_UNIT(  )NAMED_UNIT( #80 )SI_UNIT( .MILLI., .METRE. ) );
#151 = SURFACE_SIDE_STYLE( '', ( #216 ) );
#152 = EDGE_LOOP( '', ( #217 ) );
#153 = EDGE_LOOP( '', ( #218 ) );
#154 = AXIS2_PLACEMENT_3D( '', #219, #220, #221 );
#155 = SURFACE_SIDE_STYLE( '', ( #222 ) );
#156 = EDGE_LOOP( '', ( #223 ) );
#157 = EDGE_LOOP( '', ( #224 ) );
#158 = AXIS2_PLACEMENT_3D( '', #225, #226, #227 );
#159 = SURFACE_SIDE_STYLE( '', ( #228 ) );
#160 = EDGE_LOOP( '', ( #229 ) );
#161 = EDGE_LOOP( '', ( #230 ) );
#162 = AXIS2_PLACEMENT_3D( '', #231, #232, #233 );
#163 = SURFACE_SIDE_STYLE( '', ( #234 ) );
#164 = EDGE_LOOP( '', ( #235 ) );
#165 = EDGE_LOOP( '', ( #236 ) );
#166 = AXIS2_PLACEMENT_3D( '', #237, #238, #239 );
#167 = SURFACE_SIDE_STYLE( '', ( #240 ) );
#168 = EDGE_LOOP( '', ( #241 ) );
#169 = EDGE_LOOP( '', ( #242 ) );
#170 = AXIS2_PLACEMENT_3D( '', #243, #244, #245 );
#171 = DRAUGHTING_PRE_DEFINED_CURVE_FONT( 'continuous' );
#172 = COLOUR_RGB( '', 0.247058823704720, 0.247058823704720, 0.247058823704720 );
#173 = CARTESIAN_POINT( '', ( 58.0000000000000, 0.000000000000000, 83.0000000000000 ) );
#174 = AXIS2_PLACEMENT_3D( '', #246, #247, #248 );
#175 = DRAUGHTING_PRE_DEFINED_CURVE_FONT( 'continuous' );
#176 = COLOUR_RGB( '', 0.247058823704720, 0.247058823704720, 0.247058823704720 );
#177 = CARTESIAN_POINT( '', ( -20.4000000000000, 0.000000000000000, 21.0000000000000 ) );
#178 = AXIS2_PLACEMENT_3D( '', #249, #250, #251 );
#179 = DRAUGHTING_PRE_DEFINED_CURVE_FONT( 'continuous' );
#180 = COLOUR_RGB( '', 0.247058823704720, 0.247058823704720, 0.247058823704720 );
#181 = CARTESIAN_POINT( '', ( 58.0000000000000, 0.000000000000000, 78.4000000000000 ) );
#182 = AXIS2_PLACEMENT_3D( '', #252, #253, #254 );
#183 = DRAUGHTING_PRE_DEFINED_CURVE_FONT( 'continuous' );
#184 = COLOUR_RGB( '', 0.247058823704720, 0.247058823704720, 0.247058823704720 );
#185 = CARTESIAN_POINT( '', ( -25.0000000000000, 0.000000000000000, 0.000000000000000 ) );
#186 = AXIS2_PLACEMENT_3D( '', #255, #256, #257 );
#187 = DRAUGHTING_PRE_DEFINED_CURVE_FONT( 'continuous' );
#188 = COLOUR_RGB( '', 0.247058823704720, 0.247058823704720, 0.247058823704720 );
#189 = CARTESIAN_POINT( '', ( 37.0000000000000, 0.000000000000000, 78.4000000000000 ) );
#190 = AXIS2_PLACEMENT_3D( '', #258, #259, #260 );
#191 = SURFACE_SIDE_STYLE( '', ( #261 ) );
#192 = EDGE_LOOP( '', ( #262 ) );
#193 = EDGE_LOOP( '', ( #263 ) );
#194 = AXIS2_PLACEMENT_3D( '', #264, #265, #266 );
#195 = DRAUGHTING_PRE_DEFINED_CURVE_FONT( 'continuous' );
#196 = COLOUR_RGB( '', 0.247058823704720, 0.247058823704720, 0.247058823704720 );
#197 = CARTESIAN_POINT( '', ( -25.0000000000000, 0.000000000000000, 21.0000000000000 ) );
#198 = AXIS2_PLACEMENT_3D( '', #267, #268, #269 );
#199 = DRAUGHTING_PRE_DEFINED_CURVE_FONT( 'continuous' );
#200 = COLOUR_RGB( '', 0.247058823704720, 0.247058823704720, 0.247058823704720 );
#201 = CARTESIAN_POINT( '', ( 37.0000000000000, 0.000000000000000, 83.0000000000000 ) );
#202 = AXIS2_PLACEMENT_3D( '', #270, #271, #272 );
#203 = DRAUGHTING_PRE_DEFINED_CURVE_FONT( 'continuous' );
#204 = COLOUR_RGB( '', 0.247058823704720, 0.247058823704720, 0.247058823704720 );
#205 = CARTESIAN_POINT( '', ( -20.4000000000000, 0.000000000000000, 0.000000000000000 ) );
#206 = AXIS2_PLACEMENT_3D( '', #273, #274, #275 );
#207 = SURFACE_SIDE_STYLE( '', ( #276 ) );
#208 = EDGE_LOOP( '', ( #277 ) );
#209 = EDGE_LOOP( '', ( #278 ) );
#210 = AXIS2_PLACEMENT_3D( '', #279, #280, #281 );
#211 = SURFACE_SIDE_STYLE( '', ( #282 ) );
#212 = EDGE_LOOP( '', ( #283 ) );
#213 = EDGE_LOOP( '', ( #284 ) );
#214 = AXIS2_PLACEMENT_3D( '', #285, #286, #287 );
#216 = SURFACE_STYLE_FILL_AREA( #288 );
#217 = ORIENTED_EDGE( '', *, *, #50, .F. );
#218 = ORIENTED_EDGE( '', *, *, #64, .F. );
#219 = CARTESIAN_POINT( '', ( 47.5000000000000, 0.000000000000000, 58.0000000000000 ) );
#220 = DIRECTION( '', ( -1.00000000000000, -0.000000000000000, 0.000000000000000 ) );
#221 = DIRECTION( '', ( 0.000000000000000, 0.000000000000000, 1.00000000000000 ) );
#222 = SURFACE_STYLE_FILL_AREA( #289 );
#223 = ORIENTED_EDGE( '', *, *, #62, .T. );
#224 = ORIENTED_EDGE( '', *, *, #64, .T. );
#225 = CARTESIAN_POINT( '', ( 37.0000000000000, 1.31141300076243E-015, 21.0000000000000 ) );
#226 = DIRECTION( '', ( -0.000000000000000, 1.00000000000000, 0.000000000000000 ) );
#227 = DIRECTION( '', ( 1.00000000000000, 0.000000000000000, 0.000000000000000 ) );
#228 = SURFACE_STYLE_FILL_AREA( #290 );
#229 = ORIENTED_EDGE( '', *, *, #58, .F. );
#230 = ORIENTED_EDGE( '', *, *, #52, .F. );
#231 = CARTESIAN_POINT( '', ( 37.0000000000000, 1.09415857110637E-014, 21.0000000000000 ) );
#232 = DIRECTION( '', ( -0.000000000000000, 1.00000000000000, 0.000000000000000 ) );
#233 = DIRECTION( '', ( 1.00000000000000, 0.000000000000000, 0.000000000000000 ) );
#234 = SURFACE_STYLE_FILL_AREA( #291 );
#235 = ORIENTED_EDGE( '', *, *, #56, .T. );
#236 = ORIENTED_EDGE( '', *, *, #66, .T. );
#237 = CARTESIAN_POINT( '', ( 0.000000000000000, 0.000000000000000, 0.000000000000000 ) );
#238 = DIRECTION( '', ( 0.000000000000000, 0.000000000000000, -1.00000000000000 ) );
#239 = DIRECTION( '', ( 0.000000000000000, -1.00000000000000, 0.000000000000000 ) );
#240 = SURFACE_STYLE_FILL_AREA( #292 );
#241 = ORIENTED_EDGE( '', *, *, #62, .F. );
#242 = ORIENTED_EDGE( '', *, *, #56, .F. );
#243 = CARTESIAN_POINT( '', ( 0.000000000000000, 0.000000000000000, 10.5000000000000 ) );
#244 = DIRECTION( '', ( -0.000000000000000, -0.000000000000000, -1.00000000000000 ) );
#245 = DIRECTION( '', ( -1.00000000000000, 0.000000000000000, 0.000000000000000 ) );
#246 = CARTESIAN_POINT( '', ( 58.0000000000000, 0.000000000000000, 58.0000000000000 ) );
#247 = DIRECTION( '', ( 1.00000000000000, 0.000000000000000, -0.000000000000000 ) );
#248 = DIRECTION( '', ( 0.000000000000000, 0.000000000000000, 1.00000000000000 ) );
#249 = CARTESIAN_POINT( '', ( 0.000000000000000, 0.000000000000000, 21.0000000000000 ) );
#250 = DIRECTION( '', ( 0.000000000000000, 0.000000000000000, 1.00000000000000 ) );
#251 = DIRECTION( '', ( -1.00000000000000, 0.000000000000000, 0.000000000000000 ) );
#252 = CARTESIAN_POINT( '', ( 58.0000000000000, 0.000000000000000, 58.0000000000000 ) );
#253 = DIRECTION( '', ( -1.00000000000000, 0.000000000000000, 0.000000000000000 ) );
#254 = DIRECTION( '', ( 0.000000000000000, 0.000000000000000, 1.00000000000000 ) );
#255 = CARTESIAN_POINT( '', ( 0.000000000000000, 0.000000000000000, 0.000000000000000 ) );
#256 = DIRECTION( '', ( 0.000000000000000, 0.000000000000000, -1.00000000000000 ) );
#257 = DIRECTION( '', ( -1.00000000000000, 0.000000000000000, 0.000000000000000 ) );
#258 = CARTESIAN_POINT( '', ( 37.0000000000000, 0.000000000000000, 58.0000000000000 ) );
#259 = DIRECTION( '', ( -1.00000000000000, 0.000000000000000, 0.000000000000000 ) );
#260 = DIRECTION( '', ( 0.000000000000000, 0.000000000000000, 1.00000000000000 ) );
#261 = SURFACE_STYLE_FILL_AREA( #293 );
#262 = ORIENTED_EDGE( '', *, *, #66, .F. );
#263 = ORIENTED_EDGE( '', *, *, #52, .T. );
#264 = CARTESIAN_POINT( '', ( 0.000000000000000, 0.000000000000000, 10.5000000000000 ) );
#265 = DIRECTION( '', ( -0.000000000000000, -0.000000000000000, -1.00000000000000 ) );
#266 = DIRECTION( '', ( -1.00000000000000, 0.000000000000000, 0.000000000000000 ) );
#267 = CARTESIAN_POINT( '', ( 0.000000000000000, 0.000000000000000, 21.0000000000000 ) );
#268 = DIRECTION( '', ( 0.000000000000000, 0.000000000000000, 1.00000000000000 ) );
#269 = DIRECTION( '', ( -1.00000000000000, 0.000000000000000, 0.000000000000000 ) );
#270 = CARTESIAN_POINT( '', ( 37.0000000000000, 0.000000000000000, 58.0000000000000 ) );
#271 = DIRECTION( '', ( -1.00000000000000, 0.000000000000000, 0.000000000000000 ) );
#272 = DIRECTION( '', ( 0.000000000000000, 0.000000000000000, 1.00000000000000 ) );
#273 = CARTESIAN_POINT( '', ( 0.000000000000000, 0.000000000000000, 0.000000000000000 ) );
#274 = DIRECTION( '', ( 0.000000000000000, 0.000000000000000, 1.00000000000000 ) );
#275 = DIRECTION( '', ( -1.00000000000000, 0.000000000000000, 0.000000000000000 ) );
#276 = SURFACE_STYLE_FILL_AREA( #294 );
#277 = ORIENTED_EDGE( '', *, *, #50, .T. );
#278 = ORIENTED_EDGE( '', *, *, #54, .T. );
#279 = CARTESIAN_POINT( '', ( 58.0000000000000, 0.000000000000000, 58.0000000000000 ) );
#280 = DIRECTION( '', ( 1.00000000000000, 0.000000000000000, 0.000000000000000 ) );
#281 = DIRECTION( '', ( 0.000000000000000, 1.00000000000000, 0.000000000000000 ) );
#282 = SURFACE_STYLE_FILL_AREA( #295 );
#283 = ORIENTED_EDGE( '', *, *, #58, .T. );
#284 = ORIENTED_EDGE( '', *, *, #54, .F. );
#285 = CARTESIAN_POINT( '', ( 47.5000000000000, 0.000000000000000, 58.0000000000000 ) );
#286 = DIRECTION( '', ( -1.00000000000000, -0.000000000000000, 0.000000000000000 ) );
#287 = DIRECTION( '', ( 0.000000000000000, 0.000000000000000, 1.00000000000000 ) );
#288 = FILL_AREA_STYLE( '', ( #296 ) );
#289 = FILL_AREA_STYLE( '', ( #297 ) );
#290 = FILL_AREA_STYLE( '', ( #298 ) );
#291 = FILL_AREA_STYLE( '', ( #299 ) );
#292 = FILL_AREA_STYLE( '', ( #300 ) );
#293 = FILL_AREA_STYLE( '', ( #301 ) );
#294 = FILL_AREA_STYLE( '', ( #302 ) );
#295 = FILL_AREA_STYLE( '', ( #303 ) );
#296 = FILL_AREA_STYLE_COLOUR( '', #304 );
#297 = FILL_AREA_STYLE_COLOUR( '', #305 );
#298 = FILL_AREA_STYLE_COLOUR( '', #306 );
#299 = FILL_AREA_STYLE_COLOUR( '', #307 );
#300 = FILL_AREA_STYLE_COLOUR( '', #308 );
#301 = FILL_AREA_STYLE_COLOUR( '', #309 );
#302 = FILL_AREA_STYLE_COLOUR( '', #310 );
#303 = FILL_AREA_STYLE_COLOUR( '', #311 );
#304 = COLOUR_RGB( '', 0.200000002980232, 0.200000002980232, 0.200000002980232 );
#305 = COLOUR_RGB( '', 0.200000002980232, 0.200000002980232, 0.200000002980232 );
#306 = COLOUR_RGB( '', 0.200000002980232, 0.200000002980232, 0.200000002980232 );
#307 = COLOUR_RGB( '', 0.200000002980232, 0.200000002980232, 0.200000002980232 );
#308 = COLOUR_RGB( '', 0.200000002980232, 0.200000002980232, 0.200000002980232 );
#309 = COLOUR_RGB( '', 0.200000002980232, 0.200000002980232, 0.200000002980232 );
#310 = COLOUR_RGB( '', 0.200000002980232, 0.200000002980232, 0.200000002980232 );
#311 = COLOUR_RGB( '', 0.200000002980232, 0.200000002980232, 0.200000002980232 );
ENDSEC;
END-ISO-10303-21;
