  0
SECTION
  2
HEADER
  9
$ACADVER
  1
AC1015
  9
$ACADMAINTVER
 70
     6
  9
$DWGCODEPAGE
  3
ANSI_1252
  9
$INSBASE
 10
0.0
 20
0.0
 30
0.0
  9
$EXTMIN
 10
0.0
 20
0.0
 30
0.0
  9
$EXTMAX
 10
50.0
 20
50.0
 30
0.0
  9
$LIMMIN
 10
0.0
 20
0.0
  9
$LIMMAX
 10
420.0
 20
297.0
  9
$ORTHOMODE
 70
     0
  9
$REGENMODE
 70
     1
  9
$FILLMODE
 70
     1
  9
$QTEXTMODE
 70
     0
  9
$MIRRTEXT
 70
     1
  9
$LTSCALE
 40
1.0
  9
$ATTMODE
 70
     1
  9
$TEXTSIZE
 40
3.5
  9
$TRACEWID
 40
1.0
  9
$TEXTSTYLE
  7
Standard
  9
$CLAYER
  8
0
  9
$CELTYPE
  6
ByLayer
  9
$CECOLOR
 62
   256
  9
$CELTSCALE
 40
1.0
  9
$DISPSILH
 70
     0
  9
$DIMSCALE
 40
1.0
  9
$DIMASZ
 40
3.302
  9
$DIMEXO
 40
1.0
  9
$DIMDLI
 40
3.75
  9
$DIMRND
 40
0.0
  9
$DIMDLE
 40
0.0
  9
$DIMEXE
 40
1.0
  9
$DIMTP
 40
0.0
  9
$DIMTM
 40
0.0
  9
$DIMTXT
 40
3.5
  9
$DIMCEN
 40
2.5
  9
$DIMTSZ
 40
0.0
  9
$DIMTOL
 70
     0
  9
$DIMLIM
 70
     0
  9
$DIMTIH
 70
     1
  9
$DIMTOH
 70
     1
  9
$DIMSE1
 70
     0
  9
$DIMSE2
 70
     0
  9
$DIMTAD
 70
     1
  9
$DIMZIN
 70
     0
  9
$DIMBLK
  1

  9
$DIMASO
 70
     1
  9
$DIMSHO
 70
     1
  9
$DIMPOST
  1

  9
$DIMAPOST
  1

  9
$DIMALT
 70
     0
  9
$DIMALTD
 70
     3
  9
$DIMALTF
 40
0.0393700787
  9
$DIMLFAC
 40
1.0
  9
$DIMTOFL
 70
     1
  9
$DIMTVP
 40
0.0
  9
$DIMTIX
 70
     0
  9
$DIMSOXD
 70
     0
  9
$DIMSAH
 70
     0
  9
$DIMBLK1
  1

  9
$DIMBLK2
  1

  9
$DIMSTYLE
  2
ISO-25
  9
$DIMCLRD
 70
     0
  9
$DIMCLRE
 70
     0
  9
$DIMCLRT
 70
     0
  9
$DIMTFAC
 40
1.0
  9
$DIMGAP
 40
1.524
  9
$DIMJUST
 70
     0
  9
$DIMSD1
 70
     0
  9
$DIMSD2
 70
     0
  9
$DIMTOLJ
 70
     0
  9
$DIMTZIN
 70
     0
  9
$DIMALTZ
 70
     0
  9
$DIMALTTZ
 70
     0
  9
$DIMUPT
 70
     0
  9
$DIMDEC
 70
     2
  9
$DIMTDEC
 70
     2
  9
$DIMALTU
 70
     2
  9
$DIMALTTD
 70
     3
  9
$DIMTXSTY
  7
Standard
  9
$DIMAUNIT
 70
     0
  9
$DIMADEC
 70
     2
  9
$DIMALTRND
 40
0.0
  9
$DIMAZIN
 70
     0
  9
$DIMDSEP
 70
    44
  9
$DIMATFIT
 70
     3
  9
$DIMFRAC
 70
     0
  9
$DIMLDRBLK
  1

  9
$DIMLUNIT
 70
     2
  9
$DIMLWD
 70
    -2
  9
$DIMLWE
 70
    -2
  9
$DIMTMOVE
 70
     0
  9
$LUNITS
 70
     2
  9
$LUPREC
 70
     2
  9
$SKETCHINC
 40
1.0
  9
$FILLETRAD
 40
10.0
  9
$AUNITS
 70
     0
  9
$AUPREC
 70
     2
  9
$MENU
  1
.
  9
$ELEVATION
 40
0.0
  9
$PELEVATION
 40
0.0
  9
$THICKNESS
 40
0.0
  9
$LIMCHECK
 70
     0
  9
$CHAMFERA
 40
0.0
  9
$CHAMFERB
 40
0.0
  9
$CHAMFERC
 40
0.0
  9
$CHAMFERD
 40
0.0
  9
$SKPOLY
 70
     0
  9
$TDCREATE
 40
2456577.521707616
  9
$TDUCREATE
 40
2456577.438374282
  9
$TDUPDATE
 40
2456577.521789688
  9
$TDUUPDATE
 40
2456577.438456354
  9
$TDINDWG
 40
0.0000000116
  9
$TDUSRTIMER
 40
0.0000000116
  9
$USRTIMER
 70
     1
  9
$ANGBASE
 50
0.0
  9
$ANGDIR
 70
     0
  9
$PDMODE
 70
     0
  9
$PDSIZE
 40
-1.0
  9
$PLINEWID
 40
0.0
  9
$SPLFRAME
 70
     0
  9
$SPLINETYPE
 70
     6
  9
$SPLINESEGS
 70
     8
  9
$HANDSEED
  5
CE
  9
$SURFTAB1
 70
     6
  9
$SURFTAB2
 70
     6
  9
$SURFTYPE
 70
     6
  9
$SURFU
 70
     6
  9
$SURFV
 70
     6
  9
$UCSBASE
  2

  9
$UCSNAME
  2

  9
$UCSORG
 10
0.0
 20
0.0
 30
0.0
  9
$UCSXDIR
 10
1.0
 20
0.0
 30
0.0
  9
$UCSYDIR
 10
0.0
 20
1.0
 30
0.0
  9
$UCSORTHOREF
  2

  9
$UCSORTHOVIEW
 70
     0
  9
$UCSORGTOP
 10
0.0
 20
0.0
 30
0.0
  9
$UCSORGBOTTOM
 10
0.0
 20
0.0
 30
0.0
  9
$UCSORGLEFT
 10
0.0
 20
0.0
 30
0.0
  9
$UCSORGRIGHT
 10
0.0
 20
0.0
 30
0.0
  9
$UCSORGFRONT
 10
0.0
 20
0.0
 30
0.0
  9
$UCSORGBACK
 10
0.0
 20
0.0
 30
0.0
  9
$PUCSBASE
  2

  9
$PUCSNAME
  2

  9
$PUCSORG
 10
0.0
 20
0.0
 30
0.0
  9
$PUCSXDIR
 10
1.0
 20
0.0
 30
0.0
  9
$PUCSYDIR
 10
0.0
 20
1.0
 30
0.0
  9
$PUCSORTHOREF
  2

  9
$PUCSORTHOVIEW
 70
     0
  9
$PUCSORGTOP
 10
0.0
 20
0.0
 30
0.0
  9
$PUCSORGBOTTOM
 10
0.0
 20
0.0
 30
0.0
  9
$PUCSORGLEFT
 10
0.0
 20
0.0
 30
0.0
  9
$PUCSORGRIGHT
 10
0.0
 20
0.0
 30
0.0
  9
$PUCSORGFRONT
 10
0.0
 20
0.0
 30
0.0
  9
$PUCSORGBACK
 10
0.0
 20
0.0
 30
0.0
  9
$USERI1
 70
     0
  9
$USERI2
 70
     0
  9
$USERI3
 70
     0
  9
$USERI4
 70
     0
  9
$USERI5
 70
     0
  9
$USERR1
 40
0.0
  9
$USERR2
 40
0.0
  9
$USERR3
 40
0.0
  9
$USERR4
 40
0.0
  9
$USERR5
 40
0.0
  9
$WORLDVIEW
 70
     1
  9
$SHADEDGE
 70
     3
  9
$SHADEDIF
 70
    70
  9
$TILEMODE
 70
     1
  9
$MAXACTVP
 70
    64
  9
$PINSBASE
 10
0.0
 20
0.0
 30
0.0
  9
$PLIMCHECK
 70
     0
  9
$PEXTMIN
 10
1.0000000000E+20
 20
1.0000000000E+20
 30
1.0000000000E+20
  9
$PEXTMAX
 10
-1.0000000000E+20
 20
-1.0000000000E+20
 30
-1.0000000000E+20
  9
$PLIMMIN
 10
0.0
 20
0.0
  9
$PLIMMAX
 10
420.0
 20
297.0
  9
$UNITMODE
 70
     0
  9
$VISRETAIN
 70
     1
  9
$PLINEGEN
 70
     0
  9
$PSLTSCALE
 70
     1
  9
$TREEDEPTH
 70
  3020
  9
$CMLSTYLE
  2
Standard
  9
$CMLJUST
 70
     0
  9
$CMLSCALE
 40
20.0
  9
$PROXYGRAPHICS
 70
     1
  9
$MEASUREMENT
 70
     1
  9
$CELWEIGHT
370
    -1
  9
$ENDCAPS
280
     0
  9
$JOINSTYLE
280
     0
  9
$LWDISPLAY
290
     1
  9
$INSUNITS
 70
     4
  9
$HYPERLINKBASE
  1

  9
$STYLESHEET
  1

  9
$XEDIT
290
     1
  9
$CEPSNTYPE
380
     0
  9
$PSTYLEMODE
290
     1
  9
$FINGERPRINTGUID
  2
{2748F08D-7B1B-49FB-BC5D-4EBC9D53D86D}
  9
$VERSIONGUID
  2
{FAEB1C32-E019-11D5-929B-00C0DF256EC4}
  9
$EXTNAMES
290
     1
  9
$PSVPSCALE
 40
0.0
  9
$OLESTARTUP
290
     0
  0
ENDSEC
  0
SECTION
  2
CLASSES
  0
CLASS
  1
ACDBDICTIONARYWDFLT
  2
AcDbDictionaryWithDefault
  3
ObjectDBX Classes
 90
        0
280
     0
281
     0
  0
CLASS
  1
VISUALSTYLE
  2
AcDbVisualStyle
  3
ObjectDBX Classes
 90
     4095
280
     0
281
     0
  0
CLASS
  1
MATERIAL
  2
AcDbMaterial
  3
ObjectDBX Classes
 90
     1153
280
     0
281
     0
  0
CLASS
  1
SCALE
  2
AcDbScale
  3
ObjectDBX Classes
 90
     1153
280
     0
281
     0
  0
CLASS
  1
SUN
  2
AcDbSun
  3
SCENEOE
 90
     1153
280
     0
281
     0
  0
CLASS
  1
ACDBPLACEHOLDER
  2
AcDbPlaceHolder
  3
ObjectDBX Classes
 90
        0
280
     0
281
     0
  0
CLASS
  1
LAYOUT
  2
AcDbLayout
  3
ObjectDBX Classes
 90
        0
280
     0
281
     0
  0
ENDSEC
  0
SECTION
  2
TABLES
  0
TABLE
  2
VPORT
  5
8
330
0
100
AcDbSymbolTable
 70
     1
  0
VPORT
  5
29
330
8
100
AcDbSymbolTableRecord
100
AcDbViewportTableRecord
  2
*Active
 70
     0
 10
0.0
 20
0.0
 11
1.0
 21
1.0
 12
25.0
 22
25.0
 13
0.0
 23
0.0
 14
10.0
 24
10.0
 15
10.0
 25
10.0
 16
0.0
 26
0.0
 36
1.0
 17
0.0
 27
0.0
 37
0.0
 40
51.0
 41
1.0
 42
50.0
 43
0.0
 44
0.0
 50
0.0
 51
0.0
 71
     0
 72
   100
 73
     1
 74
     3
 75
     0
 76
     0
 77
     0
 78
     0
281
     0
 65
     1
110
0.0
120
0.0
130
0.0
111
1.0
121
0.0
131
0.0
112
0.0
122
1.0
132
0.0
 79
     0
146
0.0
  0
ENDTAB
  0
TABLE
  2
LTYPE
  5
5
330
0
100
AcDbSymbolTable
 70
     6
  0
LTYPE
  5
14
330
5
100
AcDbSymbolTableRecord
100
AcDbLinetypeTableRecord
  2
ByBlock
 70
     0
  3

 72
    65
 73
     0
 40
0.0
  0
LTYPE
  5
15
330
5
100
AcDbSymbolTableRecord
100
AcDbLinetypeTableRecord
  2
ByLayer
 70
     0
  3

 72
    65
 73
     0
 40
0.0
  0
LTYPE
  5
16
330
5
100
AcDbSymbolTableRecord
100
AcDbLinetypeTableRecord
  2
Continuous
 70
     0
  3
Solid line
 72
    65
 73
     0
 40
0.0
  0
LTYPE
  5
6A
330
5
100
AcDbSymbolTableRecord
100
AcDbLinetypeTableRecord
  2
HIDDEN
 70
     0
  3
Hidden __ __ __ __ __ __ __ __ __ __ __ __ __ __
 72
    65
 73
     2
 40
1.905
 49
1.27
 74
     0
 49
-0.635
 74
     0
  0
LTYPE
  5
6B
330
5
100
AcDbSymbolTableRecord
100
AcDbLinetypeTableRecord
  2
PHANTOM
 70
     0
  3
Phantom ______  __  __  ______  __  __  ______
 72
    65
 73
     6
 40
12.7
 49
6.35
 74
     0
 49
-1.27
 74
     0
 49
1.27
 74
     0
 49
-1.27
 74
     0
 49
1.27
 74
     0
 49
-1.27
 74
     0
  0
LTYPE
  5
6C
330
5
100
AcDbSymbolTableRecord
100
AcDbLinetypeTableRecord
  2
CENTER
 70
     0
  3
Center ____ _ ____ _ ____ _ ____ _ ____ _ ____
 72
    65
 73
     4
 40
10.16
 49
6.35
 74
     0
 49
-1.27
 74
     0
 49
1.27
 74
     0
 49
-1.27
 74
     0
  0
LTYPE
  5
6D
330
5
100
AcDbSymbolTableRecord
100
AcDbLinetypeTableRecord
  2
CENTERX2
 70
     0
  3
Center (2x) ________  __  ________  __  _____
 72
    65
 73
     4
 40
20.32
 49
12.7
 74
     0
 49
-2.54
 74
     0
 49
2.54
 74
     0
 49
-2.54
 74
     0
  0
LTYPE
  5
6E
330
5
100
AcDbSymbolTableRecord
100
AcDbLinetypeTableRecord
  2
DOT2
 70
     0
  3
Dot (.5x) ........................................
 72
    65
 73
     2
 40
0.635
 49
0.0
 74
     0
 49
-0.635
 74
     0
  0
ENDTAB
  0
TABLE
  2
LAYER
  5
2
330
0
100
AcDbSymbolTable
 70
     1
  0
LAYER
  5
10
330
2
100
AcDbSymbolTableRecord
100
AcDbLayerTableRecord
  2
0
 70
     0
 62
     7
  6
Continuous
370
    -3
390
F
  0
ENDTAB
  0
TABLE
  2
STYLE
  5
3
330
0
100
AcDbSymbolTable
 70
     1
  0
STYLE
  5
11
330
3
100
AcDbSymbolTableRecord
100
AcDbTextStyleTableRecord
  2
Standard
 70
     0
 40
0.0
 41
1.0
 50
0.0
 71
     0
 42
3.5
  3
txt
  4

  0
ENDTAB
  0
TABLE
  2
VIEW
  5
6
330
0
100
AcDbSymbolTable
 70
     0
  0
ENDTAB
  0
TABLE
  2
UCS
  5
7
330
0
100
AcDbSymbolTable
 70
     0
  0
ENDTAB
  0
TABLE
  2
APPID
  5
9
330
0
100
AcDbSymbolTable
 70
     1
  0
APPID
  5
12
330
9
100
AcDbSymbolTableRecord
100
AcDbRegAppTableRecord
  2
ACAD
 70
     0
  0
ENDTAB
  0
TABLE
  2
DIMSTYLE
  5
A
330
0
100
AcDbSymbolTable
 70
     1
100
AcDbDimStyleTable
  0
DIMSTYLE
105
27
330
A
100
AcDbSymbolTableRecord
100
AcDbDimStyleTableRecord
  2
ISO-25
 70
     0
 41
2.5
 42
0.625
 43
3.75
 44
1.25
 73
     0
 74
     0
 77
     1
 78
     8
140
2.5
141
2.5
143
0.0393700787
147
0.625
171
     3
172
     1
178
     0
271
     2
272
     2
274
     3
278
    44
283
     0
284
     8
340
11
  0
ENDTAB
  0
TABLE
  2
BLOCK_RECORD
  5
1
330
0
100
AcDbSymbolTable
 70
     1
  0
BLOCK_RECORD
  5
1F
330
1
100
AcDbSymbolTableRecord
100
AcDbBlockTableRecord
  2
*Model_Space
340
22
  0
BLOCK_RECORD
  5
1B
330
1
100
AcDbSymbolTableRecord
100
AcDbBlockTableRecord
  2
*Paper_Space
340
1E
  0
BLOCK_RECORD
  5
23
330
1
100
AcDbSymbolTableRecord
100
AcDbBlockTableRecord
  2
*Paper_Space0
340
26
  0
ENDTAB
  0
ENDSEC
  0
SECTION
  2
BLOCKS
  0
BLOCK
  5
20
330
1F
100
AcDbEntity
  8
0
100
AcDbBlockBegin
  2
*Model_Space
 70
     0
 10
0.0
 20
0.0
 30
0.0
  3
*Model_Space
  1
*Model_Space
  0
ENDBLK
  5
21
330
1F
100
AcDbEntity
  8
0
100
AcDbBlockEnd
  0
BLOCK
  5
1C
330
1B
100
AcDbEntity
 67
     1
  8
0
100
AcDbBlockBegin
  2
*Paper_Space
 70
     0
 10
0.0
 20
0.0
 30
0.0
  3
*Paper_Space
  1
*Paper_Space
  0
ENDBLK
  5
1D
330
1B
100
AcDbEntity
 67
     1
  8
0
100
AcDbBlockEnd
  0
BLOCK
  5
24
330
23
100
AcDbEntity
  8
0
100
AcDbBlockBegin
  2
*Paper_Space0
 70
     0
 10
0.0
 20
0.0
 30
0.0
  3
*Paper_Space0
  1
*Paper_Space0
  0
ENDBLK
  5
25
330
23
100
AcDbEntity
  8
0
100
AcDbBlockEnd
  0
ENDSEC
  0
SECTION
  2
ENTITIES
  0
LINE
  5
6F
330
1F
100
AcDbEntity
  8
0
  6
Continuous
 62
     7
370
    15
100
AcDbLine
 10
22.7994419722
 20
3.1344185199
 30
0.0
 11
22.4853394081
 21
3.1344185199
 31
0.0
  0
LINE
  5
70
330
1F
100
AcDbEntity
  8
0
  6
Continuous
 62
     7
370
    15
100
AcDbLine
 10
22.4853394081
 20
3.1344185199
 30
0.0
 11
22.4853394081
 21
5.6921108276
 31
0.0
  0
LINE
  5
71
330
1F
100
AcDbEntity
  8
0
  6
Continuous
 62
     7
370
    15
100
AcDbLine
 10
22.4853394081
 20
5.6921108276
 30
0.0
 11
22.7994419722
 21
5.6921108276
 31
0.0
  0
LINE
  5
72
330
1F
100
AcDbEntity
  8
0
  6
Continuous
 62
     7
370
    15
100
AcDbLine
 10
22.7994419722
 20
5.6921108276
 30
0.0
 11
22.7994419722
 21
5.2475996097
 31
0.0
  0
SPLINE
  5
73
330
1F
100
AcDbEntity
  8
0
  6
Continuous
 62
     7
370
    15
100
AcDbSpline
210
0.0
220
0.0
230
1.0
 70
     8
 71
     3
 72
    11
 73
     7
 74
     0
 42
0.000000001
 43
0.00000001
 40
0.0
 40
0.0
 40
0.0
 40
0.0
 40
0.2835948081386956
 40
0.5433948405759647
 40
0.7806456291745588
 40
1.0
 40
1.0
 40
1.0
 40
1.0
 10
22.79944197224509
 20
5.247599609692257
 30
0.0
 10
22.8277259221593
 20
5.286487211422104
 30
0.0
 10
22.88192068177199
 20
5.360999584483734
 30
0.0
 10
22.97078633426432
 20
5.459189868719695
 30
0.0
 10
23.05956244674351
 20
5.542518023373851
 30
0.0
 10
23.12349582851169
 20
5.586260894978119
 30
0.0
 10
23.15420960045022
 20
5.607275090461489
 30
0.0
  0
SPLINE
  5
74
330
1F
100
AcDbEntity
  8
0
  6
Continuous
 62
     7
370
    15
100
AcDbSpline
210
0.0
220
0.0
230
1.0
 70
     8
 71
     3
 72
    11
 73
     7
 74
     0
 42
0.000000001
 43
0.00000001
 40
0.0
 40
0.0
 40
0.0
 40
0.0
 40
0.2537340756906618
 40
0.5030351201318565
 40
0.7500135973308832
 40
1.0
 40
1.0
 40
1.0
 40
1.0
 10
23.15420960045022
 20
5.607275090461489
 30
0.0
 10
23.19607426263547
 20
5.627280455706788
 30
0.0
 10
23.27907216236301
 20
5.6669416690541
 30
0.0
 10
23.41049138728481
 20
5.707175228017513
 30
0.0
 10
23.54496605682125
 20
5.731900329326214
 30
0.0
 10
23.63577427072462
 20
5.735281702759742
 30
0.0
 10
23.68145319019381
 20
5.736982622512771
 30
0.0
  0
SPLINE
  5
75
330
1F
100
AcDbEntity
  8
0
  6
Continuous
 62
     7
370
    15
100
AcDbSpline
210
0.0
220
0.0
230
1.0
 70
     8
 71
     3
 72
    19
 73
    15
 74
     0
 42
0.000000001
 43
0.00000001
 40
0.0
 40
0.0
 40
0.0
 40
0.0
 40
0.0841520188443164
 40
0.1665323202984588
 40
0.2488363311465321
 40
0.3312461454872614
 40
0.4129571090216177
 40
0.4904942776695667
 40
0.5661557919819247
 40
0.6399873346864674
 40
0.7167654882718497
 40
0.8021439047100994
 40
0.8958332007101919
 40
1.0
 40
1.0
 40
1.0
 40
1.0
 10
23.68145319019381
 20
5.73698262251277
 30
0.0
 10
23.71234618676134
 20
5.735937331732304
 30
0.0
 10
23.77348176580052
 20
5.73386875748479
 30
0.0
 10
23.86406585590067
 20
5.72040872230799
 30
0.0
 10
23.95192446773369
 20
5.69714254928846
 30
0.0
 10
24.03653849706305
 20
5.664735225321046
 30
0.0
 10
24.11625917634192
 20
5.625488538406988
 30
0.0
 10
24.18934837409224
 20
5.579438830490217
 30
0.0
 10
24.254972582275
 20
5.527741755084703
 30
0.0
 10
24.31309863358314
 20
5.468062822099608
 30
0.0
 10
24.36536765897908
 20
5.398726223579065
 30
0.0
 10
24.41344650560906
 20
5.317861974675425
 30
0.0
 10
24.45787171798647
 20
5.223654313619774
 30
0.0
 10
24.48249302681855
 20
5.155287772641758
 30
0.0
 10
24.49545559403996
 20
5.119294321230719
 30
0.0
  0
SPLINE
  5
76
330
1F
100
AcDbEntity
  8
0
  6
Continuous
 62
     7
370
    15
100
AcDbSpline
210
0.0
220
0.0
230
1.0
 70
     8
 71
     3
 72
    19
 73
    15
 74
     0
 42
0.000000001
 43
0.00000001
 40
0.0
 40
0.0
 40
0.0
 40
0.0
 40
0.071766064158341
 40
0.1412255357663685
 40
0.2091158524974633
 40
0.274839653468527
 40
0.3394829303752194
 40
0.4024762667353992
 40
0.4649418891713267
 40
0.5268326406463825
 40
0.6474148160608222
 40
0.7655615117859509
 40
0.8816150870393311
 40
1.0
 40
1.0
 40
1.0
 40
1.0
 10
24.49545559403996
 20
5.119294321230719
 30
0.0
 10
24.50916684539568
 20
5.144018740505864
 30
0.0
 10
24.53614866251843
 20
5.192672925455184
 30
0.0
 10
24.58145429959111
 20
5.261531187700067
 30
0.0
 10
24.62892209606942
 20
5.325937979545434
 30
0.0
 10
24.67895658913002
 20
5.385944403915524
 30
0.0
 10
24.73138117597061
 20
5.441254134329553
 30
0.0
 10
24.78644257627078
 20
5.492050035983882
 30
0.0
 10
24.84382735769432
 20
5.538550249668508
 30
0.0
 10
24.92361959760701
 20
5.592873409182213
 30
0.0
 10
25.02743220499384
 20
5.650574590544683
 30
0.0
 10
25.15832031969168
 20
5.700603034553371
 30
0.0
 10
25.29447049128082
 20
5.731519162912398
 30
0.0
 10
25.38688818958826
 20
5.735149435748228
 30
0.0
 10
25.43355655557843
 20
5.736982622512771
 30
0.0
  0
SPLINE
  5
77
330
1F
100
AcDbEntity
  8
0
  6
Continuous
 62
     7
370
    15
100
AcDbSpline
210
0.0
220
0.0
230
1.0
 70
     8
 71
     3
 72
    23
 73
    19
 74
     0
 42
0.000000001
 43
0.00000001
 40
0.0
 40
0.0
 40
0.0
 40
0.0
 40
0.0756043304957456
 40
0.1479650154827372
 40
0.2187969985237016
 40
0.289470445321378
 40
0.3597242180875008
 40
0.4297077387530459
 40
0.5004965198485861
 40
0.5744290198679493
 40
0.6139472962286702
 40
0.6571552698261112
 40
0.7039727697209368
 40
0.7549389848168007
 40
0.8097066112894876
 40
0.8688329536985497
 40
0.9323854739325976
 40
1.0
 40
1.0
 40
1.0
 40
1.0
 10
25.43355655557842
 20
5.73698262251277
 30
0.0
 10
25.47643801839698
 20
5.735365401655066
 30
0.0
 10
25.56036120465187
 20
5.732200343414616
 30
0.0
 10
25.68253847036468
 20
5.707346870079196
 30
0.0
 10
25.79648027568906
 20
5.664669222961485
 30
0.0
 10
25.90195735181853
 20
5.606435586391123
 30
0.0
 10
25.99711716522767
 20
5.533256403086837
 30
0.0
 10
26.07983347441156
 20
5.446187565468929
 30
0.0
 10
26.14960383774758
 20
5.345844942457572
 30
0.0
 10
26.19518247744448
 20
5.251452953763605
 30
0.0
 10
26.2260977416744
 20
5.168117620915105
 30
0.0
 10
26.2451589760003
 20
5.097111329607024
 30
0.0
 10
26.26199867108687
 20
5.018959776686925
 30
0.0
 10
26.27597991634988
 20
4.933569515183728
 30
0.0
 10
26.28619846844558
 20
4.840638906880957
 30
0.0
 10
26.29376918393343
 20
4.740320030998011
 30
0.0
 10
26.29889325749175
 20
4.632534919376138
 30
0.0
 10
26.29925532975328
 20
4.558169419148745
 30
0.0
 10
26.29944197224509
 20
4.519835186615334
 30
0.0
  0
LINE
  5
78
330
1F
100
AcDbEntity
  8
0
  6
Continuous
 62
     7
370
    15
100
AcDbLine
 10
26.2994419722
 20
4.5198351866
 30
0.0
 11
26.2994419722
 21
3.1344185199
 31
0.0
  0
LINE
  5
79
330
1F
100
AcDbEntity
  8
0
  6
Continuous
 62
     7
370
    15
100
AcDbLine
 10
26.2994419722
 20
3.1344185199
 30
0.0
 11
25.9853394081
 21
3.1344185199
 31
0.0
  0
LINE
  5
7A
330
1F
100
AcDbEntity
  8
0
  6
Continuous
 62
     7
370
    15
100
AcDbLine
 10
25.9853394081
 20
3.1344185199
 30
0.0
 11
25.9853394081
 21
4.5212374302
 31
0.0
  0
SPLINE
  5
7B
330
1F
100
AcDbEntity
  8
0
  6
Continuous
 62
     7
370
    15
100
AcDbSpline
210
0.0
220
0.0
230
1.0
 70
     8
 71
     3
 72
    23
 73
    19
 74
     0
 42
0.000000001
 43
0.00000001
 40
0.0
 40
0.0
 40
0.0
 40
0.0
 40
0.078342985193701
 40
0.1505633028794206
 40
0.2161510566599769
 40
0.2756797924514262
 40
0.3287070503654623
 40
0.375904434832208
 40
0.4173018977400325
 40
0.4526927480535827
 40
0.5172652917530122
 40
0.5812165680623058
 40
0.645321893972801
 40
0.7120244933797625
 40
0.7801300447160426
 40
0.8502182262116627
 40
0.9226485217347362
 40
0.9999999999999999
 40
0.9999999999999999
 40
0.9999999999999999
 40
0.9999999999999999
 10
25.98533940814253
 20
4.521237430205077
 30
0.0
 10
25.9852615251665
 20
4.553958004142511
 30
0.0
 10
25.98511184593127
 20
4.61684197099608
 30
0.0
 10
25.98241821436709
 20
4.70709442220375
 30
0.0
 10
25.9773429003114
 20
4.789362779446742
 30
0.0
 10
25.97140826154434
 20
4.86353486759023
 30
0.0
 10
25.96316445216377
 20
4.92978365608687
 30
0.0
 10
25.95251852042909
 20
4.987976074654991
 30
0.0
 10
25.94124084053037
 20
5.038569886015654
 30
0.0
 10
25.92250484942153
 20
5.094655933613796
 30
0.0
 10
25.89255695780569
 20
5.156526144097096
 30
0.0
 10
25.84693947777264
 20
5.223249719892273
 30
0.0
 10
25.78946937150789
 20
5.281330520075497
 30
0.0
 10
25.72310921494477
 20
5.331748836893656
 30
0.0
 10
25.6475607702511
 20
5.372742477991506
 30
0.0
 10
25.56429604708631
 20
5.402018487694078
 30
0.0
 10
25.47383199549186
 20
5.420141366106437
 30
0.0
 10
25.41120920708115
 20
5.4219473816828
 30
0.0
 10
25.37886905557842
 20
5.422880058410206
 30
0.0
  0
SPLINE
  5
7C
330
1F
100
AcDbEntity
  8
0
  6
Continuous
 62
     7
370
    15
100
AcDbSpline
210
0.0
220
0.0
230
1.0
 70
     8
 71
     3
 72
    23
 73
    19
 74
     0
 42
0.000000001
 43
0.00000001
 40
0.0
 40
0.0
 40
0.0
 40
0.0
 40
0.0681582441559973
 40
0.1347066022023568
 40
0.2018649976035973
 40
0.2707882662774623
 40
0.3400242943604911
 40
0.4080827390537209
 40
0.4768131952581443
 40
0.5473460643070944
 40
0.5856397954238952
 40
0.628864953177764
 40
0.677153203363791
 40
0.7308028113651058
 40
0.7898066155325018
 40
0.8543250087420139
 40
0.9243651340575438
 40
1.0
 40
1.0
 40
1.0
 40
1.0
 10
25.37886905557842
 20
5.422880058410206
 30
0.0
 10
25.3391991012051
 20
5.421463901023657
 30
0.0
 10
25.26079619001916
 20
5.41866503564665
 30
0.0
 10
25.14635070381106
 20
5.390091162683461
 30
0.0
 10
25.0363796872041
 20
5.347010912023898
 30
0.0
 10
24.93416455427915
 20
5.28457845490042
 30
0.0
 10
24.8401367636624
 20
5.209770091048386
 30
0.0
 10
24.75923718587679
 20
5.120820495289063
 30
0.0
 10
24.69240500021502
 20
5.020190568353887
 30
0.0
 10
24.64715102427423
 20
4.92704386603825
 30
0.0
 10
24.61856172302936
 20
4.84337442215707
 30
0.0
 10
24.59968480728451
 20
4.770277050159076
 30
0.0
 10
24.58500141581465
 20
4.687195482325919
 30
0.0
 10
24.57123088660342
 20
4.594687991461723
 30
0.0
 10
24.56224315863673
 20
4.492117811109724
 30
0.0
 10
24.55407478631237
 20
4.3799594101099
 30
0.0
 10
24.55025392349843
 20
4.257875450673923
 30
0.0
 10
24.54971946473898
 20
4.173248762060132
 30
0.0
 10
24.54944197224509
 20
4.129310346871745
 30
0.0
  0
LINE
  5
7D
330
1F
100
AcDbEntity
  8
0
  6
Continuous
 62
     7
370
    15
100
AcDbLine
 10
24.5494419722
 20
4.1293103469
 30
0.0
 11
24.5494419722
 21
3.1344185199
 31
0.0
  0
LINE
  5
7E
330
1F
100
AcDbEntity
  8
0
  6
Continuous
 62
     7
370
    15
100
AcDbLine
 10
24.5494419722
 20
3.1344185199
 30
0.0
 11
24.2353394081
 21
3.1344185199
 31
0.0
  0
LINE
  5
7F
330
1F
100
AcDbEntity
  8
0
  6
Continuous
 62
     7
370
    15
100
AcDbLine
 10
24.2353394081
 20
3.1344185199
 30
0.0
 11
24.2353394081
 21
4.4349994494
 31
0.0
  0
SPLINE
  5
80
330
1F
100
AcDbEntity
  8
0
  6
Continuous
 62
     7
370
    15
100
AcDbSpline
210
0.0
220
0.0
230
1.0
 70
     8
 71
     3
 72
    23
 73
    19
 74
     0
 42
0.000000001
 43
0.00000001
 40
0.0
 40
0.0
 40
0.0
 40
0.0
 40
0.082529703822067
 40
0.1587788549175706
 40
0.2277380621151799
 40
0.2899456527966762
 40
0.3454988386981381
 40
0.3938963373401235
 40
0.4363737851900882
 40
0.4721222744615237
 40
0.5363836155048279
 40
0.5990779017254969
 40
0.6619482340244595
 40
0.7263105423531543
 40
0.7917711030502116
 40
0.8586473037978586
 40
0.927305333807685
 40
1.0
 40
1.0
 40
1.0
 40
1.0
 10
24.23533940814253
 20
4.434999449435846
 30
0.0
 10
24.23525997716628
 20
4.471692768201123
 30
0.0
 10
24.23510715995176
 20
4.542287025381993
 30
0.0
 10
24.23243084263546
 20
4.643520700692745
 30
0.0
 10
24.22734422093934
 20
4.735601780785752
 30
0.0
 10
24.22146367257317
 20
4.818423244619171
 30
0.0
 10
24.21300349405503
 20
4.891834573379827
 30
0.0
 10
24.20339373194524
 20
4.956229331382301
 30
0.0
 10
24.19204512141852
 20
5.011446082465548
 30
0.0
 10
24.17325523679747
 20
5.072009467328631
 30
0.0
 10
24.14454076850803
 20
5.138730390312694
 30
0.0
 10
24.09835250652017
 20
5.209871411495128
 30
0.0
 10
24.04074492613913
 20
5.272139509017771
 30
0.0
 10
23.9731740502746
 20
5.325298257453262
 30
0.0
 10
23.89716836808438
 20
5.369239738751737
 30
0.0
 10
23.8131849672755
 20
5.400899490538222
 30
0.0
 10
23.721980054439
 20
5.41932378016059
 30
0.0
 10
23.65910234853002
 20
5.421672276836301
 30
0.0
 10
23.62676569019381
 20
5.422880058410206
 30
0.0
  0
SPLINE
  5
81
330
1F
100
AcDbEntity
  8
0
  6
Continuous
 62
     7
370
    15
100
AcDbSpline
210
0.0
220
0.0
230
1.0
 70
     8
 71
     3
 72
    23
 73
    19
 74
     0
 42
0.000000001
 43
0.00000001
 40
0.0
 40
0.0
 40
0.0
 40
0.0
 40
0.0686770684130353
 40
0.1368709585090969
 40
0.2061143571453002
 40
0.2775381819697285
 40
0.3497719775548992
 40
0.4212508361555699
 40
0.4929107569233717
 40
0.5670265889927399
 40
0.6066141532413358
 40
0.6497039535189882
 40
0.6973031504846858
 40
0.7490856597091364
 40
0.8048806474593091
 40
0.8654850057023367
 40
0.9302371271531362
 40
0.9999999999999999
 40
0.9999999999999999
 40
0.9999999999999999
 40
0.9999999999999999
 10
23.62676569019381
 20
5.422880058410206
 30
0.0
 10
23.58874947874087
 20
5.421349598393192
 30
0.0
 10
23.5129845193347
 20
5.418299445928493
 30
0.0
 10
23.40168254967961
 20
5.390845172079801
 30
0.0
 10
23.2941968660619
 20
5.347841097321234
 30
0.0
 10
23.19224216726855
 20
5.288181278235141
 30
0.0
 10
23.09856801896231
 20
5.214282199638315
 30
0.0
 10
23.01655975166795
 20
5.127367303866444
 30
0.0
 10
22.9476172261438
 20
5.028518270354298
 30
0.0
 10
22.90188541124174
 20
4.936353753838785
 30
0.0
 10
22.87238693712015
 20
4.854780478941613
 30
0.0
 10
22.8527916024428
 20
4.785429531267604
 30
0.0
 10
22.83595197663064
 20
4.70842928298546
 30
0.0
 10
22.82343795492647
 20
4.623542171901112
 30
0.0
 10
22.81135753931881
 20
4.531321077765609
 30
0.0
 10
22.80552723024143
 20
4.431306588055986
 30
0.0
 10
22.79985566808711
 20
4.323584500353988
 30
0.0
 10
22.79958325338742
 20
4.24921195511218
 30
0.0
 10
22.79944197224509
 20
4.210640475076873
 30
0.0
  0
LINE
  5
82
330
1F
100
AcDbEntity
  8
0
  6
Continuous
 62
     7
370
    15
100
AcDbLine
 10
22.7994419722
 20
4.2106404751
 30
0.0
 11
22.7994419722
 21
3.1344185199
 31
0.0
  0
SPLINE
  5
83
330
1F
100
AcDbEntity
  8
0
  6
Continuous
 62
     7
370
    15
100
AcDbSpline
210
0.0
220
0.0
230
1.0
 70
     8
 71
     3
 72
    23
 73
    19
 74
     0
 42
0.000000001
 43
0.00000001
 40
0.0
 40
0.0
 40
0.0
 40
0.0
 40
0.0683846151037681
 40
0.1344755875434511
 40
0.1983910577839561
 40
0.2607534774484866
 40
0.321829222807649
 40
0.3830372384795248
 40
0.4446531231064262
 40
0.507398011204005
 40
0.569825237973025
 40
0.6307776406313136
 40
0.6909286865237172
 40
0.7509451326917362
 40
0.8110494767293274
 40
0.8723308525469939
 40
0.9350040935894058
 40
0.9999999999999999
 40
0.9999999999999999
 40
0.9999999999999999
 40
0.9999999999999999
 10
14.18405735686047
 20
4.345956981487129
 30
0.0
 10
14.18559696328962
 20
4.312256517240013
 30
0.0
 10
14.18862453723782
 20
4.245985913490309
 30
0.0
 10
14.20273968040427
 20
4.14901513040784
 30
0.0
 10
14.22498845417849
 20
4.056641788244213
 30
0.0
 10
14.25625751681699
 20
3.969558746270744
 30
0.0
 10
14.29412436207189
 20
3.886628618755455
 30
0.0
 10
14.34051007885782
 20
3.808466581786828
 30
0.0
 10
14.39584963281033
 20
3.73542865173693
 30
0.0
 10
14.45757533219469
 20
3.666861514143798
 30
0.0
 10
14.5262824275303
 20
3.605800752976096
 30
0.0
 10
14.59856517475149
 20
3.551148976741824
 30
0.0
 10
14.67545873974068
 20
3.50534338001246
 30
0.0
 10
14.75635682323463
 20
3.468163490259012
 30
0.0
 10
14.84112860837882
 20
3.439057174199911
 30
0.0
 10
14.92980080349455
 20
3.419189353516986
 30
0.0
 10
15.02219891984929
 20
3.405882246642122
 30
0.0
 10
15.08518465388208
 20
3.404402581441594
 30
0.0
 10
15.11725046583483
 20
3.403649289179437
 30
0.0
  0
SPLINE
  5
84
330
1F
100
AcDbEntity
  8
0
  6
Continuous
 62
     7
370
    15
100
AcDbSpline
210
0.0
220
0.0
230
1.0
 70
     8
 71
     3
 72
    19
 73
    15
 74
     0
 42
0.000000001
 43
0.00000001
 40
0.0
 40
0.0
 40
0.0
 40
0.0
 40
0.0825922633314375
 40
0.1638788940984966
 40
0.2456587396295032
 40
0.3277256953541229
 40
0.4086099609103198
 40
0.4857490859539316
 40
0.5591690561972785
 40
0.630268475857547
 40
0.7053060284320706
 40
0.7920649660966085
 40
0.8897964374100897
 40
1.0
 40
1.0
 40
1.0
 40
1.0
 10
15.11725046583483
 20
3.403649289179437
 30
0.0
 10
15.14860161343885
 20
3.404257345839335
 30
0.0
 10
15.2108083043664
 20
3.405463846895899
 30
0.0
 10
15.30344916170949
 20
3.417195757806907
 30
0.0
 10
15.39458868910901
 20
3.43616603342799
 30
0.0
 10
15.48384967237623
 20
3.462056023511654
 30
0.0
 10
15.56942051829293
 20
3.493632875618385
 30
0.0
 10
15.64866606835417
 20
3.531735733267463
 30
0.0
 10
15.72154628398028
 20
3.573885480010394
 30
0.0
 10
15.78966325056659
 20
3.622095155058817
 30
0.0
 10
15.85573424391862
 20
3.681103342061823
 30
0.0
 10
15.92127673033335
 20
3.754739063050399
 30
0.0
 10
15.99155338369663
 20
3.841826590834002
 30
0.0
 10
16.03554297644039
 20
3.907372256811922
 30
0.0
 10
16.05885703634766
 20
3.942110827640976
 30
0.0
  0
LINE
  5
85
330
1F
100
AcDbEntity
  8
0
  6
Continuous
 62
     7
370
    15
100
AcDbLine
 10
16.0588570363
 20
3.9421108276
 30
0.0
 11
16.3379035107
 21
3.7955763725
 31
0.0
  0
SPLINE
  5
86
330
1F
100
AcDbEntity
  8
0
  6
Continuous
 62
     7
370
    15
100
AcDbSpline
210
0.0
220
0.0
230
1.0
 70
     8
 71
     3
 72
    19
 73
    15
 74
     0
 42
0.000000001
 43
0.00000001
 40
0.0
 40
0.0
 40
0.0
 40
0.0
 40
0.0933698567361951
 40
0.1816607660710052
 40
0.2658742270426195
 40
0.3463547840343081
 40
0.4245998617178945
 40
0.5019031838373774
 40
0.5799920909873487
 40
0.6584434305294299
 40
0.7386722364878345
 40
0.8218941484362436
 40
0.9088007920466151
 40
1.0
 40
1.0
 40
1.0
 40
1.0
 10
16.33790351070663
 20
3.79557637251277
 30
0.0
 10
16.31566691546665
 20
3.756133041237449
 30
0.0
 10
16.27240330698198
 20
3.679391938419736
 30
0.0
 10
16.19800255909122
 20
3.573960077947669
 30
0.0
 10
16.12001048651301
 20
3.479112362108907
 30
0.0
 10
16.03490651850945
 20
3.397382707825015
 30
0.0
 10
15.94523683955543
 20
3.326131322850816
 30
0.0
 10
15.85050418476975
 20
3.263793498131868
 30
0.0
 10
15.7502153670344
 20
3.210674977786054
 30
0.0
 10
15.64436564225614
 20
3.165922449913278
 30
0.0
 10
15.53206609111465
 20
3.131512955805361
 30
0.0
 10
15.41304457470461
 20
3.107208734884349
 30
0.0
 10
15.28707307932581
 20
3.092185466233914
 30
0.0
 10
15.20072689945806
 20
3.090440325456857
 30
0.0
 10
15.15651328634765
 20
3.089546725076873
 30
0.0
  0
SPLINE
  5
87
330
1F
100
AcDbEntity
  8
0
  6
Continuous
 62
     7
370
    15
100
AcDbSpline
210
0.0
220
0.0
230
1.0
 70
     8
 71
     3
 72
    23
 73
    19
 74
     0
 42
0.000000001
 43
0.00000001
 40
0.0
 40
0.0
 40
0.0
 40
0.0
 40
0.0715786576891414
 40
0.1396292246928474
 40
0.2047966973966656
 40
0.2681349633966814
 40
0.3298137469867301
 40
0.3913013977745594
 40
0.4534335150970534
 40
0.5165516903197667
 40
0.5796312707049233
 40
0.6411189214927527
 40
0.7012940466987743
 40
0.7608103356761335
 40
0.819931721778144
 40
0.8789195754993823
 40
0.9389828222504464
 40
1.0
 40
1.0
 40
1.0
 40
1.0
 10
15.15651328634765
 20
3.089546725076873
 30
0.0
 10
15.10737130881221
 20
3.090693900406445
 30
0.0
 10
15.0115095471549
 20
3.0929317071358
 30
0.0
 10
14.87196980004204
 20
3.112224171570266
 30
0.0
 10
14.74059038164452
 20
3.143696530263945
 30
0.0
 10
14.61737867829091
 20
3.187662071755219
 30
0.0
 10
14.50263642571337
 20
3.2450893958455
 30
0.0
 10
14.39613557090144
 20
3.315048877649225
 30
0.0
 10
14.29731604503247
 20
3.397181132337775
 30
0.0
 10
14.20929183584732
 20
3.492197575824737
 30
0.0
 10
14.13004795313688
 20
3.593879533120137
 30
0.0
 10
14.06012213316118
 20
3.699835417606119
 30
0.0
 10
14.00166470211176
 20
3.809798642080038
 30
0.0
 10
13.95411209191602
 20
3.923069166123585
 30
0.0
 10
13.91570722694622
 20
4.038933059666717
 30
0.0
 10
13.8889405231771
 20
4.158444527235937
 30
0.0
 10
13.87351077519504
 20
4.281280111476108
 30
0.0
 10
13.87114632965768
 20
4.364377447193865
 30
0.0
 10
13.86995479275791
 20
4.406253455846104
 30
0.0
  0
SPLINE
  5
88
330
1F
100
AcDbEntity
  8
0
  6
Continuous
 62
     7
370
    15
100
AcDbSpline
210
0.0
220
0.0
230
1.0
 70
     8
 71
     3
 72
    15
 73
    11
 74
     0
 42
0.000000001
 43
0.00000001
 40
0.0
 40
0.0
 40
0.0
 40
0.0
 40
0.1280448079611204
 40
0.2537679000244893
 40
0.3774284265813013
 40
0.5005508414825334
 40
0.6232958832424764
 40
0.746578331933508
 40
0.8723475406047173
 40
1.0
 40
1.0
 40
1.0
 40
1.0
 10
13.86995479275791
 20
4.406253455846104
 30
0.0
 10
13.87101393408851
 20
4.44554828626368
 30
0.0
 10
13.87311301233755
 20
4.523425450950548
 30
0.0
 10
13.88634379973123
 20
4.638690995480832
 30
0.0
 10
13.90979209279925
 20
4.75071944800939
 30
0.0
 10
13.94196841674839
 20
4.859603895978263
 30
0.0
 10
13.98351966293162
 20
4.965162029962348
 30
0.0
 10
14.03435188214785
 20
5.067458093585506
 30
0.0
 10
14.09454425993663
 20
5.166383233445966
 30
0.0
 10
14.1410169336931
 20
5.228786367153782
 30
0.0
 10
14.16442594660406
 20
5.260219801999949
 30
0.0
  0
SPLINE
  5
89
330
1F
100
AcDbEntity
  8
0
  6
Continuous
 62
     7
370
    15
100
AcDbSpline
210
0.0
220
0.0
230
1.0
 70
     8
 71
     3
 72
    15
 73
    11
 74
     0
 42
0.000000001
 43
0.00000001
 40
0.0
 40
0.0
 40
0.0
 40
0.0
 40
0.1288352544875549
 40
0.2535893349864766
 40
0.3746432573141705
 40
0.4953400422377925
 40
0.6163247746357907
 40
0.7397593354405151
 40
0.8668423203805468
 40
1.0
 40
1.0
 40
1.0
 40
1.0
 10
14.16442594660406
 20
5.260219801999949
 30
0.0
 10
14.1961336293799
 20
5.298088672088001
 30
0.0
 10
14.25854457598816
 20
5.372626822538472
 30
0.0
 10
14.36410093134202
 20
5.470565148320102
 30
0.0
 10
14.47840112768441
 20
5.552608923497161
 30
0.0
 10
14.60001275378457
 20
5.620616059635379
 30
0.0
 10
14.73034922784516
 20
5.67228970662816
 30
0.0
 10
14.86765851888275
 20
5.710797288860432
 30
0.0
 10
15.01350410510936
 20
5.73237529989371
 30
0.0
 10
15.11320932594756
 20
5.7354231335157
 30
0.0
 10
15.16422562609124
 20
5.73698262251277
 30
0.0
  0
SPLINE
  5
8A
330
1F
100
AcDbEntity
  8
0
  6
Continuous
 62
     7
370
    15
100
AcDbSpline
210
0.0
220
0.0
230
1.0
 70
     8
 71
     3
 72
    15
 73
    11
 74
     0
 42
0.000000001
 43
0.00000001
 40
0.0
 40
0.0
 40
0.0
 40
0.0
 40
0.1320402344259828
 40
0.259032840779371
 40
0.3818798239250174
 40
0.5022584437149862
 40
0.6227521895274775
 40
0.744742631859002
 40
0.8701089273418187
 40
1.0
 40
1.0
 40
1.0
 40
1.0
 10
15.16422562609124
 20
5.73698262251277
 30
0.0
 10
15.21667323139493
 20
5.735628573620269
 30
0.0
 10
15.3195634773336
 20
5.732972238354704
 30
0.0
 10
15.46959559837039
 20
5.708345904945644
 30
0.0
 10
15.61155631491098
 20
5.669293350382246
 30
0.0
 10
15.7453888192198
 20
5.614139559881711
 30
0.0
 10
15.87110667997263
 20
5.542980008091337
 30
0.0
 10
15.98789272954733
 20
5.454838166610388
 30
0.0
 10
16.09774424209608
 20
5.352420079385321
 30
0.0
 10
16.16165282094827
 20
5.27365686995803
 30
0.0
 10
16.19417354275791
 20
5.233577173794822
 30
0.0
  0
SPLINE
  5
8B
330
1F
100
AcDbEntity
  8
0
  6
Continuous
 62
     7
370
    15
100
AcDbSpline
210
0.0
220
0.0
230
1.0
 70
     8
 71
     3
 72
    15
 73
    11
 74
     0
 42
0.000000001
 43
0.00000001
 40
0.0
 40
0.0
 40
0.0
 40
0.0
 40
0.1185218400132596
 40
0.2362547631617479
 40
0.3561744339909326
 40
0.4772496548985585
 40
0.6015398708217027
 40
0.7296183821680435
 40
0.8621582661414389
 40
1.0
 40
1.0
 40
1.0
 40
1.0
 10
16.19417354275791
 20
5.233577173794822
 30
0.0
 10
16.2163004810704
 20
5.203373592408531
 30
0.0
 10
16.26040707416688
 20
5.143167473719719
 30
0.0
 10
16.31565417420203
 20
5.044996316619045
 30
0.0
 10
16.3636115691857
 20
4.942285722268885
 30
0.0
 10
16.40194453020046
 20
4.833375425181887
 30
0.0
 10
16.43298403139702
 20
4.719555845008957
 30
0.0
 10
16.4554408501372
 20
4.600013300294644
 30
0.0
 10
16.46861046871903
 20
4.47478338893379
 30
0.0
 10
16.47119916606747
 20
4.389456833457086
 30
0.0
 10
16.47251889532201
 20
4.345956981487129
 30
0.0
  0
LINE
  5
8C
330
1F
100
AcDbEntity
  8
0
  6
Continuous
 62
     7
370
    15
100
AcDbLine
 10
16.4725188953
 20
4.3459569815
 30
0.0
 11
14.1840573569
 21
4.3459569815
 31
0.0
  0
SPLINE
  5
8D
330
1F
100
AcDbEntity
  8
0
  6
Continuous
 62
     7
370
    15
100
AcDbSpline
210
0.0
220
0.0
230
1.0
 70
     8
 71
     3
 72
    31
 73
    27
 74
     0
 42
0.000000001
 43
0.00000001
 40
0.0
 40
0.0
 40
0.0
 40
0.0
 40
0.0412914469532469
 40
0.0821355032144642
 40
0.1226360352259624
 40
0.1628308697551231
 40
0.2030066005770546
 40
0.2435260831621606
 40
0.2841729362467871
 40
0.3254098107964585
 40
0.3668546660987568
 40
0.407550595165851
 40
0.4481873740566099
 40
0.4886828510840627
 40
0.5290149651896812
 40
0.5698427286954855
 40
0.6113702381646677
 40
0.6532377352823778
 40
0.69544611907328
 40
0.7377513945470103
 40
0.7800433605771124
 40
0.8228070703900511
 40
0.8659781422330298
 40
0.9095950301662455
 40
0.9542314047047875
 40
1.0
 40
1.0
 40
1.0
 40
1.0
 10
8.305852228655347
 20
4.392231019948667
 30
0.0
 10
8.306293244791885
 20
4.422409454503317
 30
0.0
 10
8.307170498677928
 20
4.482439341835125
 30
0.0
 10
8.317232426416677
 20
4.571534408516574
 30
0.0
 10
8.330230899350461
 20
4.659442953844997
 30
0.0
 10
8.35225663642282
 20
4.745050673193708
 30
0.0
 10
8.37769726809342
 20
4.829655963263017
 30
0.0
 10
8.410172799878827
 20
4.912239064566751
 30
0.0
 10
8.448268194796745
 20
4.993183737396063
 30
0.0
 10
8.491520142096846
 20
5.072281466998994
 30
0.0
 10
8.540208887206177
 20
5.148231006483653
 30
0.0
 10
8.594090120456201
 20
5.219984671153962
 30
0.0
 10
8.651134456675399
 20
5.288404436631648
 30
0.0
 10
8.71401056871218
 20
5.351128197307006
 30
0.0
 10
8.78005022255816
 20
5.410664388586118
 30
0.0
 10
8.851121798250205
 20
5.46542251291661
 30
0.0
 10
8.926817649910703
 20
5.515563503887132
 30
0.0
 10
9.006000972489735
 20
5.562014519327679
 30
0.0
 10
9.088625683820771
 20
5.603373954412907
 30
0.0
 10
9.174192354165834
 20
5.639007192271241
 30
0.0
 10
9.262185383409278
 20
5.669459768155417
 30
0.0
 10
9.35274552760094
 20
5.693568687397454
 30
0.0
 10
9.44527170073686
 20
5.71378611073891
 30
0.0
 10
9.540493038689547
 20
5.726503957056383
 30
0.0
 10
9.638045260948463
 20
5.735490229977048
 30
0.0
 10
9.704101283662311
 20
5.736481022147645
 30
0.0
 10
9.737542933783553
 20
5.73698262251277
 30
0.0
  0
SPLINE
  5
8E
330
1F
100
AcDbEntity
  8
0
  6
Continuous
 62
     7
370
    15
100
AcDbSpline
210
0.0
220
0.0
230
1.0
 70
     8
 71
     3
 72
    19
 73
    15
 74
     0
 42
0.000000001
 43
0.00000001
 40
0.0
 40
0.0
 40
0.0
 40
0.0
 40
0.0912688044343253
 40
0.1820814045527822
 40
0.2719096545272038
 40
0.362049458505354
 40
0.4500663484251177
 40
0.5339764739707166
 40
0.6136024537413233
 40
0.6901976142648822
 40
0.7654128769004127
 40
0.8414365506928787
 40
0.919732748605773
 40
1.0
 40
1.0
 40
1.0
 40
1.0
 10
9.737542933783553
 20
5.73698262251277
 30
0.0
 10
9.779423041829371
 20
5.736060731449071
 30
0.0
 10
9.862973921487193
 20
5.734221557365841
 30
0.0
 10
9.986914628145602
 20
5.718742905144647
 30
0.0
 10
10.10902982200583
 20
5.695406488734159
 30
0.0
 10
10.22717692549978
 20
5.660833658962794
 30
0.0
 10
10.33992343993726
 20
5.618970003241504
 30
0.0
 10
10.44545889013059
 20
5.57195728886271
 30
0.0
 10
10.54129899400082
 20
5.517362685446302
 30
0.0
 10
10.6292265831397
 20
5.457642571048729
 30
0.0
 10
10.70940610049142
 20
5.390281665326016
 30
0.0
 10
10.78266059306671
 20
5.314474707919667
 30
0.0
 10
10.85049224227622
 20
5.230616228846038
 30
0.0
 10
10.8889489537201
 20
5.168810497560551
 30
0.0
 10
10.90841633121945
 20
5.137523487897385
 30
0.0
  0
LINE
  5
8F
330
1F
100
AcDbEntity
  8
0
  6
Continuous
 62
     7
370
    15
100
AcDbLine
 10
10.9084163312
 20
5.1375234879
 30
0.0
 11
10.6454956581
 21
4.9741621097
 31
0.0
  0
SPLINE
  5
90
330
1F
100
AcDbEntity
  8
0
  6
Continuous
 62
     7
370
    15
100
AcDbSpline
210
0.0
220
0.0
230
1.0
 70
     8
 71
     3
 72
    15
 73
    11
 74
     0
 42
0.000000001
 43
0.00000001
 40
0.0
 40
0.0
 40
0.0
 40
0.0
 40
0.128324237769098
 40
0.2525844750621369
 40
0.3735064833109023
 40
0.4933644513855719
 40
0.6146085973434221
 40
0.7384702442356686
 40
0.8659947178700205
 40
1.0
 40
1.0
 40
1.0
 40
1.0
 10
10.64549565814252
 20
4.974162109692258
 30
0.0
 10
10.61666579276456
 20
5.00999050353075
 30
0.0
 10
10.55991909752442
 20
5.080512613829967
 30
0.0
 10
10.46137986117721
 20
5.171522547103081
 30
0.0
 10
10.35636844695668
 20
5.24968958887195
 30
0.0
 10
10.24309039924193
 20
5.313393339824694
 30
0.0
 10
10.12170459918972
 20
5.362614790194351
 30
0.0
 10
9.992689747938984
 20
5.397444995697315
 30
0.0
 10
9.856064243034846
 20
5.419149238526214
 30
0.0
 10
9.762399043999315
 20
5.421616075391681
 30
0.0
 10
9.714405914552783
 20
5.422880058410206
 30
0.0
  0
SPLINE
  5
91
330
1F
100
AcDbEntity
  8
0
  6
Continuous
 62
     7
370
    15
100
AcDbSpline
210
0.0
220
0.0
230
1.0
 70
     8
 71
     3
 72
    23
 73
    19
 74
     0
 42
0.000000001
 43
0.00000001
 40
0.0
 40
0.0
 40
0.0
 40
0.0
 40
0.0695216413260456
 40
0.1369209822612563
 40
0.2019692428653327
 40
0.2654615503849189
 40
0.3282478845128387
 40
0.3908167166700982
 40
0.4535501756793826
 40
0.5175419816323164
 40
0.5807383719174801
 40
0.6419215091741672
 40
0.7015967244089315
 40
0.7603128802455017
 40
0.8187565130146954
 40
0.8777180795361961
 40
0.9380940530276969
 40
1.0
 40
1.0
 40
1.0
 40
1.0
 10
9.714405914552783
 20
5.422880058410206
 30
0.0
 10
9.676046957641217
 20
5.421823216200502
 30
0.0
 10
9.600500035004318
 20
5.419741794204592
 30
0.0
 10
9.489593881557632
 20
5.406731300853604
 30
0.0
 10
9.383951528425202
 20
5.383089292547042
 30
0.0
 10
9.282910819524151
 20
5.3519383358547
 30
0.0
 10
9.187190400992977
 20
5.310188045914435
 30
0.0
 10
9.096539482545644
 20
5.259378289793898
 30
0.0
 10
9.010153992543923
 20
5.200328249483475
 30
0.0
 10
8.930537251203178
 20
5.131917704085055
 30
0.0
 10
8.857708244121227
 20
5.057519036436507
 30
0.0
 10
8.794609330081844
 20
4.977765341074051
 30
0.0
 10
8.739672396888473
 20
4.895045449867356
 30
0.0
 10
8.696566440549265
 20
4.807293707645528
 30
0.0
 10
8.661291270072939
 20
4.716517654388789
 30
0.0
 10
8.638084549887733
 20
4.621003798707194
 30
0.0
 10
8.622619854474765
 20
4.52197579113137
 30
0.0
 10
8.620850525857046
 20
4.454457451399068
 30
0.0
 10
8.619954792757913
 20
4.420275891743541
 30
0.0
  0
SPLINE
  5
92
330
1F
100
AcDbEntity
  8
0
  6
Continuous
 62
     7
370
    15
100
AcDbSpline
210
0.0
220
0.0
230
1.0
 70
     8
 71
     3
 72
    19
 73
    15
 74
     0
 42
0.000000001
 43
0.00000001
 40
0.0
 40
0.0
 40
0.0
 40
0.0
 40
0.0805252423525414
 40
0.159965476944986
 40
0.2403213612945778
 40
0.3225285276294005
 40
0.405023583207484
 40
0.4865966363996188
 40
0.56786547362932
 40
0.6513327733845224
 40
0.7362375672940283
 40
0.8215290690095371
 40
0.9090049060738454
 40
0.9999999999999999
 40
0.9999999999999999
 40
0.9999999999999999
 40
0.9999999999999999
 10
8.619954792757913
 20
4.420275891743541
 30
0.0
 10
8.621734044969362
 20
4.375506680712384
 30
0.0
 10
8.625268575512772
 20
4.286571484917551
 30
0.0
 10
8.652970035215171
 20
4.155293383143151
 30
0.0
 10
8.69831444253109
 20
4.028369692786119
 30
0.0
 10
8.76037229318888
 20
3.906701555662784
 30
0.0
 10
8.83884942760117
 20
3.794107400395287
 30
0.0
 10
8.931021990899938
 20
3.693123946010171
 30
0.0
 10
9.03694107415783
 20
3.605707917786678
 30
0.0
 10
9.155673404917883
 20
3.533235392707504
 30
0.0
 10
9.284431148361245
 20
3.474974025095526
 30
0.0
 10
9.42182125310921
 20
3.433466692210402
 30
0.0
 10
9.56672103355503
 20
3.408414319655687
 30
0.0
 10
9.665927780645177
 20
3.405258376617757
 30
0.0
 10
9.716509279937398
 20
3.403649289179437
 30
0.0
  0
SPLINE
  5
93
330
1F
100
AcDbEntity
  8
0
  6
Continuous
 62
     7
370
    15
100
AcDbSpline
210
0.0
220
0.0
230
1.0
 70
     8
 71
     3
 72
    15
 73
    11
 74
     0
 42
0.000000001
 43
0.00000001
 40
0.0
 40
0.0
 40
0.0
 40
0.0
 40
0.1299810785766154
 40
0.2554473120268483
 40
0.3772983447181151
 40
0.4984417785420219
 40
0.6193721253366254
 40
0.7418565019578126
 40
0.8685636891457529
 40
1.0
 40
1.0
 40
1.0
 40
1.0
 10
9.716509279937398
 20
3.403649289179437
 30
0.0
 10
9.762864464315491
 20
3.404948786375309
 30
0.0
 10
9.85396470273145
 20
3.407502643208221
 30
0.0
 10
9.987131987801453
 20
3.429031606536137
 30
0.0
 10
10.11391189865122
 20
3.464275240147825
 30
0.0
 10
10.23429992922651
 20
3.513422890196125
 30
0.0
 10
10.34807609528276
 20
3.576950406098111
 30
0.0
 10
10.45450527020115
 20
3.655309576909933
 30
0.0
 10
10.55570520847959
 20
3.746246177228008
 30
0.0
 10
10.61520218506169
 20
3.816564148518001
 30
0.0
 10
10.64549565814252
 20
3.852367237897385
 30
0.0
  0
LINE
  5
94
330
1F
100
AcDbEntity
  8
0
  6
Continuous
 62
     7
370
    15
100
AcDbLine
 10
10.6454956581
 20
3.8523672379
 30
0.0
 11
10.9084163312
 21
3.6798912764
 31
0.0
  0
SPLINE
  5
95
330
1F
100
AcDbEntity
  8
0
  6
Continuous
 62
     7
370
    15
100
AcDbSpline
210
0.0
220
0.0
230
1.0
 70
     8
 71
     3
 72
    23
 73
    19
 74
     0
 42
0.000000001
 43
0.00000001
 40
0.0
 40
0.0
 40
0.0
 40
0.0
 40
0.0596333961362509
 40
0.1190688615049896
 40
0.178196546215671
 40
0.2369566475521791
 40
0.2959319880758025
 40
0.3558557687429119
 40
0.4164733051171465
 40
0.4777415997317956
 40
0.539902990453609
 40
0.6025375151243941
 40
0.6654223850767761
 40
0.7297652560446453
 40
0.794828770841605
 40
0.8618265399701646
 40
0.9300109324340656
 40
0.9999999999999999
 40
0.9999999999999999
 40
0.9999999999999999
 40
0.9999999999999999
 10
10.90841633121945
 20
3.679891276358924
 30
0.0
 10
10.89282862900156
 20
3.657000549441406
 30
0.0
 10
10.8617049621166
 20
3.61129507281782
 30
0.0
 10
10.80967733666256
 20
3.546850956148455
 30
0.0
 10
10.75355750495781
 20
3.486529273846182
 30
0.0
 10
10.69356440807137
 20
3.430410883717089
 30
0.0
 10
10.63048139824369
 20
3.377152864503436
 30
0.0
 10
10.56215348864799
 20
3.329301289991702
 30
0.0
 10
10.49078387718412
 20
3.284166467275786
 30
0.0
 10
10.41553471946041
 20
3.243553595072781
 30
0.0
 10
10.33718402144746
 20
3.207047273528786
 30
0.0
 10
10.25584203183268
 20
3.1756561028094
 30
0.0
 10
10.17186221912092
 20
3.148685996903823
 30
0.0
 10
10.08514584294203
 20
3.127248650130856
 30
0.0
 10
9.995521944632427
 20
3.110137811650356
 30
0.0
 10
9.903222310207893
 20
3.098784110086263
 30
0.0
 10
9.808278728605764
 20
3.090308828966957
 30
0.0
 10
9.74410657729726
 20
3.089802962072413
 30
0.0
 10
9.711601427373296
 20
3.089546725076873
 30
0.0
  0
SPLINE
  5
96
330
1F
100
AcDbEntity
  8
0
  6
Continuous
 62
     7
370
    15
100
AcDbSpline
210
0.0
220
0.0
230
1.0
 70
     8
 71
     3
 72
    23
 73
    19
 74
     0
 42
0.000000001
 43
0.00000001
 40
0.0
 40
0.0
 40
0.0
 40
0.0
 40
0.0695585437274132
 40
0.1363352505575725
 40
0.2010957661175482
 40
0.2644499547795246
 40
0.3270049911572456
 40
0.3893913874403772
 40
0.4519764903030327
 40
0.5156699828847833
 40
0.5789732464632436
 40
0.6401670288004244
 40
0.6997398434247556
 40
0.7586849854260632
 40
0.8178204012911091
 40
0.8769839874813278
 40
0.9376342848620925
 40
1.0
 40
1.0
 40
1.0
 40
1.0
 10
9.711601427373296
 20
3.089546725076873
 30
0.0
 10
9.66199054368996
 20
3.090438004876922
 30
0.0
 10
9.564752851597735
 20
3.092184919753874
 30
0.0
 10
9.422430343983557
 20
3.111393395153848
 30
0.0
 10
9.28641667677221
 20
3.140351011432427
 30
0.0
 10
9.15675831880638
 20
3.181914745345616
 30
0.0
 10
9.033435084557906
 20
3.235419520603376
 30
0.0
 10
8.916561966313584
 20
3.300776435191437
 30
0.0
 10
8.806525948117182
 20
3.378528225094351
 30
0.0
 10
8.704415165347624
 20
3.467290994464939
 30
0.0
 10
8.610633719197835
 20
3.563531635435514
 30
0.0
 10
8.53010752884627
 20
3.667381553367882
 30
0.0
 10
8.460262258228479
 20
3.775022601209868
 30
0.0
 10
8.404174715156806
 20
3.888832127252366
 30
0.0
 10
8.35952778871944
 20
4.007297499805162
 30
0.0
 10
8.329022956144579
 20
4.131367739745167
 30
0.0
 10
8.30929321842644
 20
4.260019993802346
 30
0.0
 10
8.307009838904046
 20
4.347752875856676
 30
0.0
 10
8.305852228655349
 20
4.392231019948668
 30
0.0
  0
SPLINE
  5
97
330
1F
100
AcDbEntity
  8
0
  6
Continuous
 62
     7
370
    15
100
AcDbSpline
210
0.0
220
0.0
230
1.0
 70
     8
 71
     3
 72
    15
 73
    11
 74
     0
 42
0.000000001
 43
0.00000001
 40
0.0
 40
0.0
 40
0.0
 40
0.0
 40
0.1318667517023323
 40
0.2566614034533669
 40
0.3842132129425013
 40
0.5133652331525849
 40
0.6404431518253912
 40
0.761085004777882
 40
0.8791455246531611
 40
1.0
 40
1.0
 40
1.0
 40
1.0
 10
7.474321779937398
 20
6.230572366102513
 30
0.0
 10
7.455053504770664
 20
6.231442086324195
 30
0.0
 10
7.417550324609056
 20
6.233134883104489
 30
0.0
 10
7.363183482266815
 20
6.248704900840818
 30
0.0
 10
7.313354992873495
 20
6.274120973941317
 30
0.0
 10
7.268690320215176
 20
6.308347159036533
 30
0.0
 10
7.231460127083045
 20
6.349292056266203
 30
0.0
 10
7.204361801686477
 20
6.395619350123324
 30
0.0
 10
7.187286839800858
 20
6.445828504741309
 30
0.0
 10
7.185142211186173
 20
6.480740671050445
 30
0.0
 10
7.184057356860474
 20
6.49840089174354
 30
0.0
  0
SPLINE
  5
98
330
1F
100
AcDbEntity
  8
0
  6
Continuous
 62
     7
370
    15
100
AcDbSpline
210
0.0
220
0.0
230
1.0
 70
     8
 71
     3
 72
    15
 73
    11
 74
     0
 42
0.000000001
 43
0.00000001
 40
0.0
 40
0.0
 40
0.0
 40
0.0
 40
0.1232898687277945
 40
0.2421490813339702
 40
0.3634374760537272
 40
0.4897453933413733
 40
0.6181148445930048
 40
0.7448937812572448
 40
0.8689322665891841
 40
1.0
 40
1.0
 40
1.0
 40
1.0
 10
7.184057356860474
 20
6.49840089174354
 30
0.0
 10
7.185118443477319
 20
6.516531741346266
 30
0.0
 10
7.187202484543596
 20
6.552141873958194
 30
0.0
 10
7.204374600682049
 20
6.603236906873883
 30
0.0
 10
7.23123440844393
 20
6.650218408677033
 30
0.0
 10
7.268714971977435
 20
6.691243908102985
 30
0.0
 10
7.313348432247839
 20
6.725489342872074
 30
0.0
 10
7.363185177414383
 20
6.750900324374245
 30
0.0
 10
7.417549876792972
 20
6.76647166374452
 30
0.0
 10
7.455053352781547
 20
6.7681642780789
 30
0.0
 10
7.474321779937398
 20
6.769033904564052
 30
0.0
  0
SPLINE
  5
99
330
1F
100
AcDbEntity
  8
0
  6
Continuous
 62
     7
370
    15
100
AcDbSpline
210
0.0
220
0.0
230
1.0
 70
     8
 71
     3
 72
    15
 73
    11
 74
     0
 42
0.000000001
 43
0.00000001
 40
0.0
 40
0.0
 40
0.0
 40
0.0
 40
0.131899264331079
 40
0.2582840923169736
 40
0.3843411247791042
 40
0.5119796151257182
 40
0.6386320084211469
 40
0.759229763164587
 40
0.8774121680352052
 40
0.9999999999999999
 40
0.9999999999999999
 40
0.9999999999999999
 40
0.9999999999999999
 10
7.474321779937398
 20
6.769033904564052
 30
0.0
 10
7.493813095725535
 20
6.76812975216832
 30
0.0
 10
7.531980835568012
 20
6.766359248124703
 30
0.0
 10
7.587174103244285
 20
6.751197771046083
 30
0.0
 10
7.637431115319614
 20
6.725498085601584
 30
0.0
 10
7.682008848209478
 20
6.691018404700997
 30
0.0
 10
7.720260734890443
 20
6.650468961241755
 30
0.0
 10
7.747041445265858
 20
6.603207992946514
 30
0.0
 10
7.764253841381125
 20
6.552149354157652
 30
0.0
 10
7.766332396658679
 20
6.516534264976571
 30
0.0
 10
7.767390690193809
 20
6.498400891743541
 30
0.0
  0
SPLINE
  5
9A
330
1F
100
AcDbEntity
  8
0
  6
Continuous
 62
     7
370
    15
100
AcDbSpline
210
0.0
220
0.0
230
1.0
 70
     8
 71
     3
 72
    15
 73
    11
 74
     0
 42
0.000000001
 43
0.00000001
 40
0.0
 40
0.0
 40
0.0
 40
0.0
 40
0.1201621349925912
 40
0.2375463202768788
 40
0.357497050927359
 40
0.4849171224652679
 40
0.6133292680851269
 40
0.7401503701286909
 40
0.8673012545632627
 40
1.0
 40
1.0
 40
1.0
 40
1.0
 10
7.767390690193808
 20
6.49840089174354
 30
0.0
 10
7.76630853036896
 20
6.48073823858033
 30
0.0
 10
7.76416922846358
 20
6.445821263565648
 30
0.0
 10
7.74705474021223
 20
6.395647791513238
 30
0.0
 10
7.720032502369715
 20
6.349043508029873
 30
0.0
 10
7.682033376743584
 20
6.308572797817614
 30
0.0
 10
7.637424615741692
 20
6.274112177827101
 30
0.0
 10
7.587175829891592
 20
6.248407438922076
 30
0.0
 10
7.53198038137706
 20
6.233247301556355
 30
0.0
 10
7.493812942188866
 20
6.231476612817508
 30
0.0
 10
7.474321779937398
 20
6.230572366102513
 30
0.0
  0
LINE
  5
9B
330
1F
100
AcDbEntity
  8
0
  6
Continuous
 62
     7
370
    15
100
AcDbLine
 10
0.0
 20
50.0
 30
0.0
 11
0.0
 21
0.0
 31
0.0
  0
LINE
  5
9C
330
1F
100
AcDbEntity
  8
0
  6
Continuous
 62
     7
370
    15
100
AcDbLine
 10
0.0
 20
0.0
 30
0.0
 11
50.0
 21
0.0
 31
0.0
  0
LINE
  5
9D
330
1F
100
AcDbEntity
  8
0
  6
Continuous
 62
     7
370
    15
100
AcDbLine
 10
50.0
 20
0.0
 30
0.0
 11
50.0
 21
50.0
 31
0.0
  0
LINE
  5
9E
330
1F
100
AcDbEntity
  8
0
  6
Continuous
 62
     7
370
    15
100
AcDbLine
 10
50.0
 20
50.0
 30
0.0
 11
0.0
 21
50.0
 31
0.0
  0
SPLINE
  5
9F
330
1F
100
AcDbEntity
  8
0
  6
Continuous
 62
     7
370
    15
100
AcDbSpline
210
0.0
220
0.0
230
1.0
 70
     8
 71
     3
 72
    31
 73
    27
 74
     0
 42
0.000000001
 43
0.00000001
 40
0.0
 40
0.0
 40
0.0
 40
0.0
 40
0.0460806833872481
 40
0.0908067996076164
 40
0.1342952705290699
 40
0.1770243856662442
 40
0.2188227336826559
 40
0.2602441163273736
 40
0.301079867113445
 40
0.3416138942851571
 40
0.3815834185517461
 40
0.4201195913296167
 40
0.4580746185423135
 40
0.4947384876076565
 40
0.5311946228937138
 40
0.5669336984503782
 40
0.6027126507379957
 40
0.6383266061284353
 40
0.6748532488548243
 40
0.7134673707840598
 40
0.7544418038483807
 40
0.7978153607124988
 40
0.8439894562081102
 40
0.8930715698796474
 40
0.9449633461781438
 40
0.9999999999999999
 40
0.9999999999999999
 40
0.9999999999999999
 40
0.9999999999999999
 10
6.735339408142525
 20
4.840247846871744
 30
0.0
 10
6.734710440663408
 20
4.79698660838504
 30
0.0
 10
6.733470994551991
 20
4.711735819436746
 30
0.0
 10
6.722341678682685
 20
4.586094923828788
 30
0.0
 10
6.706165358636198
 20
4.464181352484316
 30
0.0
 10
6.681121160799139
 20
4.346575652441584
 30
0.0
 10
6.650718647361934
 20
4.23224743455603
 30
0.0
 10
6.611754496068713
 20
4.122415190210973
 30
0.0
 10
6.567118999892722
 20
4.016071380878367
 30
0.0
 10
6.515069121335241
 20
3.914653904969891
 30
0.0
 10
6.457927736328381
 20
3.818570532633547
 30
0.0
 10
6.396605993129048
 20
3.727995004514467
 30
0.0
 10
6.331169297733257
 20
3.644219782703192
 30
0.0
 10
6.260993664824104
 20
3.56699117066603
 30
0.0
 10
6.186985948374805
 20
3.496425592272117
 30
0.0
 10
6.108661617807409
 20
3.431933576924982
 30
0.0
 10
6.025818567033522
 20
3.374777022076932
 30
0.0
 10
5.938827844273366
 20
3.322709913859058
 30
0.0
 10
5.845151715074683
 20
3.277289558340792
 30
0.0
 10
5.743015848882682
 20
3.238859548537171
 30
0.0
 10
5.631984670900537
 20
3.207012933166113
 30
0.0
 10
5.512330713979709
 20
3.180442037370091
 30
0.0
 10
5.383847236239385
 20
3.159364734725163
 30
0.0
 10
5.24640827041512
 20
3.145238342287448
 30
0.0
 10
5.100224980725742
 20
3.135685409594132
 30
0.0
 10
4.999845715484914
 20
3.134849016233118
 30
0.0
 10
4.94817995301432
 20
3.134418519948667
 30
0.0
  0
LINE
  5
A0
330
1F
100
AcDbEntity
  8
0
  6
Continuous
 62
     7
370
    15
100
AcDbLine
 10
4.948179953
 20
3.1344185199
 30
0.0
 11
3.8635445363
 21
3.1344185199
 31
0.0
  0
LINE
  5
A1
330
1F
100
AcDbEntity
  8
0
  6
Continuous
 62
     7
370
    15
100
AcDbLine
 10
3.8635445363
 20
3.1344185199
 30
0.0
 11
3.8635445363
 21
6.6344185199
 31
0.0
  0
LINE
  5
A2
330
1F
100
AcDbEntity
  8
0
  6
Continuous
 62
     7
370
    15
100
AcDbLine
 10
3.8635445363
 20
6.6344185199
 30
0.0
 11
4.5702753056
 21
6.6344185199
 31
0.0
  0
SPLINE
  5
A3
330
1F
100
AcDbEntity
  8
0
  6
Continuous
 62
     7
370
    15
100
AcDbSpline
210
0.0
220
0.0
230
1.0
 70
     8
 71
     3
 72
    15
 73
    11
 74
     0
 42
0.000000001
 43
0.00000001
 40
0.0
 40
0.0
 40
0.0
 40
0.0
 40
0.164289216474762
 40
0.3174059112304912
 40
0.4588436116410203
 40
0.5893665423053095
 40
0.7078313187781725
 40
0.8157700306990046
 40
0.9128799029021262
 40
1.0
 40
1.0
 40
1.0
 40
1.0
 10
4.570275305578423
 20
6.634418519948667
 30
0.0
 10
4.631744293784761
 20
6.633975949952702
 30
0.0
 10
4.7505020591007
 20
6.633120907023732
 30
0.0
 10
4.922114506548206
 20
6.627699515882624
 30
0.0
 10
5.080898269018214
 20
6.618109050034497
 30
0.0
 10
5.226331128100269
 20
6.604139523899883
 30
0.0
 10
5.358812340087756
 20
6.58698649027856
 30
0.0
 10
5.47797094820188
 20
6.565486085934208
 30
0.0
 10
5.584423091103027
 20
6.540097915549502
 30
0.0
 10
5.649892531692259
 20
6.518452465304265
 30
0.0
 10
5.680852228655346
 20
6.508216596871745
 30
0.0
  0
SPLINE
  5
A4
330
1F
100
AcDbEntity
  8
0
  6
Continuous
 62
     7
370
    15
100
AcDbSpline
210
0.0
220
0.0
230
1.0
 70
     8
 71
     3
 72
    23
 73
    19
 74
     0
 42
0.000000001
 43
0.00000001
 40
0.0
 40
0.0
 40
0.0
 40
0.0
 40
0.0615449660163235
 40
0.1216942964020308
 40
0.1811548554526332
 40
0.2398753889119568
 40
0.2987019424504286
 40
0.3576474237092008
 40
0.4176048428493664
 40
0.4784940407282915
 40
0.5404070506371327
 40
0.6023449938728029
 40
0.6650043279232336
 40
0.7285593088233758
 40
0.7936505420268857
 40
0.8605342675902674
 40
0.9292359605619636
 40
1.0
 40
1.0
 40
1.0
 40
1.0
 10
5.680852228655347
 20
6.508216596871746
 30
0.0
 10
5.721346967962748
 20
6.492785891227874
 30
0.0
 10
5.801418160246627
 20
6.462274397146951
 30
0.0
 10
5.915425282813969
 20
6.404718095813676
 30
0.0
 10
6.022750645780624
 20
6.339504994064328
 30
0.0
 10
6.123969790653637
 20
6.266549131371478
 30
0.0
 10
6.21677061705677
 20
6.183784782890423
 30
0.0
 10
6.304778513792349
 20
6.094727697264446
 30
0.0
 10
6.384393237595412
 20
5.996139357050001
 30
0.0
 10
6.457301533625555
 20
5.890064369065503
 30
0.0
 10
6.523037193078769
 20
5.777752316847358
 30
0.0
 10
6.580176350938305
 20
5.659417208153369
 30
0.0
 10
6.627630344274452
 20
5.535660000093182
 30
0.0
 10
6.667023570870904
 20
5.406824852102159
 30
0.0
 10
6.698070028411061
 20
5.272628474290414
 30
0.0
 10
6.719251960111472
 20
5.132914608229941
 30
0.0
 10
6.7332229499816
 20
4.988235418836331
 30
0.0
 10
6.734627001296185
 20
4.890060955104695
 30
0.0
 10
6.735339408142525
 20
4.840247846871744
 30
0.0
  0
LINE
  5
A5
330
1F
100
AcDbEntity
  8
0
  6
Continuous
 62
     7
370
    15
100
AcDbLine
 10
7.6327753056
 20
3.1344185199
 30
0.0
 11
7.3186727415
 21
3.1344185199
 31
0.0
  0
LINE
  5
A6
330
1F
100
AcDbEntity
  8
0
  6
Continuous
 62
     7
370
    15
100
AcDbLine
 10
7.3186727415
 20
3.1344185199
 30
0.0
 11
7.3186727415
 21
5.6921108276
 31
0.0
  0
LINE
  5
A7
330
1F
100
AcDbEntity
  8
0
  6
Continuous
 62
     7
370
    15
100
AcDbLine
 10
7.3186727415
 20
5.6921108276
 30
0.0
 11
7.6327753056
 21
5.6921108276
 31
0.0
  0
LINE
  5
A8
330
1F
100
AcDbEntity
  8
0
  6
Continuous
 62
     7
370
    15
100
AcDbLine
 10
7.6327753056
 20
5.6921108276
 30
0.0
 11
7.6327753056
 21
3.1344185199
 31
0.0
  0
LINE
  5
A9
330
1F
100
AcDbEntity
  8
0
  6
Continuous
 62
     7
370
    15
100
AcDbLine
 10
11.8507240235
 20
3.1344185199
 30
0.0
 11
11.5366214594
 21
3.1344185199
 31
0.0
  0
LINE
  5
AA
330
1F
100
AcDbEntity
  8
0
  6
Continuous
 62
     7
370
    15
100
AcDbLine
 10
11.5366214594
 20
3.1344185199
 30
0.0
 11
11.5366214594
 21
6.7241621097
 31
0.0
  0
LINE
  5
AB
330
1F
100
AcDbEntity
  8
0
  6
Continuous
 62
     7
370
    15
100
AcDbLine
 10
11.5366214594
 20
6.7241621097
 30
0.0
 11
11.8507240235
 21
6.7241621097
 31
0.0
  0
LINE
  5
AC
330
1F
100
AcDbEntity
  8
0
  6
Continuous
 62
     7
370
    15
100
AcDbLine
 10
11.8507240235
 20
6.7241621097
 30
0.0
 11
11.8507240235
 21
4.6488415969
 31
0.0
  0
LINE
  5
AD
330
1F
100
AcDbEntity
  8
0
  6
Continuous
 62
     7
370
    15
100
AcDbLine
 10
11.8507240235
 20
4.6488415969
 30
0.0
 11
13.014586203
 21
5.6921108276
 31
0.0
  0
LINE
  5
AE
330
1F
100
AcDbEntity
  8
0
  6
Continuous
 62
     7
370
    15
100
AcDbLine
 10
13.014586203
 20
5.6921108276
 30
0.0
 11
13.4661086389
 21
5.6921108276
 31
0.0
  0
LINE
  5
AF
330
1F
100
AcDbEntity
  8
0
  6
Continuous
 62
     7
370
    15
100
AcDbLine
 10
13.4661086389
 20
5.6921108276
 30
0.0
 11
12.115748062
 21
4.4805723661
 31
0.0
  0
LINE
  5
B0
330
1F
100
AcDbEntity
  8
0
  6
Continuous
 62
     7
370
    15
100
AcDbLine
 10
12.115748062
 20
4.4805723661
 30
0.0
 11
13.6007240235
 21
3.1344185199
 31
0.0
  0
LINE
  5
B1
330
1F
100
AcDbEntity
  8
0
  6
Continuous
 62
     7
370
    15
100
AcDbLine
 10
13.6007240235
 20
3.1344185199
 30
0.0
 11
13.1499027094
 21
3.1344185199
 31
0.0
  0
LINE
  5
B2
330
1F
100
AcDbEntity
  8
0
  6
Continuous
 62
     7
370
    15
100
AcDbLine
 10
13.1499027094
 20
3.1344185199
 30
0.0
 11
11.8507240235
 21
4.3130042571
 31
0.0
  0
LINE
  5
B3
330
1F
100
AcDbEntity
  8
0
  6
Continuous
 62
     7
370
    15
100
AcDbLine
 10
11.8507240235
 20
4.3130042571
 30
0.0
 11
11.8507240235
 21
3.1344185199
 31
0.0
  0
LINE
  5
B4
330
1F
100
AcDbEntity
  8
0
  6
Continuous
 62
     7
370
    15
100
AcDbLine
 10
19.2994419722
 20
6.275444161
 30
0.0
 11
18.7609804338
 21
6.275444161
 31
0.0
  0
LINE
  5
B5
330
1F
100
AcDbEntity
  8
0
  6
Continuous
 62
     7
370
    15
100
AcDbLine
 10
18.7609804338
 20
6.275444161
 30
0.0
 11
18.9664091197
 21
6.6344185199
 31
0.0
  0
LINE
  5
B6
330
1F
100
AcDbEntity
  8
0
  6
Continuous
 62
     7
370
    15
100
AcDbLine
 10
18.9664091197
 20
6.6344185199
 30
0.0
 11
19.6135445363
 21
6.6344185199
 31
0.0
  0
LINE
  5
B7
330
1F
100
AcDbEntity
  8
0
  6
Continuous
 62
     7
370
    15
100
AcDbLine
 10
19.6135445363
 20
6.6344185199
 30
0.0
 11
19.6135445363
 21
3.1344185199
 31
0.0
  0
LINE
  5
B8
330
1F
100
AcDbEntity
  8
0
  6
Continuous
 62
     7
370
    15
100
AcDbLine
 10
19.6135445363
 20
3.1344185199
 30
0.0
 11
19.2994419722
 21
3.1344185199
 31
0.0
  0
LINE
  5
B9
330
1F
100
AcDbEntity
  8
0
  6
Continuous
 62
     7
370
    15
100
AcDbLine
 10
19.2994419722
 20
3.1344185199
 30
0.0
 11
19.2994419722
 21
6.275444161
 31
0.0
  0
LINE
  5
BA
330
1F
100
AcDbEntity
  8
0
  6
Continuous
 62
     7
370
    15
100
AcDbLine
 10
27.3314932543
 20
3.1344185199
 30
0.0
 11
27.0173906902
 21
3.1344185199
 31
0.0
  0
LINE
  5
BB
330
1F
100
AcDbEntity
  8
0
  6
Continuous
 62
     7
370
    15
100
AcDbLine
 10
27.0173906902
 20
3.1344185199
 30
0.0
 11
27.0173906902
 21
5.6921108276
 31
0.0
  0
LINE
  5
BC
330
1F
100
AcDbEntity
  8
0
  6
Continuous
 62
     7
370
    15
100
AcDbLine
 10
27.0173906902
 20
5.6921108276
 30
0.0
 11
27.3314932543
 21
5.6921108276
 31
0.0
  0
LINE
  5
BD
330
1F
100
AcDbEntity
  8
0
  6
Continuous
 62
     7
370
    15
100
AcDbLine
 10
27.3314932543
 20
5.6921108276
 30
0.0
 11
27.3314932543
 21
5.2475996097
 31
0.0
  0
SPLINE
  5
BE
330
1F
100
AcDbEntity
  8
0
  6
Continuous
 62
     7
370
    15
100
AcDbSpline
210
0.0
220
0.0
230
1.0
 70
     8
 71
     3
 72
    11
 73
     7
 74
     0
 42
0.000000001
 43
0.00000001
 40
0.0
 40
0.0
 40
0.0
 40
0.0
 40
0.283594808138693
 40
0.543394840575968
 40
0.7806456291745633
 40
1.0
 40
1.0
 40
1.0
 40
1.0
 10
27.33149325429637
 20
5.247599609692257
 30
0.0
 10
27.35977720421057
 20
5.286487211422106
 30
0.0
 10
27.41397196382328
 20
5.360999584483739
 30
0.0
 10
27.50283761631561
 20
5.459189868719693
 30
0.0
 10
27.5916137287948
 20
5.542518023373852
 30
0.0
 10
27.65554711056297
 20
5.586260894978119
 30
0.0
 10
27.6862608825015
 20
5.607275090461489
 30
0.0
  0
SPLINE
  5
BF
330
1F
100
AcDbEntity
  8
0
  6
Continuous
 62
     7
370
    15
100
AcDbSpline
210
0.0
220
0.0
230
1.0
 70
     8
 71
     3
 72
    11
 73
     7
 74
     0
 42
0.000000001
 43
0.00000001
 40
0.0
 40
0.0
 40
0.0
 40
0.0
 40
0.2537340756906602
 40
0.5030351201318592
 40
0.7500135973308782
 40
1.0
 40
1.0
 40
1.0
 40
1.0
 10
27.6862608825015
 20
5.607275090461489
 30
0.0
 10
27.72812554468674
 20
5.627280455706788
 30
0.0
 10
27.81112344441429
 20
5.666941669054102
 30
0.0
 10
27.94254266933608
 20
5.707175228017509
 30
0.0
 10
28.07701733887255
 20
5.731900329326217
 30
0.0
 10
28.16782555277591
 20
5.735281702759743
 30
0.0
 10
28.21350447224509
 20
5.736982622512771
 30
0.0
  0
SPLINE
  5
C0
330
1F
100
AcDbEntity
  8
0
  6
Continuous
 62
     7
370
    15
100
AcDbSpline
210
0.0
220
0.0
230
1.0
 70
     8
 71
     3
 72
    19
 73
    15
 74
     0
 42
0.000000001
 43
0.00000001
 40
0.0
 40
0.0
 40
0.0
 40
0.0
 40
0.0841520188443165
 40
0.1665323202984589
 40
0.2488363311465293
 40
0.3312461454872616
 40
0.4129571090216179
 40
0.4904942776695669
 40
0.5661557919819249
 40
0.6399873346864677
 40
0.7167654882718499
 40
0.8021439047100981
 40
0.8958332007101919
 40
1.0
 40
1.0
 40
1.0
 40
1.0
 10
28.21350447224509
 20
5.73698262251277
 30
0.0
 10
28.24439746881262
 20
5.735937331732305
 30
0.0
 10
28.30553304785181
 20
5.733868757484792
 30
0.0
 10
28.39611713795195
 20
5.720408722307988
 30
0.0
 10
28.48397574978499
 20
5.69714254928846
 30
0.0
 10
28.56858977911433
 20
5.664735225321045
 30
0.0
 10
28.64831045839319
 20
5.62548853840699
 30
0.0
 10
28.72139965614353
 20
5.579438830490216
 30
0.0
 10
28.78702386432629
 20
5.527741755084703
 30
0.0
 10
28.84514991563442
 20
5.468062822099608
 30
0.0
 10
28.89741894103036
 20
5.398726223579065
 30
0.0
 10
28.94549778766034
 20
5.317861974675423
 30
0.0
 10
28.98992300003776
 20
5.223654313619775
 30
0.0
 10
29.01454430886983
 20
5.15528777264176
 30
0.0
 10
29.02750687609124
 20
5.119294321230719
 30
0.0
  0
SPLINE
  5
C1
330
1F
100
AcDbEntity
  8
0
  6
Continuous
 62
     7
370
    15
100
AcDbSpline
210
0.0
220
0.0
230
1.0
 70
     8
 71
     3
 72
    19
 73
    15
 74
     0
 42
0.000000001
 43
0.00000001
 40
0.0
 40
0.0
 40
0.0
 40
0.0
 40
0.0717660641583395
 40
0.1412255357663686
 40
0.2091158524974616
 40
0.2748396534685253
 40
0.3394829303752196
 40
0.4024762667353994
 40
0.4649418891713269
 40
0.5268326406463827
 40
0.6474148160608223
 40
0.7655615117859482
 40
0.8816150870393312
 40
1.0
 40
1.0
 40
1.0
 40
1.0
 10
29.02750687609124
 20
5.119294321230719
 30
0.0
 10
29.04121812744696
 20
5.144018740505864
 30
0.0
 10
29.0681999445697
 20
5.192672925455185
 30
0.0
 10
29.1135055816424
 20
5.261531187700063
 30
0.0
 10
29.16097337812072
 20
5.325937979545437
 30
0.0
 10
29.21100787118129
 20
5.385944403915524
 30
0.0
 10
29.2634324580219
 20
5.44125413432955
 30
0.0
 10
29.31849385832206
 20
5.492050035983882
 30
0.0
 10
29.37587863974561
 20
5.538550249668507
 30
0.0
 10
29.4556708796583
 20
5.592873409182213
 30
0.0
 10
29.55948348704511
 20
5.650574590544678
 30
0.0
 10
29.69037160174295
 20
5.700603034553374
 30
0.0
 10
29.8265217733321
 20
5.731519162912399
 30
0.0
 10
29.91893947163956
 20
5.73514943574823
 30
0.0
 10
29.96560783762971
 20
5.73698262251277
 30
0.0
  0
SPLINE
  5
C2
330
1F
100
AcDbEntity
  8
0
  6
Continuous
 62
     7
370
    15
100
AcDbSpline
210
0.0
220
0.0
230
1.0
 70
     8
 71
     3
 72
    23
 73
    19
 74
     0
 42
0.000000001
 43
0.00000001
 40
0.0
 40
0.0
 40
0.0
 40
0.0
 40
0.0756043304957457
 40
0.1479650154827355
 40
0.2187969985236999
 40
0.2894704453213764
 40
0.3597242180874993
 40
0.429707738753046
 40
0.500496519848585
 40
0.5744290198679484
 40
0.6139472962286693
 40
0.6571552698261108
 40
0.7039727697209363
 40
0.7549389848168004
 40
0.8097066112894875
 40
0.8688329536985494
 40
0.9323854739325975
 40
1.0
 40
1.0
 40
1.0
 40
1.0
 10
29.96560783762971
 20
5.73698262251277
 30
0.0
 10
30.00848930044827
 20
5.735365401655065
 30
0.0
 10
30.09241248670314
 20
5.732200343414613
 30
0.0
 10
30.21458975241597
 20
5.707346870079199
 30
0.0
 10
30.32853155774033
 20
5.664669222961483
 30
0.0
 10
30.43400863386981
 20
5.606435586391123
 30
0.0
 10
30.52916844727893
 20
5.533256403086834
 30
0.0
 10
30.61188475646286
 20
5.446187565468934
 30
0.0
 10
30.68165511979885
 20
5.34584494245757
 30
0.0
 10
30.72723375949577
 20
5.251452953763605
 30
0.0
 10
30.75814902372568
 20
5.168117620915103
 30
0.0
 10
30.77721025805159
 20
5.097111329607024
 30
0.0
 10
30.79404995313816
 20
5.018959776686927
 30
0.0
 10
30.80803119840117
 20
4.93356951518373
 30
0.0
 10
30.81824975049687
 20
4.840638906880955
 30
0.0
 10
30.82582046598471
 20
4.740320030998013
 30
0.0
 10
30.83094453954304
 20
4.632534919376138
 30
0.0
 10
30.83130661180457
 20
4.558169419148746
 30
0.0
 10
30.83149325429638
 20
4.519835186615335
 30
0.0
  0
LINE
  5
C3
330
1F
100
AcDbEntity
  8
0
  6
Continuous
 62
     7
370
    15
100
AcDbLine
 10
30.8314932543
 20
4.5198351866
 30
0.0
 11
30.8314932543
 21
3.1344185199
 31
0.0
  0
LINE
  5
C4
330
1F
100
AcDbEntity
  8
0
  6
Continuous
 62
     7
370
    15
100
AcDbLine
 10
30.8314932543
 20
3.1344185199
 30
0.0
 11
30.5173906902
 21
3.1344185199
 31
0.0
  0
LINE
  5
C5
330
1F
100
AcDbEntity
  8
0
  6
Continuous
 62
     7
370
    15
100
AcDbLine
 10
30.5173906902
 20
3.1344185199
 30
0.0
 11
30.5173906902
 21
4.5212374302
 31
0.0
  0
SPLINE
  5
C6
330
1F
100
AcDbEntity
  8
0
  6
Continuous
 62
     7
370
    15
100
AcDbSpline
210
0.0
220
0.0
230
1.0
 70
     8
 71
     3
 72
    23
 73
    19
 74
     0
 42
0.000000001
 43
0.00000001
 40
0.0
 40
0.0
 40
0.0
 40
0.0
 40
0.0783429851937011
 40
0.1505633028794209
 40
0.2161510566599772
 40
0.2756797924514268
 40
0.3287070503654627
 40
0.3759044348322085
 40
0.4173018977400329
 40
0.4526927480535841
 40
0.5172652917530136
 40
0.5812165680623074
 40
0.6453218939728009
 40
0.7120244933797624
 40
0.7801300447160451
 40
0.8502182262116652
 40
0.9226485217347389
 40
0.9999999999999999
 40
0.9999999999999999
 40
0.9999999999999999
 40
0.9999999999999999
 10
30.51739069019381
 20
4.521237430205077
 30
0.0
 10
30.51731280721778
 20
4.553958004142511
 30
0.0
 10
30.51716312798256
 20
4.616841970996081
 30
0.0
 10
30.51446949641836
 20
4.707094422203748
 30
0.0
 10
30.50939418236268
 20
4.789362779446742
 30
0.0
 10
30.50345954359561
 20
4.863534867590229
 30
0.0
 10
30.49521573421506
 20
4.929783656086871
 30
0.0
 10
30.48456980248038
 20
4.987976074654989
 30
0.0
 10
30.47329212258165
 20
5.038569886015655
 30
0.0
 10
30.45455613147282
 20
5.094655933613794
 30
0.0
 10
30.42460823985697
 20
5.156526144097093
 30
0.0
 10
30.37899075982392
 20
5.223249719892274
 30
0.0
 10
30.32152065355918
 20
5.281330520075497
 30
0.0
 10
30.25516049699604
 20
5.331748836893655
 30
0.0
 10
30.17961205230238
 20
5.372742477991505
 30
0.0
 10
30.09634732913758
 20
5.402018487694077
 30
0.0
 10
30.00588327754314
 20
5.420141366106436
 30
0.0
 10
29.94326048913243
 20
5.421947381682801
 30
0.0
 10
29.9109203376297
 20
5.422880058410206
 30
0.0
  0
SPLINE
  5
C7
330
1F
100
AcDbEntity
  8
0
  6
Continuous
 62
     7
370
    15
100
AcDbSpline
210
0.0
220
0.0
230
1.0
 70
     8
 71
     3
 72
    23
 73
    19
 74
     0
 42
0.000000001
 43
0.00000001
 40
0.0
 40
0.0
 40
0.0
 40
0.0
 40
0.0681582441559972
 40
0.1347066022023567
 40
0.2018649976035972
 40
0.2707882662774621
 40
0.3400242943604909
 40
0.4080827390537207
 40
0.476813195258144
 40
0.5473460643070949
 40
0.5856397954238958
 40
0.6288649531777639
 40
0.6771532033637913
 40
0.730802811365106
 40
0.7898066155325019
 40
0.8543250087420139
 40
0.9243651340575438
 40
1.0
 40
1.0
 40
1.0
 40
1.0
 10
29.9109203376297
 20
5.422880058410206
 30
0.0
 10
29.87125038325638
 20
5.421463901023657
 30
0.0
 10
29.79284747207043
 20
5.418665035646649
 30
0.0
 10
29.67840198586235
 20
5.390091162683463
 30
0.0
 10
29.56843096925538
 20
5.347010912023896
 30
0.0
 10
29.46621583633044
 20
5.284578454900422
 30
0.0
 10
29.37218804571368
 20
5.209770091048384
 30
0.0
 10
29.29128846792808
 20
5.120820495289065
 30
0.0
 10
29.22445628226631
 20
5.020190568353886
 30
0.0
 10
29.17920230632552
 20
4.927043866038251
 30
0.0
 10
29.15061300508065
 20
4.843374422157071
 30
0.0
 10
29.1317360893358
 20
4.770277050159073
 30
0.0
 10
29.11705269786592
 20
4.68719548232592
 30
0.0
 10
29.10328216865471
 20
4.594687991461724
 30
0.0
 10
29.09429444068801
 20
4.492117811109725
 30
0.0
 10
29.08612606836366
 20
4.379959410109902
 30
0.0
 10
29.08230520554971
 20
4.257875450673922
 30
0.0
 10
29.08177074679026
 20
4.173248762060132
 30
0.0
 10
29.08149325429637
 20
4.129310346871745
 30
0.0
  0
LINE
  5
C8
330
1F
100
AcDbEntity
  8
0
  6
Continuous
 62
     7
370
    15
100
AcDbLine
 10
29.0814932543
 20
4.1293103469
 30
0.0
 11
29.0814932543
 21
3.1344185199
 31
0.0
  0
LINE
  5
C9
330
1F
100
AcDbEntity
  8
0
  6
Continuous
 62
     7
370
    15
100
AcDbLine
 10
29.0814932543
 20
3.1344185199
 30
0.0
 11
28.7673906902
 21
3.1344185199
 31
0.0
  0
LINE
  5
CA
330
1F
100
AcDbEntity
  8
0
  6
Continuous
 62
     7
370
    15
100
AcDbLine
 10
28.7673906902
 20
3.1344185199
 30
0.0
 11
28.7673906902
 21
4.4349994494
 31
0.0
  0
SPLINE
  5
CB
330
1F
100
AcDbEntity
  8
0
  6
Continuous
 62
     7
370
    15
100
AcDbSpline
210
0.0
220
0.0
230
1.0
 70
     8
 71
     3
 72
    23
 73
    19
 74
     0
 42
0.000000001
 43
0.00000001
 40
0.0
 40
0.0
 40
0.0
 40
0.0
 40
0.0825297038220668
 40
0.1587788549175703
 40
0.2277380621151797
 40
0.2899456527966756
 40
0.3454988386981375
 40
0.3938963373401232
 40
0.4363737851900878
 40
0.4721222744615225
 40
0.5363836155048266
 40
0.5990779017254955
 40
0.6619482340244578
 40
0.7263105423531546
 40
0.7917711030502095
 40
0.8586473037978588
 40
0.9273053338076825
 40
1.0
 40
1.0
 40
1.0
 40
1.0
 10
28.76739069019381
 20
4.434999449435846
 30
0.0
 10
28.76731125921756
 20
4.471692768201122
 30
0.0
 10
28.76715844200305
 20
4.542287025381993
 30
0.0
 10
28.76448212468674
 20
4.643520700692745
 30
0.0
 10
28.75939550299063
 20
4.735601780785755
 30
0.0
 10
28.75351495462445
 20
4.81842324461917
 30
0.0
 10
28.74505477610632
 20
4.891834573379828
 30
0.0
 10
28.73544501399651
 20
4.956229331382297
 30
0.0
 10
28.72409640346982
 20
5.011446082465549
 30
0.0
 10
28.70530651884877
 20
5.072009467328634
 30
0.0
 10
28.67659205055931
 20
5.138730390312692
 30
0.0
 10
28.63040378857146
 20
5.20987141149513
 30
0.0
 10
28.5727962081904
 20
5.272139509017769
 30
0.0
 10
28.5052253323259
 20
5.325298257453263
 30
0.0
 10
28.42921965013565
 20
5.369239738751735
 30
0.0
 10
28.34523624932677
 20
5.40089949053822
 30
0.0
 10
28.25403133649029
 20
5.419323780160592
 30
0.0
 10
28.1911536305813
 20
5.421672276836301
 30
0.0
 10
28.15881697224509
 20
5.422880058410206
 30
0.0
  0
SPLINE
  5
CC
330
1F
100
AcDbEntity
  8
0
  6
Continuous
 62
     7
370
    15
100
AcDbSpline
210
0.0
220
0.0
230
1.0
 70
     8
 71
     3
 72
    23
 73
    19
 74
     0
 42
0.000000001
 43
0.00000001
 40
0.0
 40
0.0
 40
0.0
 40
0.0
 40
0.0686770684130354
 40
0.1368709585090952
 40
0.2061143571452985
 40
0.2775381819697269
 40
0.3497719775548978
 40
0.4212508361555686
 40
0.4929107569233706
 40
0.5670265889927391
 40
0.6066141532413348
 40
0.6497039535189878
 40
0.6973031504846852
 40
0.7490856597091359
 40
0.8048806474593087
 40
0.8654850057023364
 40
0.9302371271531361
 40
1.0
 40
1.0
 40
1.0
 40
1.0
 10
28.15881697224509
 20
5.422880058410206
 30
0.0
 10
28.12080076079215
 20
5.421349598393192
 30
0.0
 10
28.04503580138599
 20
5.418299445928494
 30
0.0
 10
27.93373383173089
 20
5.390845172079801
 30
0.0
 10
27.82624814811319
 20
5.347841097321234
 30
0.0
 10
27.72429344931983
 20
5.288181278235141
 30
0.0
 10
27.6306193010136
 20
5.214282199638316
 30
0.0
 10
27.54861103371924
 20
5.127367303866444
 30
0.0
 10
27.47966850819508
 20
5.028518270354298
 30
0.0
 10
27.43393669329303
 20
4.936353753838786
 30
0.0
 10
27.40443821917144
 20
4.854780478941613
 30
0.0
 10
27.38484288449408
 20
4.785429531267606
 30
0.0
 10
27.36800325868191
 20
4.708429282985457
 30
0.0
 10
27.35548923697776
 20
4.623542171901114
 30
0.0
 10
27.34340882137008
 20
4.531321077765607
 30
0.0
 10
27.33757851229271
 20
4.431306588055987
 30
0.0
 10
27.33190695013839
 20
4.323584500353988
 30
0.0
 10
27.33163453543872
 20
4.249211955112181
 30
0.0
 10
27.33149325429637
 20
4.210640475076873
 30
0.0
  0
LINE
  5
CD
330
1F
100
AcDbEntity
  8
0
  6
Continuous
 62
     7
370
    15
100
AcDbLine
 10
27.3314932543
 20
4.2106404751
 30
0.0
 11
27.3314932543
 21
3.1344185199
 31
0.0
  0
ENDSEC
  0
SECTION
  2
OBJECTS
  0
DICTIONARY
  5
C
330
0
100
AcDbDictionary
281
     1
  3
ACAD_GROUP
350
D
  3
ACAD_LAYOUT
350
1A
  3
ACAD_MLINESTYLE
350
17
  3
ACAD_PLOTSETTINGS
350
19
  3
ACAD_PLOTSTYLENAME
350
E
  3
ACAD_SCALELIST
350
47
  0
DICTIONARY
  5
D
102
{ACAD_REACTORS
330
C
102
}
330
C
100
AcDbDictionary
281
     1
  0
DICTIONARY
  5
1A
102
{ACAD_REACTORS
330
C
102
}
330
C
100
AcDbDictionary
281
     1
  3
Layout1
350
1E
  3
Layout2
350
26
  3
Model
350
22
  0
DICTIONARY
  5
17
102
{ACAD_REACTORS
330
C
102
}
330
C
100
AcDbDictionary
281
     1
  3
Standard
350
18
  0
DICTIONARY
  5
19
102
{ACAD_REACTORS
330
C
102
}
330
C
100
AcDbDictionary
281
     1
  0
ACDBDICTIONARYWDFLT
  5
E
102
{ACAD_REACTORS
330
C
102
}
330
C
100
AcDbDictionary
281
     1
  3
Normal
350
F
100
AcDbDictionaryWithDefault
340
F
  0
DICTIONARY
  5
47
102
{ACAD_REACTORS
330
C
102
}
330
C
100
AcDbDictionary
281
     1
  3
A0
350
48
  3
A1
350
49
  3
A2
350
4A
  3
A3
350
4B
  3
A4
350
4C
  3
A5
350
4D
  3
A6
350
4E
  3
A7
350
4F
  3
A8
350
50
  3
A9
350
51
  3
B0
350
52
  3
B1
350
53
  3
B2
350
54
  3
B3
350
55
  3
B4
350
56
  3
B5
350
57
  3
B6
350
58
  3
B7
350
59
  3
B8
350
5A
  3
B9
350
5B
  3
C0
350
5C
  3
C1
350
5D
  3
C2
350
5E
  3
C3
350
5F
  3
C4
350
60
  3
C5
350
61
  3
C6
350
62
  3
C7
350
63
  3
C8
350
64
  3
C9
350
65
  3
D0
350
66
  3
D1
350
67
  3
D2
350
68
  0
LAYOUT
  5
1E
102
{ACAD_REACTORS
330
1A
102
}
330
1A
100
AcDbPlotSettings
  1

  2
none_device
  4

  6

 40
0.0
 41
0.0
 42
0.0
 43
0.0
 44
0.0
 45
0.0
 46
0.0
 47
0.0
 48
0.0
 49
0.0
140
0.0
141
0.0
142
1.0
143
1.0
 70
   688
 72
     1
 73
     0
 74
     5
  7

 75
    16
147
1.0
148
0.0
149
0.0
100
AcDbLayout
  1
Layout1
 70
     1
 71
     1
 10
0.0
 20
0.0
 11
420.0
 21
297.0
 12
0.0
 22
0.0
 32
0.0
 14
1.0000000000E+20
 24
1.0000000000E+20
 34
1.0000000000E+20
 15
-1.0000000000E+20
 25
-1.0000000000E+20
 35
-1.0000000000E+20
146
0.0
 13
0.0
 23
0.0
 33
0.0
 16
1.0
 26
0.0
 36
0.0
 17
0.0
 27
1.0
 37
0.0
 76
     0
330
1B
  0
LAYOUT
  5
26
102
{ACAD_REACTORS
330
1A
102
}
330
1A
100
AcDbPlotSettings
  1

  2
none_device
  4

  6

 40
0.0
 41
0.0
 42
0.0
 43
0.0
 44
0.0
 45
0.0
 46
0.0
 47
0.0
 48
0.0
 49
0.0
140
0.0
141
0.0
142
1.0
143
1.0
 70
   688
 72
     1
 73
     0
 74
     5
  7

 75
    16
147
1.0
148
0.0
149
0.0
100
AcDbLayout
  1
Layout2
 70
     1
 71
     2
 10
0.0
 20
0.0
 11
0.0
 21
0.0
 12
0.0
 22
0.0
 32
0.0
 14
0.0
 24
0.0
 34
0.0
 15
0.0
 25
0.0
 35
0.0
146
0.0
 13
0.0
 23
0.0
 33
0.0
 16
1.0
 26
0.0
 36
0.0
 17
0.0
 27
1.0
 37
0.0
 76
     0
330
23
  0
LAYOUT
  5
22
102
{ACAD_REACTORS
330
1A
102
}
330
1A
100
AcDbPlotSettings
  1

  2
none_device
  4
ANSI_A_(11.00_x_8.50_Inches)
  6

 40
6.35
 41
19.05
 42
6.35000508
 43
19.05000254
 44
279.4
 45
215.9
 46
26.47949746
 47
-17.97050127
 48
0.0
 49
0.0
140
0.0
141
0.0
142
0.1683
143
1.0
 70
  1696
 72
     0
 73
     0
 74
     0
  7

 75
     0
147
0.0179189148
148
-1300.4909072572
149
0.0
100
AcDbLayout
  1
Model
 70
     1
 71
     0
 10
0.0
 20
0.0
 11
420.0
 21
297.0
 12
0.0
 22
0.0
 32
0.0
 14
0.0
 24
0.0
 34
0.0
 15
50.0
 25
50.0
 35
0.0
146
0.0
 13
0.0
 23
0.0
 33
0.0
 16
1.0
 26
0.0
 36
0.0
 17
0.0
 27
1.0
 37
0.0
 76
     0
330
1F
331
29
  0
MLINESTYLE
  5
18
102
{ACAD_REACTORS
330
17
102
}
330
17
100
AcDbMlineStyle
  2
Standard
 70
     0
  3

 62
   256
 51
90.0
 52
90.0
 71
     2
 49
0.5
 62
   256
  6
BYLAYER
 49
-0.5
 62
   256
  6
BYLAYER
  0
ACDBPLACEHOLDER
  5
F
102
{ACAD_REACTORS
330
E
102
}
330
E
  0
SCALE
  5
48
102
{ACAD_REACTORS
330
47
102
}
330
47
100
AcDbScale
 70
     0
300
1:1
140
1.0
141
1.0
290
     1
  0
SCALE
  5
49
102
{ACAD_REACTORS
330
47
102
}
330
47
100
AcDbScale
 70
     0
300
1:2
140
1.0
141
2.0
290
     0
  0
SCALE
  5
4A
102
{ACAD_REACTORS
330
47
102
}
330
47
100
AcDbScale
 70
     0
300
1:4
140
1.0
141
4.0
290
     0
  0
SCALE
  5
4B
102
{ACAD_REACTORS
330
47
102
}
330
47
100
AcDbScale
 70
     0
300
1:5
140
1.0
141
5.0
290
     0
  0
SCALE
  5
4C
102
{ACAD_REACTORS
330
47
102
}
330
47
100
AcDbScale
 70
     0
300
1:8
140
1.0
141
8.0
290
     0
  0
SCALE
  5
4D
102
{ACAD_REACTORS
330
47
102
}
330
47
100
AcDbScale
 70
     0
300
1:10
140
1.0
141
10.0
290
     0
  0
SCALE
  5
4E
102
{ACAD_REACTORS
330
47
102
}
330
47
100
AcDbScale
 70
     0
300
1:16
140
1.0
141
16.0
290
     0
  0
SCALE
  5
4F
102
{ACAD_REACTORS
330
47
102
}
330
47
100
AcDbScale
 70
     0
300
1:20
140
1.0
141
20.0
290
     0
  0
SCALE
  5
50
102
{ACAD_REACTORS
330
47
102
}
330
47
100
AcDbScale
 70
     0
300
1:30
140
1.0
141
30.0
290
     0
  0
SCALE
  5
51
102
{ACAD_REACTORS
330
47
102
}
330
47
100
AcDbScale
 70
     0
300
1:40
140
1.0
141
40.0
290
     0
  0
SCALE
  5
52
102
{ACAD_REACTORS
330
47
102
}
330
47
100
AcDbScale
 70
     0
300
1:50
140
1.0
141
50.0
290
     0
  0
SCALE
  5
53
102
{ACAD_REACTORS
330
47
102
}
330
47
100
AcDbScale
 70
     0
300
1:100
140
1.0
141
100.0
290
     0
  0
SCALE
  5
54
102
{ACAD_REACTORS
330
47
102
}
330
47
100
AcDbScale
 70
     0
300
2:1
140
2.0
141
1.0
290
     0
  0
SCALE
  5
55
102
{ACAD_REACTORS
330
47
102
}
330
47
100
AcDbScale
 70
     0
300
4:1
140
4.0
141
1.0
290
     0
  0
SCALE
  5
56
102
{ACAD_REACTORS
330
47
102
}
330
47
100
AcDbScale
 70
     0
300
8:1
140
8.0
141
1.0
290
     0
  0
SCALE
  5
57
102
{ACAD_REACTORS
330
47
102
}
330
47
100
AcDbScale
 70
     0
300
10:1
140
10.0
141
1.0
290
     0
  0
SCALE
  5
58
102
{ACAD_REACTORS
330
47
102
}
330
47
100
AcDbScale
 70
     0
300
100:1
140
100.0
141
1.0
290
     0
  0
SCALE
  5
59
102
{ACAD_REACTORS
330
47
102
}
330
47
100
AcDbScale
 70
     0
300
1/128" = 1'-0"
140
0.0078125
141
12.0
290
     0
  0
SCALE
  5
5A
102
{ACAD_REACTORS
330
47
102
}
330
47
100
AcDbScale
 70
     0
300
1/64" = 1'-0"
140
0.015625
141
12.0
290
     0
  0
SCALE
  5
5B
102
{ACAD_REACTORS
330
47
102
}
330
47
100
AcDbScale
 70
     0
300
1/32" = 1'-0"
140
0.03125
141
12.0
290
     0
  0
SCALE
  5
5C
102
{ACAD_REACTORS
330
47
102
}
330
47
100
AcDbScale
 70
     0
300
1/16" = 1'-0"
140
0.0625
141
12.0
290
     0
  0
SCALE
  5
5D
102
{ACAD_REACTORS
330
47
102
}
330
47
100
AcDbScale
 70
     0
300
3/32" = 1'-0"
140
0.09375
141
12.0
290
     0
  0
SCALE
  5
5E
102
{ACAD_REACTORS
330
47
102
}
330
47
100
AcDbScale
 70
     0
300
1/8" = 1'-0"
140
0.125
141
12.0
290
     0
  0
SCALE
  5
5F
102
{ACAD_REACTORS
330
47
102
}
330
47
100
AcDbScale
 70
     0
300
3/16" = 1'-0"
140
0.1875
141
12.0
290
     0
  0
SCALE
  5
60
102
{ACAD_REACTORS
330
47
102
}
330
47
100
AcDbScale
 70
     0
300
1/4" = 1'-0"
140
0.25
141
12.0
290
     0
  0
SCALE
  5
61
102
{ACAD_REACTORS
330
47
102
}
330
47
100
AcDbScale
 70
     0
300
3/8" = 1'-0"
140
0.375
141
12.0
290
     0
  0
SCALE
  5
62
102
{ACAD_REACTORS
330
47
102
}
330
47
100
AcDbScale
 70
     0
300
1/2" = 1'-0"
140
0.5
141
12.0
290
     0
  0
SCALE
  5
63
102
{ACAD_REACTORS
330
47
102
}
330
47
100
AcDbScale
 70
     0
300
3/4" = 1'-0"
140
0.75
141
12.0
290
     0
  0
SCALE
  5
64
102
{ACAD_REACTORS
330
47
102
}
330
47
100
AcDbScale
 70
     0
300
1" = 1'-0"
140
1.0
141
12.0
290
     0
  0
SCALE
  5
65
102
{ACAD_REACTORS
330
47
102
}
330
47
100
AcDbScale
 70
     0
300
1-1/2" = 1'-0"
140
1.5
141
12.0
290
     0
  0
SCALE
  5
66
102
{ACAD_REACTORS
330
47
102
}
330
47
100
AcDbScale
 70
     0
300
3" = 1'-0"
140
3.0
141
12.0
290
     0
  0
SCALE
  5
67
102
{ACAD_REACTORS
330
47
102
}
330
47
100
AcDbScale
 70
     0
300
6" = 1'-0"
140
6.0
141
12.0
290
     0
  0
SCALE
  5
68
102
{ACAD_REACTORS
330
47
102
}
330
47
100
AcDbScale
 70
     0
300
1'-0" = 1'-0"
140
12.0
141
12.0
290
     0
  0
ENDSEC
  0
EOF
