  0
SECTION
  2
HEADER
  9
$ACADVER
  1
AC1009
  9
$INSBASE
 10
0.0
 20
0.0
 30
0.0
  9
$EXTMIN
 10
-57595.3669976872624829
 20
30666.6011256695892371
 30
0.0
  9
$EXTMAX
 10
-57583.9099956872523762
 20
30671.3039238496494363
 30
0.0
  9
$LIMMIN
 10
-63500.0
 20
-53500.0
  9
$LIMMAX
 10
56000.0
 20
90000.0
  9
$ORTHOMODE
 70
     1
  9
$REGENMODE
 70
     1
  9
$FILLMODE
 70
     1
  9
$QTEXTMODE
 70
     0
  9
$MIRRTEXT
 70
     1
  9
$DRAGMODE
 70
     2
  9
$LTSCALE
 40
1.0
  9
$OSMODE
 70
   167
  9
$ATTMODE
 70
     1
  9
$TEXTSIZE
 40
1000.0
  9
$TRACEWID
 40
0.05
  9
$TEXTSTYLE
  7
STANDARD
  9
$CLAYER
  8
1_OBJEKTE
  9
$CELTYPE
  6
BYLAYER
  9
$CECOLOR
 62
   256
  9
$DIMSCALE
 40
1.0
  9
$DIMASZ
 40
650.0
  9
$DIMEXO
 40
0.0625
  9
$DIMDLI
 40
0.38
  9
$DIMRND
 40
0.0
  9
$DIMDLE
 40
0.0
  9
$DIMEXE
 40
0.18
  9
$DIMTP
 40
0.0
  9
$DIMTM
 40
0.0
  9
$DIMTXT
 40
1000.0
  9
$DIMCEN
 40
0.09
  9
$DIMTSZ
 40
0.0
  9
$DIMTOL
 70
     0
  9
$DIMLIM
 70
     0
  9
$DIMTIH
 70
     0
  9
$DIMTOH
 70
     0
  9
$DIMSE1
 70
     0
  9
$DIMSE2
 70
     0
  9
$DIMTAD
 70
     0
  9
$DIMZIN
 70
     0
  9
$DIMBLK
  1

  9
$DIMASO
 70
     1
  9
$DIMSHO
 70
     1
  9
$DIMPOST
  1

  9
$DIMAPOST
  1

  9
$DIMALT
 70
     0
  9
$DIMALTD
 70
     2
  9
$DIMALTF
 40
25.3999999999999986
  9
$DIMLFAC
 40
0.001
  9
$DIMTOFL
 70
     0
  9
$DIMTVP
 40
0.0
  9
$DIMTIX
 70
     0
  9
$DIMSOXD
 70
     0
  9
$DIMSAH
 70
     0
  9
$DIMBLK1
  1

  9
$DIMBLK2
  1

  9
$DIMSTYLE
  2
STANDARD_1000
  9
$DIMCLRD
 70
   256
  9
$DIMCLRE
 70
   256
  9
$DIMCLRT
 70
   256
  9
$DIMTFAC
 40
1.0
  9
$DIMGAP
 40
0.09
  9
$LUNITS
 70
     2
  9
$LUPREC
 70
     0
  9
$SKETCHINC
 40
0.1
  9
$FILLETRAD
 40
35.0
  9
$AUNITS
 70
     0
  9
$AUPREC
 70
     0
  9
$MENU
  1
acad
  9
$ELEVATION
 40
0.0
  9
$PELEVATION
 40
0.0
  9
$THICKNESS
 40
0.0
  9
$LIMCHECK
 70
     0
  9
$BLIPMODE
 70
     0
  9
$CHAMFERA
 40
0.0
  9
$CHAMFERB
 40
0.0
  9
$SKPOLY
 70
     0
  9
$TDCREATE
 40
2451131.311666666995734
  9
$TDUPDATE
 40
2458800.4351504631340504
  9
$TDINDWG
 40
5.1692932407000001
  9
$TDUSRTIMER
 40
5.1692922800999996
  9
$USRTIMER
 70
     1
  9
$ANGBASE
 50
0.0
  9
$ANGDIR
 70
     0
  9
$PDMODE
 70
     0
  9
$PDSIZE
 40
0.0
  9
$PLINEWID
 40
0.0
  9
$COORDS
 70
     0
  9
$SPLFRAME
 70
     0
  9
$SPLINETYPE
 70
     6
  9
$SPLINESEGS
 70
     8
  9
$ATTDIA
 70
     1
  9
$ATTREQ
 70
     1
  9
$HANDLING
 70
     1
  9
$HANDSEED
  5
6073D21
  9
$SURFTAB1
 70
     6
  9
$SURFTAB2
 70
     6
  9
$SURFTYPE
 70
     6
  9
$SURFU
 70
     6
  9
$SURFV
 70
     6
  9
$UCSNAME
  2

  9
$UCSORG
 10
8689.4999523464939557
 20
-7182.0000251070669037
 30
0.0
  9
$UCSXDIR
 10
1.0
 20
0.0
 30
0.0
  9
$UCSYDIR
 10
0.0
 20
1.0
 30
0.0
  9
$PUCSNAME
  2

  9
$PUCSORG
 10
0.0
 20
0.0
 30
0.0
  9
$PUCSXDIR
 10
1.0
 20
0.0
 30
0.0
  9
$PUCSYDIR
 10
0.0
 20
1.0
 30
0.0
  9
$USERI1
 70
     0
  9
$USERI2
 70
     0
  9
$USERI3
 70
     0
  9
$USERI4
 70
     0
  9
$USERI5
 70
     0
  9
$USERR1
 40
0.0
  9
$USERR2
 40
0.0
  9
$USERR3
 40
0.0
  9
$USERR4
 40
0.0
  9
$USERR5
 40
0.0
  9
$WORLDVIEW
 70
     1
  9
$SHADEDGE
 70
     3
  9
$SHADEDIF
 70
    70
  9
$TILEMODE
 70
     1
  9
$MAXACTVP
 70
    16
  9
$PLIMCHECK
 70
     0
  9
$PEXTMIN
 10
1.0000000000000000E+20
 20
1.0000000000000000E+20
 30
1.0000000000000000E+20
  9
$PEXTMAX
 10
-1.0000000000000000E+20
 20
-1.0000000000000000E+20
 30
-1.0000000000000000E+20
  9
$PLIMMIN
 10
0.0
 20
0.0
  9
$PLIMMAX
 10
12.0
 20
9.0
  9
$UNITMODE
 70
     0
  9
$VISRETAIN
 70
     0
  9
$PLINEGEN
 70
     0
  9
$PSLTSCALE
 70
     0
  0
ENDSEC
  0
SECTION
  2
TABLES
  0
TABLE
  2
VPORT
 70
     1
  0
VPORT
  2
*ACTIVE
 70
     0
 10
0.0
 20
0.0
 11
1.0
 21
1.0
 12
-57589.1738164208509261
 22
30668.6107423470493814
 13
0.0
 23
0.0
 14
0.5
 24
0.5
 15
0.0
 25
0.0
 16
0.0
 26
0.0
 36
1.0
 17
0.0
 27
0.0
 37
0.0
 40
8.5186419461897458
 41
2.159259259259259
 42
50.0
 43
0.0
 44
0.0
 50
0.0
 51
0.0
 71
     0
 72
   100
 73
     1
 74
     0
 75
     0
 76
     0
 77
     0
 78
     0
  0
ENDTAB
  0
TABLE
  2
LTYPE
 70
     2
  0
LTYPE
  2
CONTINUOUS
 70
     0
  3
Solid line
 72
    65
 73
     0
 40
0.0
  0
ENDTAB
  0
TABLE
  2
LAYER
 70
     5
  0
LAYER
  2
0
 70
     5
 62
  -161
  6
CONTINUOUS
  0
LAYER
  2
1_OBJEKTE
 70
     0
 62
     7
  6
CONTINUOUS
  0
LAYER
  2
3_PRUEFMASSE
 70
     0
 62
     5
  6
CONTINUOUS
  0
LAYER
  2
DEFPOINTS
 70
     5
 62
    -7
  6
CONTINUOUS
  0
LAYER
  2
2_HILFSLIN
 70
     0
 62
     1
  6
CONTINUOUS
  0
ENDTAB
  0
TABLE
  2
STYLE
 70
     1
  0
STYLE
  2
STANDARD
 70
     0
 40
1000.0
 41
1.0
 50
0.0
 71
     0
 42
1000.0
  3
txt
  4

  0
ENDTAB
  0
TABLE
  2
VIEW
 70
     1
  0
ENDTAB
  0
TABLE
  2
UCS
 70
     0
  0
ENDTAB
  0
TABLE
  2
APPID
 70
    25
  0
APPID
  2
ACAD
 70
     0
  0
APPID
  2
CONTENTBLOCKICON
 70
     0
  0
APPID
  2
CONTENTBLOCKDESCRIPTION
 70
     0
  0
APPID
  2
ACAD_NAV_VCDISPLAY
 70
     0
  0
APPID
  2
ACAD_MLEADERVER
 70
     0
  0
APPID
  2
ACAD_DSTYLE_DIMJAG
 70
     0
  0
APPID
  2
ACAD_DSTYLE_DIMBREAK
 70
     0
  0
APPID
  2
ACADANNOPO
 70
     0
  0
APPID
  2
ACAD_DSTYLE_DIMTALN
 70
     0
  0
APPID
  2
ACAD_EXEMPT_FROM_CAD_STANDARDS
 70
     0
  0
APPID
  2
ACADANNOTATIVE
 70
     0
  0
APPID
  2
CONTENTTABDATA
 70
     0
  0
APPID
  2
CONTENTCURRENTTAB
 70
     0
  0
APPID
  2
DRAWINGVARIABLESXDATA
 70
     0
  0
APPID
  2
ACAD_PSEXT
 70
     0
  0
APPID
  2
ACAD_DSTYLE_DIMRADIAL_EXTENSION
 70
     0
  0
APPID
  2
GRADIENTCOLOR1ACI
 70
     0
  0
APPID
  2
GRADIENTCOLOR2ACI
 70
     0
  0
APPID
  2
ACAECLAYERSTANDARD
 70
     0
  0
APPID
  2
ACCMTRANSPARENCY
 70
     0
  0
APPID
  2
ACADANNOTATIVEDECOMPOSITION
 70
     0
  0
APPID
  2
ACAUTHENVIRON
 70
     0
  0
APPID
  2
ACDBDYNAMICBLOCKTRUENAME
 70
     0
  0
APPID
  2
ACDBDYNAMICBLOCKGUID
 70
     0
  0
APPID
  2
ACADANNOMONITORALERTICONDI
 70
     0
  0
ENDTAB
  0
TABLE
  2
DIMSTYLE
 70
     2
  0
DIMSTYLE
  2
STANDARD
 70
     0
  3

  4

  5

  6

  7

 40
1.0
 41
0.18
 42
0.0625
 43
0.38
 44
0.18
 45
0.0
 46
0.0
 47
0.0
 48
0.0
140
0.18
141
0.09
142
0.0
143
25.3999999999999986
144
1.0
145
0.0
146
1.0
147
0.09
 71
     0
 72
     0
 73
     1
 74
     1
 75
     0
 76
     0
 77
     0
 78
     0
170
     0
171
     2
172
     0
173
     0
174
     0
175
     0
176
     0
177
     0
178
     0
  0
DIMSTYLE
  2
STANDARD_1000
 70
     0
  3

  4

  5

  6

  7

 40
1.0
 41
5.1799999999999971
 42
0.0625
 43
0.38
 44
0.18
 45
0.0
 46
0.0
 47
0.0
 48
0.0
140
1500.0
141
0.09
142
0.0
143
25.3999999999999986
144
0.001
145
0.0
146
1.0
147
0.09
 71
     0
 72
     0
 73
     0
 74
     0
 75
     0
 76
     0
 77
     0
 78
     0
170
     0
171
     2
172
     0
173
     0
174
     0
175
     0
176
     0
177
     0
178
     0
  0
ENDTAB
  0
ENDSEC
  0
SECTION
  2
BLOCKS
  0
BLOCK
  8
0
  2
$MODEL_SPACE
 70
     0
 10
0.0
 20
0.0
 30
0.0
  3
$MODEL_SPACE
  1

  0
ENDBLK
  5
55B82
  8
0
  0
BLOCK
 67
     1
  8
0
  2
$PAPER_SPACE
 70
     0
 10
0.0
 20
0.0
 30
0.0
  3
$PAPER_SPACE
  1

  0
ENDBLK
  5
55B7F
 67
     1
  8
0
  0
BLOCK
  8
0
  2
*D0
 70
     1
 10
0.0
 20
0.0
 30
0.0
  3
*D0
  1

  0
LINE
  5
60734D1
  8
3_PRUEFMASSE
 10
-58810.7750476535002235
 20
37818.0624748928603367
 30
0.0
 11
-58810.7750476535002235
 21
79256.7614026497467421
 31
0.0
  0
LINE
  5
60734D2
  8
3_PRUEFMASSE
 10
76190.024952346473583
 20
37818.0624748928603367
 30
0.0
 11
76190.024952346473583
 21
79256.7614026497467421
 31
0.0
  0
LINE
  5
60734D3
  8
3_PRUEFMASSE
 10
-58160.7750476535002235
 20
79256.5814026497391751
 30
0.0
 11
9583.21876456107384
 21
79256.5814026497391751
 31
0.0
  0
LINE
  5
60734D4
  8
3_PRUEFMASSE
 10
75540.024952346473583
 20
79256.5814026497391751
 30
0.0
 11
14224.5993102636602998
 21
79256.5814026497391751
 31
0.0
  0
SOLID
  5
60734D5
  8
3_PRUEFMASSE
 10
-58160.7750476535002235
 20
79364.9147359830676578
 30
0.0
 11
-58160.7750476535002235
 21
79148.2480693164106924
 31
0.0
 12
-58810.7750476535002235
 22
79256.5814026497391751
 32
0.0
 13
-58810.7750476535002235
 23
79256.5814026497391751
 33
0.0
  0
SOLID
  5
60734D6
  8
3_PRUEFMASSE
 10
75540.024952346473583
 20
79364.9147359830676578
 30
0.0
 11
75540.024952346473583
 21
79148.2480693164106924
 31
0.0
 12
76190.024952346473583
 22
79256.5814026497391751
 32
0.0
 13
76190.024952346473583
 23
79256.5814026497391751
 33
0.0
  0
INSERT
  5
60734D7
  8
1_OBJEKTE
  2
*U6
 10
0.0
 20
0.0
 30
0.0
  0
POINT
  5
60734D8
  8
DEFPOINTS
 62
     0
 10
-58810.7750476535002235
 20
37817.9999748928603367
 30
0.0
  0
POINT
  5
60734D9
  8
DEFPOINTS
 62
     0
 10
76190.024952346473583
 20
37817.9999748928603367
 30
0.0
  0
POINT
  5
60734DA
  8
DEFPOINTS
 62
     0
 10
76190.024952346473583
 20
79256.5814026497391751
 30
0.0
  0
ENDBLK
  5
57FF5
  8
0
  0
BLOCK
  8
0
  2
*D1
 70
     1
 10
0.0
 20
0.0
 30
0.0
  3
*D1
  1

  0
LINE
  5
60734F9
  8
3_PRUEFMASSE
 10
-57595.3629976940574124
 20
-40731.6312604049890069
 30
0.0
 11
-57595.3629976940574124
 21
-60115.4690935790495132
 31
0.0
  0
LINE
  5
60734FA
  8
3_PRUEFMASSE
 10
74974.5977774629427586
 20
-41357.3636481874200399
 30
0.0
 11
74974.5977774629427586
 21
-60115.4690935790495132
 31
0.0
  0
LINE
  5
60734FB
  8
3_PRUEFMASSE
 10
-56945.3629976940574124
 20
-60115.2890935790492222
 30
0.0
 11
6573.8376041200272084
 21
-60115.2890935790492222
 31
0.0
  0
LINE
  5
60734FC
  8
3_PRUEFMASSE
 10
74324.5977774629427586
 20
-60115.2890935790492222
 30
0.0
 11
11404.8498005729597935
 21
-60115.2890935790492222
 31
0.0
  0
SOLID
  5
60734FD
  8
3_PRUEFMASSE
 10
-56945.3629976940574124
 20
-60006.9557602457134635
 30
0.0
 11
-56945.3629976940574124
 21
-60223.6224269123777049
 31
0.0
 12
-57595.3629976940574124
 22
-60115.2890935790492222
 32
0.0
 13
-57595.3629976940574124
 23
-60115.2890935790492222
 33
0.0
  0
SOLID
  5
60734FE
  8
3_PRUEFMASSE
 10
74324.5977774629427586
 20
-60006.9557602457134635
 30
0.0
 11
74324.5977774629427586
 21
-60223.6224269123777049
 31
0.0
 12
74974.5977774629427586
 22
-60115.2890935790492222
 32
0.0
 13
74974.5977774629427586
 23
-60115.2890935790492222
 33
0.0
  0
INSERT
  5
60734FF
  8
1_OBJEKTE
  2
*U8
 10
0.0
 20
0.0
 30
0.0
  0
POINT
  5
6073500
  8
DEFPOINTS
 62
     0
 10
-57595.3629976940574124
 20
-40731.568760404981731
 30
0.0
  0
POINT
  5
6073501
  8
DEFPOINTS
 62
     0
 10
74974.5977774629427586
 20
-41357.3011481874200399
 30
0.0
  0
POINT
  5
6073502
  8
DEFPOINTS
 62
     0
 10
74974.5977774629427586
 20
-60115.2890935790492222
 30
0.0
  0
ENDBLK
  5
66DFE
  8
0
  0
BLOCK
  8
0
  2
*D2
 70
     1
 10
0.0
 20
0.0
 30
0.0
  3
*D2
  1

  0
LINE
  5
6073522
  8
3_PRUEFMASSE
 10
74974.66127746127313
 20
35369.3991228695231257
 30
0.0
 11
94042.9390945507329889
 21
35369.3991228695304017
 31
0.0
  0
LINE
  5
6073523
  8
3_PRUEFMASSE
 10
74974.6592774646705948
 20
-49733.3991730835477938
 30
0.0
 11
94042.9390945507766446
 21
-49733.3991730835405178
 31
0.0
  0
LINE
  5
6073524
  8
3_PRUEFMASSE
 10
94042.7590945507399738
 20
34719.3991228695304017
 30
0.0
 11
94042.7590945507545257
 21
-5105.5116622147870657
 31
0.0
  0
LINE
  5
6073525
  8
3_PRUEFMASSE
 10
94042.7590945507545257
 20
-49083.3991730835405178
 30
0.0
 11
94042.7590945507545257
 21
-9258.4883879992376023
 31
0.0
  0
SOLID
  5
6073526
  8
3_PRUEFMASSE
 10
93934.4257612173969392
 20
34719.3991228695304017
 30
0.0
 11
94151.0924278840684565
 21
34719.3991228695304017
 31
0.0
 12
94042.7590945507399738
 22
35369.3991228695304017
 32
0.0
 13
94042.7590945507399738
 23
35369.3991228695304017
 33
0.0
  0
SOLID
  5
6073527
  8
3_PRUEFMASSE
 10
93934.4257612174405949
 20
-49083.3991730835405178
 30
0.0
 11
94151.0924278840975603
 21
-49083.3991730835405178
 31
0.0
 12
94042.7590945507545257
 22
-49733.3991730835405178
 32
0.0
 13
94042.7590945507545257
 23
-49733.3991730835405178
 33
0.0
  0
INSERT
  5
6073528
  8
1_OBJEKTE
  2
*U9
 10
0.0
 20
0.0
 30
0.0
  0
POINT
  5
6073529
  8
DEFPOINTS
 62
     0
 10
74974.59877746127313
 20
35369.3991228695231257
 30
0.0
  0
POINT
  5
607352A
  8
DEFPOINTS
 62
     0
 10
74974.5967774646705948
 20
-49733.3991730835477938
 30
0.0
  0
POINT
  5
607352B
  8
DEFPOINTS
 62
     0
 10
94042.7590945507545257
 20
-49733.3991730835405178
 30
0.0
  0
ENDBLK
  5
606E1F2
  8
0
  0
BLOCK
  8
0
  2
*D3
 70
     1
 10
0.0
 20
0.0
 30
0.0
  3
*D3
  1

  0
LINE
  5
60734E5
  8
3_PRUEFMASSE
 10
-58810.8375476535293274
 20
37817.9999748928676127
 30
0.0
 11
-76504.1348349478212185
 21
37817.9999748928676127
 31
0.0
  0
LINE
  5
60734E6
  8
3_PRUEFMASSE
 10
-58810.8375476535293274
 20
-52182.0000251069868682
 30
0.0
 11
-76504.1348349477921147
 21
-52182.0000251069868682
 31
0.0
  0
LINE
  5
60734E7
  8
3_PRUEFMASSE
 10
-76503.9548349478136515
 20
37167.9999748928821646
 30
0.0
 11
-76503.9548349477990996
 21
-5107.8991110552178725
 31
0.0
  0
LINE
  5
60734E8
  8
3_PRUEFMASSE
 10
-76503.9548349477845477
 20
-51532.0000251070014201
 30
0.0
 11
-76503.9548349477990996
 21
-9256.1009391589013831
 31
0.0
  0
SOLID
  5
60734E9
  8
3_PRUEFMASSE
 10
-76612.2881682811421342
 20
37167.9999748928821646
 30
0.0
 11
-76395.6215016144851688
 21
37167.9999748928821646
 31
0.0
 12
-76503.9548349478136515
 22
37817.9999748928676127
 32
0.0
 13
-76503.9548349478136515
 23
37817.9999748928676127
 33
0.0
  0
SOLID
  5
60734EA
  8
3_PRUEFMASSE
 10
-76612.2881682811130304
 20
-51532.0000251070014201
 30
0.0
 11
-76395.621501614456065
 21
-51532.0000251070014201
 31
0.0
 12
-76503.9548349477845477
 22
-52182.0000251069868682
 32
0.0
 13
-76503.9548349477845477
 23
-52182.0000251069868682
 33
0.0
  0
INSERT
  5
60734EB
  8
1_OBJEKTE
  2
*U7
 10
0.0
 20
0.0
 30
0.0
  0
POINT
  5
60734EC
  8
DEFPOINTS
 62
     0
 10
-58810.7750476535293274
 20
37817.9999748928676127
 30
0.0
  0
POINT
  5
60734ED
  8
DEFPOINTS
 62
     0
 10
-58810.7750476535293274
 20
-52182.0000251069868682
 30
0.0
  0
POINT
  5
60734EE
  8
DEFPOINTS
 62
     0
 10
-76503.9548349477845477
 20
-52182.0000251069868682
 30
0.0
  0
ENDBLK
  5
606E214
  8
0
  0
BLOCK
  8
0
  2
65686391504
 70
     0
 10
0.0
 20
0.0
 30
0.0
  3
65686391504
  1

  0
POLYLINE
  5
607327E
  8
2_HILFSLIN
  6
CONTINUOUS
 66
     1
 10
0.0
 20
0.0
 30
0.0
 70
     1
  0
VERTEX
  5
607365F
  8
2_HILFSLIN
  6
CONTINUOUS
 10
5241.0291465016198345
 20
4298.9622874398910426
 30
0.0
  0
VERTEX
  5
6073660
  8
2_HILFSLIN
  6
CONTINUOUS
 10
5244.4921465085935779
 20
4298.9622874398910426
 30
0.0
 42
-0.4142135623730951
  0
VERTEX
  5
6073661
  8
2_HILFSLIN
  6
CONTINUOUS
 10
5347.4921465085926684
 20
4195.9622874398919521
 30
0.0
  0
VERTEX
  5
6073662
  8
2_HILFSLIN
  6
CONTINUOUS
 10
5347.4921465085926684
 20
4131.5872874398919521
 30
0.0
 42
-0.4142135623730951
  0
VERTEX
  5
6073663
  8
2_HILFSLIN
  6
CONTINUOUS
 10
5244.4921465085935779
 20
4028.5872874398919521
 30
0.0
  0
VERTEX
  5
6073664
  8
2_HILFSLIN
  6
CONTINUOUS
 10
5137.9920212926372187
 20
4028.5872874398919521
 30
0.0
 42
0.4142131359457905
  0
VERTEX
  5
6073665
  8
2_HILFSLIN
  6
CONTINUOUS
 10
5090.9920212926808745
 20
3981.5873558678581503
 30
0.0
  0
VERTEX
  5
6073666
  8
2_HILFSLIN
  6
CONTINUOUS
 10
5090.9906465085796299
 20
3037.3117306592471323
 30
0.0
 42
1.0
  0
VERTEX
  5
6073667
  8
2_HILFSLIN
  6
CONTINUOUS
 10
5141.241646508598933
 20
3037.311784644582076
 30
0.0
  0
VERTEX
  5
6073668
  8
2_HILFSLIN
  6
CONTINUOUS
 10
5141.2421465085926684
 20
3875.2123107123479713
 30
0.0
 42
-1.0
  0
VERTEX
  5
6073669
  8
2_HILFSLIN
  6
CONTINUOUS
 10
5347.4921465085926684
 20
3875.2122871180617949
 30
0.0
  0
VERTEX
  5
607366A
  8
2_HILFSLIN
  6
CONTINUOUS
 10
5347.491646508598933
 20
3037.3117641674398328
 30
0.0
 42
1.0
  0
VERTEX
  5
607366B
  8
2_HILFSLIN
  6
CONTINUOUS
 10
5397.7426465085882228
 20
3037.311786294194917
 30
0.0
  0
VERTEX
  5
607366C
  8
2_HILFSLIN
  6
CONTINUOUS
 10
5397.7431465085983291
 20
3875.2123107123479713
 30
0.0
 42
-1.0
  0
VERTEX
  5
607366D
  8
2_HILFSLIN
  6
CONTINUOUS
 10
5603.9931465085983291
 20
3875.2122871180617949
 30
0.0
  0
VERTEX
  5
607366E
  8
2_HILFSLIN
  6
CONTINUOUS
 10
5603.9926465085882228
 20
3037.3117293418617919
 30
0.0
 42
1.0
  0
VERTEX
  5
607366F
  8
2_HILFSLIN
  6
CONTINUOUS
 10
5654.2426465086173266
 20
3037.3117514685950482
 30
0.0
  0
VERTEX
  5
6073670
  8
2_HILFSLIN
  6
CONTINUOUS
 10
5654.2421882381613614
 20
3981.5873102496698266
 30
0.0
 42
0.4142134202278406
  0
VERTEX
  5
6073671
  8
2_HILFSLIN
  6
CONTINUOUS
 10
5607.2421882381604519
 20
4028.5872874398919521
 30
0.0
  0
VERTEX
  5
6073672
  8
2_HILFSLIN
  6
CONTINUOUS
 10
5500.7421465085935779
 20
4028.5872874398919521
 30
0.0
 42
-0.4142135623730958
  0
VERTEX
  5
6073673
  8
2_HILFSLIN
  6
CONTINUOUS
 10
5397.7421465085935779
 20
4131.5872874398919521
 30
0.0
  0
VERTEX
  5
6073674
  8
2_HILFSLIN
  6
CONTINUOUS
 10
5397.7421465085935779
 20
4195.9622874398919521
 30
0.0
 42
-0.4142135623730951
  0
VERTEX
  5
6073675
  8
2_HILFSLIN
  6
CONTINUOUS
 10
5500.7421465085935779
 20
4298.9622874398910426
 30
0.0
  0
VERTEX
  5
6073676
  8
2_HILFSLIN
  6
CONTINUOUS
 10
5506.342146510083694
 20
4298.9622874398910426
 30
0.0
 42
0.4142135623730951
  0
VERTEX
  5
6073677
  8
2_HILFSLIN
  6
CONTINUOUS
 10
5536.3421465100827845
 20
4328.9622874398919521
 30
0.0
  0
VERTEX
  5
6073678
  8
2_HILFSLIN
  6
CONTINUOUS
 10
5536.3421465100827845
 20
4424.0608756807487225
 30
0.0
 42
0.4142135623730951
  0
VERTEX
  5
6073679
  8
2_HILFSLIN
  6
CONTINUOUS
 10
5506.342146510083694
 20
4454.060875680747813
 30
0.0
  0
VERTEX
  5
607367A
  8
2_HILFSLIN
  6
CONTINUOUS
 10
5241.0291465016198345
 20
4454.060875680747813
 30
0.0
 42
0.4142135623730951
  0
VERTEX
  5
607367B
  8
2_HILFSLIN
  6
CONTINUOUS
 10
5211.029146501618925
 20
4424.0608756807487225
 30
0.0
  0
VERTEX
  5
607367C
  8
2_HILFSLIN
  6
CONTINUOUS
 10
5211.029146501618925
 20
4328.9622874398919521
 30
0.0
 42
0.4142135623730951
  0
SEQEND
  5
607367D
  8
2_HILFSLIN
  6
CONTINUOUS
  0
POLYLINE
  5
607327F
  8
2_HILFSLIN
  6
CONTINUOUS
 66
     1
 10
0.0
 20
0.0
 30
0.0
 70
     1
  0
VERTEX
  5
607367E
  8
2_HILFSLIN
  6
CONTINUOUS
 10
4253.8406202461328576
 20
4328.844392970341687
 30
0.0
  0
VERTEX
  5
607367F
  8
2_HILFSLIN
  6
CONTINUOUS
 10
4253.8406397480857777
 20
4424.0608850015778444
 30
0.0
 42
0.4142136223625965
  0
VERTEX
  5
6073680
  8
2_HILFSLIN
  6
CONTINUOUS
 10
4223.8406397480857777
 20
4454.0608911460867603
 30
0.0
  0
VERTEX
  5
6073681
  8
2_HILFSLIN
  6
CONTINUOUS
 10
3958.5276464985809071
 20
4454.0608911460867603
 30
0.0
 42
0.4142135623730951
  0
VERTEX
  5
6073682
  8
2_HILFSLIN
  6
CONTINUOUS
 10
3928.5276464985799976
 20
4424.0608911460867603
 30
0.0
  0
VERTEX
  5
6073683
  8
2_HILFSLIN
  6
CONTINUOUS
 10
3928.5276464985799976
 20
4328.9623029052308993
 30
0.0
 42
0.4142135623730951
  0
VERTEX
  5
6073684
  8
2_HILFSLIN
  6
CONTINUOUS
 10
3958.5276464985809071
 20
4298.9623029052308993
 30
0.0
  0
VERTEX
  5
6073685
  8
2_HILFSLIN
  6
CONTINUOUS
 10
3961.99114650656702
 20
4298.9623029052308993
 30
0.0
 42
-0.4142135623730951
  0
VERTEX
  5
6073686
  8
2_HILFSLIN
  6
CONTINUOUS
 10
4064.9911465065661105
 20
4195.9623029052308993
 30
0.0
  0
VERTEX
  5
6073687
  8
2_HILFSLIN
  6
CONTINUOUS
 10
4064.9911465065661105
 20
3516.0483541540020269
 30
0.0
 42
-0.4142135623730951
  0
VERTEX
  5
6073688
  8
2_HILFSLIN
  6
CONTINUOUS
 10
3961.99114650656702
 20
3413.0483541540020269
 30
0.0
  0
VERTEX
  5
6073689
  8
2_HILFSLIN
  6
CONTINUOUS
 10
3855.4909403755300445
 20
3413.0483541540020269
 30
0.0
 42
0.4142126619553838
  0
VERTEX
  5
607368A
  8
2_HILFSLIN
  6
CONTINUOUS
 10
3808.490940375748778
 20
3366.0484986423111877
 30
0.0
  0
VERTEX
  5
607368B
  8
2_HILFSLIN
  6
CONTINUOUS
 10
3808.4896465065248776
 20
3037.3117388615719392
 30
0.0
 42
1.0
  0
VERTEX
  5
607368C
  8
2_HILFSLIN
  6
CONTINUOUS
 10
3858.7406465065728298
 20
3037.3118001099210232
 30
0.0
  0
VERTEX
  5
607368D
  8
2_HILFSLIN
  6
CONTINUOUS
 10
3858.741106334943197
 20
3260.9233265881780426
 30
0.0
 42
-1.0
  0
VERTEX
  5
607368E
  8
2_HILFSLIN
  6
CONTINUOUS
 10
4064.9911063349281903
 20
3260.9232986149731914
 30
0.0
  0
VERTEX
  5
607368F
  8
2_HILFSLIN
  6
CONTINUOUS
 10
4064.9906465065719203
 20
3037.3117752538460081
 30
0.0
 42
1.0
  0
VERTEX
  5
6073690
  8
2_HILFSLIN
  6
CONTINUOUS
 10
4115.2416465065616649
 20
3037.3118017595261335
 30
0.0
  0
VERTEX
  5
6073691
  8
2_HILFSLIN
  6
CONTINUOUS
 10
4115.2416465065616649
 20
4195.9623029052308993
 30
0.0
 42
-0.4266017712861834
  0
VERTEX
  5
6073692
  8
2_HILFSLIN
  6
CONTINUOUS
 10
4222.5776938387125483
 20
4298.8709939547852628
 30
0.0
 42
0.4266017107633366
  0
SEQEND
  5
6073693
  8
2_HILFSLIN
  6
CONTINUOUS
  0
POLYLINE
  5
6073280
  8
2_HILFSLIN
  6
CONTINUOUS
 66
     1
 10
0.0
 20
0.0
 30
0.0
 70
     1
  0
VERTEX
  5
6073694
  8
2_HILFSLIN
  6
CONTINUOUS
 10
3710.8420440879708622
 20
4298.9622874398910426
 30
0.0
  0
VERTEX
  5
6073695
  8
2_HILFSLIN
  6
CONTINUOUS
 10
3705.2431465106201358
 20
4298.9622874398910426
 30
0.0
 42
0.4142135623730951
  0
VERTEX
  5
6073696
  8
2_HILFSLIN
  6
CONTINUOUS
 10
3602.2431465106201358
 20
4195.9622874398919521
 30
0.0
  0
VERTEX
  5
6073697
  8
2_HILFSLIN
  6
CONTINUOUS
 10
3602.3681466328271199
 20
3758.0322867936629336
 30
0.0
 42
0.4142135623730951
  0
VERTEX
  5
6073698
  8
2_HILFSLIN
  6
CONTINUOUS
 10
3705.3681465106201358
 20
3655.0331430965379695
 30
0.0
  0
VERTEX
  5
6073699
  8
2_HILFSLIN
  6
CONTINUOUS
 10
3705.4931465106201358
 20
3655.0331430965379695
 30
0.0
 42
0.4142135309523205
  0
VERTEX
  5
607369A
  8
2_HILFSLIN
  6
CONTINUOUS
 10
3808.6181465106201358
 20
3758.1581320335758392
 30
0.0
  0
VERTEX
  5
607369B
  8
2_HILFSLIN
  6
CONTINUOUS
 10
3808.4906080653308891
 20
4013.4785533407630282
 30
0.0
 42
-1.0
  0
VERTEX
  5
607369C
  8
2_HILFSLIN
  6
CONTINUOUS
 10
3858.7416084396541009
 20
4013.4771043848891168
 30
0.0
  0
VERTEX
  5
607369D
  8
2_HILFSLIN
  6
CONTINUOUS
 10
3858.6183528111441774
 20
3647.0491428395621369
 30
0.0
 42
-0.4367943062883353
  0
VERTEX
  5
607369E
  8
2_HILFSLIN
  6
CONTINUOUS
 10
3811.6183526416721179
 20
3605.0482874398949207
 30
0.0
  0
VERTEX
  5
607369F
  8
2_HILFSLIN
  6
CONTINUOUS
 10
3705.2431465106201358
 20
3605.0482874398949207
 30
0.0
 42
0.4042964932789549
  0
VERTEX
  5
60736A0
  8
2_HILFSLIN
  6
CONTINUOUS
 10
3602.1181465106201358
 20
3496.9232763769327903
 30
0.0
  0
VERTEX
  5
60736A1
  8
2_HILFSLIN
  6
CONTINUOUS
 10
3602.2436466224608012
 20
3037.3109467875760856
 30
0.0
 42
-1.0
  0
VERTEX
  5
60736A2
  8
2_HILFSLIN
  6
CONTINUOUS
 10
3551.9926465106259457
 20
3037.311786294194917
 30
0.0
  0
VERTEX
  5
60736A3
  8
2_HILFSLIN
  6
CONTINUOUS
 10
3551.9926465106259457
 20
4195.9622874398919521
 30
0.0
 42
0.4142135623730951
  0
VERTEX
  5
60736A4
  8
2_HILFSLIN
  6
CONTINUOUS
 10
3448.9926465106259457
 20
4298.9622874398910426
 30
0.0
  0
VERTEX
  5
60736A5
  8
2_HILFSLIN
  6
CONTINUOUS
 10
3445.5286465006070102
 20
4298.9622874398910426
 30
0.0
 42
-0.4142135623730951
  0
VERTEX
  5
60736A6
  8
2_HILFSLIN
  6
CONTINUOUS
 10
3415.5286465006061007
 20
4328.9622874398919521
 30
0.0
  0
VERTEX
  5
60736A7
  8
2_HILFSLIN
  6
CONTINUOUS
 10
3415.5286465006061007
 20
4424.0608756807487225
 30
0.0
 42
-0.4142135623730951
  0
VERTEX
  5
60736A8
  8
2_HILFSLIN
  6
CONTINUOUS
 10
3445.5286465006070102
 20
4454.060875680747813
 30
0.0
  0
VERTEX
  5
60736A9
  8
2_HILFSLIN
  6
CONTINUOUS
 10
3710.8417489308781114
 20
4454.060875680747813
 30
0.0
 42
-0.4142126533219282
  0
VERTEX
  5
60736AA
  8
2_HILFSLIN
  6
CONTINUOUS
 10
3740.841748930733047
 20
4424.0609687916294206
 30
0.0
  0
VERTEX
  5
60736AB
  8
2_HILFSLIN
  6
CONTINUOUS
 10
3740.8420440878257978
 20
4328.9623805507717407
 30
0.0
 42
-0.4142144714248538
  0
SEQEND
  5
60736AC
  8
2_HILFSLIN
  6
CONTINUOUS
  0
POLYLINE
  5
6073281
  8
2_HILFSLIN
  6
CONTINUOUS
 66
     1
 10
0.0
 20
0.0
 30
0.0
 70
     1
  0
VERTEX
  5
60736AD
  8
2_HILFSLIN
  6
CONTINUOUS
 10
3227.8420150849269703
 20
4364.8444125089290537
 30
0.0
 42
-0.4266071899019274
  0
VERTEX
  5
60736AE
  8
2_HILFSLIN
  6
CONTINUOUS
 10
3196.5786588476330508
 20
4334.8709055571380304
 30
0.0
 42
0.4266060088379202
  0
VERTEX
  5
60736AF
  8
2_HILFSLIN
  6
CONTINUOUS
 10
3089.2411357654491439
 20
4231.9622766987604336
 30
0.0
  0
VERTEX
  5
60736B0
  8
2_HILFSLIN
  6
CONTINUOUS
 10
3089.2411357654491439
 20
3936.7362874398968415
 30
0.0
 42
0.4142135623730951
  0
VERTEX
  5
60736B1
  8
2_HILFSLIN
  6
CONTINUOUS
 10
3192.2411357654500534
 20
3833.7362874398968415
 30
0.0
  0
VERTEX
  5
60736B2
  8
2_HILFSLIN
  6
CONTINUOUS
 10
3320.7426357654771891
 20
3833.7362874398968415
 30
0.0
 42
-0.4142135623730951
  0
VERTEX
  5
60736B3
  8
2_HILFSLIN
  6
CONTINUOUS
 10
3345.7426357654771891
 20
3808.7362874398968415
 30
0.0
  0
VERTEX
  5
60736B4
  8
2_HILFSLIN
  6
CONTINUOUS
 10
3345.7426357654771891
 20
3617.2362874398968415
 30
0.0
 42
-0.4388847957112854
  0
VERTEX
  5
60736B5
  8
2_HILFSLIN
  6
CONTINUOUS
 10
3335.9920772933978697
 20
3608.2676386018652011
 30
0.0
 42
0.4388847957115595
  0
VERTEX
  5
60736B6
  8
2_HILFSLIN
  6
CONTINUOUS
 10
3319.74114650656702
 20
3593.3198905384710997
 30
0.0
  0
VERTEX
  5
60736B7
  8
2_HILFSLIN
  6
CONTINUOUS
 10
3319.74114650656702
 20
3590.2362874398968415
 30
0.0
 42
-1.0
  0
VERTEX
  5
60736B8
  8
2_HILFSLIN
  6
CONTINUOUS
 10
3275.74114650656702
 20
3590.2362874398968415
 30
0.0
  0
VERTEX
  5
60736B9
  8
2_HILFSLIN
  6
CONTINUOUS
 10
3275.74114650656702
 20
3593.2362874398968415
 30
0.0
 42
0.4142135623730951
  0
VERTEX
  5
60736BA
  8
2_HILFSLIN
  6
CONTINUOUS
 10
3260.7411465065679295
 20
3608.2362874398968415
 30
0.0
  0
VERTEX
  5
60736BB
  8
2_HILFSLIN
  6
CONTINUOUS
 10
3123.99114650656702
 20
3608.2362874398968415
 30
0.0
 42
0.4142135623730951
  0
VERTEX
  5
60736BC
  8
2_HILFSLIN
  6
CONTINUOUS
 10
3108.99114650656702
 20
3593.2362874398968415
 30
0.0
  0
VERTEX
  5
60736BD
  8
2_HILFSLIN
  6
CONTINUOUS
 10
3108.99114650656702
 20
3590.2362874398968415
 30
0.0
 42
-1.0
  0
VERTEX
  5
60736BE
  8
2_HILFSLIN
  6
CONTINUOUS
 10
3064.99114650656702
 20
3590.2362874398968415
 30
0.0
  0
VERTEX
  5
60736BF
  8
2_HILFSLIN
  6
CONTINUOUS
 10
3064.99114650656702
 20
3593.2362874398968415
 30
0.0
 42
0.4142135623730951
  0
VERTEX
  5
60736C0
  8
2_HILFSLIN
  6
CONTINUOUS
 10
3049.99114650656702
 20
3608.2362874398968415
 30
0.0
  0
VERTEX
  5
60736C1
  8
2_HILFSLIN
  6
CONTINUOUS
 10
3047.9906357654549538
 20
3608.2362874398968415
 30
0.0
 42
-0.4142135623730951
  0
VERTEX
  5
60736C2
  8
2_HILFSLIN
  6
CONTINUOUS
 10
3038.9906357654549538
 20
3617.2362874398968415
 30
0.0
  0
VERTEX
  5
60736C3
  8
2_HILFSLIN
  6
CONTINUOUS
 10
3038.9906357654549538
 20
4231.9622766987604336
 30
0.0
 42
0.4218591513744362
  0
VERTEX
  5
60736C4
  8
2_HILFSLIN
  6
CONTINUOUS
 10
2933.309546334785864
 20
4334.9273764144600136
 30
0.0
 42
-0.4218591513744177
  0
VERTEX
  5
60736C5
  8
2_HILFSLIN
  6
CONTINUOUS
 10
2902.5286465006070102
 20
4364.9172112831138293
 30
0.0
  0
VERTEX
  5
60736C6
  8
2_HILFSLIN
  6
CONTINUOUS
 10
2902.5286465006070102
 20
4424.0608756807487225
 30
0.0
 42
-0.4142135623730951
  0
VERTEX
  5
60736C7
  8
2_HILFSLIN
  6
CONTINUOUS
 10
2932.5286465006070102
 20
4454.060875680747813
 30
0.0
  0
VERTEX
  5
60736C8
  8
2_HILFSLIN
  6
CONTINUOUS
 10
3197.8417784050398041
 20
4454.060875680747813
 30
0.0
 42
-0.4142123917217352
  0
VERTEX
  5
60736C9
  8
2_HILFSLIN
  6
CONTINUOUS
 10
3227.8417784048069734
 20
4424.0609955864129006
 30
0.0
  0
SEQEND
  5
60736CA
  8
2_HILFSLIN
  6
CONTINUOUS
  0
POLYLINE
  5
6073282
  8
2_HILFSLIN
  6
CONTINUOUS
 66
     1
 10
0.0
 20
0.0
 30
0.0
 70
     1
  0
VERTEX
  5
60736CB
  8
2_HILFSLIN
  6
CONTINUOUS
 10
3038.9906357654549538
 20
3491.9362874398939312
 30
0.0
 42
-0.4142135623730951
  0
VERTEX
  5
60736CC
  8
2_HILFSLIN
  6
CONTINUOUS
 10
3047.9906357654549538
 20
3500.9362874398939312
 30
0.0
  0
VERTEX
  5
60736CD
  8
2_HILFSLIN
  6
CONTINUOUS
 10
3049.99114650656702
 20
3500.9362874398939312
 30
0.0
 42
0.4142135623730951
  0
VERTEX
  5
60736CE
  8
2_HILFSLIN
  6
CONTINUOUS
 10
3064.99114650656702
 20
3515.9362874398939312
 30
0.0
  0
VERTEX
  5
60736CF
  8
2_HILFSLIN
  6
CONTINUOUS
 10
3064.99114650656702
 20
3518.9362874398939312
 30
0.0
 42
-1.0
  0
VERTEX
  5
60736D0
  8
2_HILFSLIN
  6
CONTINUOUS
 10
3108.99114650656702
 20
3518.9362874398939312
 30
0.0
  0
VERTEX
  5
60736D1
  8
2_HILFSLIN
  6
CONTINUOUS
 10
3108.99114650656702
 20
3515.9362874398939312
 30
0.0
 42
0.4142135623730951
  0
VERTEX
  5
60736D2
  8
2_HILFSLIN
  6
CONTINUOUS
 10
3123.99114650656702
 20
3500.9362874398939312
 30
0.0
  0
VERTEX
  5
60736D3
  8
2_HILFSLIN
  6
CONTINUOUS
 10
3260.7411465065679295
 20
3500.9362874398939312
 30
0.0
 42
0.4142135623730951
  0
VERTEX
  5
60736D4
  8
2_HILFSLIN
  6
CONTINUOUS
 10
3275.74114650656702
 20
3515.9362874398939312
 30
0.0
  0
VERTEX
  5
60736D5
  8
2_HILFSLIN
  6
CONTINUOUS
 10
3275.74114650656702
 20
3518.9362874398939312
 30
0.0
 42
-1.0
  0
VERTEX
  5
60736D6
  8
2_HILFSLIN
  6
CONTINUOUS
 10
3319.74114650656702
 20
3518.9362874398939312
 30
0.0
  0
VERTEX
  5
60736D7
  8
2_HILFSLIN
  6
CONTINUOUS
 10
3319.74114650656702
 20
3515.9362874398939312
 30
0.0
 42
0.4142135623731029
  0
VERTEX
  5
60736D8
  8
2_HILFSLIN
  6
CONTINUOUS
 10
3334.74114650656702
 20
3500.9362874398939312
 30
0.0
  0
VERTEX
  5
60736D9
  8
2_HILFSLIN
  6
CONTINUOUS
 10
3336.7426357654771891
 20
3500.9362874398939312
 30
0.0
 42
-0.4142135623731025
  0
VERTEX
  5
60736DA
  8
2_HILFSLIN
  6
CONTINUOUS
 10
3345.7426357654771891
 20
3491.9362874398939312
 30
0.0
  0
VERTEX
  5
60736DB
  8
2_HILFSLIN
  6
CONTINUOUS
 10
3345.7426357654771891
 20
3073.3117242858497775
 30
0.0
 42
-1.0
  0
VERTEX
  5
60736DC
  8
2_HILFSLIN
  6
CONTINUOUS
 10
3295.4916357654437888
 20
3073.3117739034501028
 30
0.0
  0
VERTEX
  5
60736DD
  8
2_HILFSLIN
  6
CONTINUOUS
 10
3295.4911357654200401
 20
3302.9233261960621348
 30
0.0
 42
1.0
  0
VERTEX
  5
60736DE
  8
2_HILFSLIN
  6
CONTINUOUS
 10
3089.2411357654350468
 20
3302.9232978591899155
 30
0.0
  0
VERTEX
  5
60736DF
  8
2_HILFSLIN
  6
CONTINUOUS
 10
3089.2416357654587955
 20
3073.3117486837140859
 30
0.0
 42
-1.0
  0
VERTEX
  5
60736E0
  8
2_HILFSLIN
  6
CONTINUOUS
 10
3038.9906357654549538
 20
3073.3117755530552131
 30
0.0
  0
SEQEND
  5
60736E1
  8
2_HILFSLIN
  6
CONTINUOUS
  0
POLYLINE
  5
6073283
  8
2_HILFSLIN
  6
CONTINUOUS
 66
     1
 10
0.0
 20
0.0
 30
0.0
 70
     1
  0
VERTEX
  5
60736E2
  8
2_HILFSLIN
  6
CONTINUOUS
 10
1511.4066465066860019
 20
3747.936787439895852
 30
0.0
  0
VERTEX
  5
60736E3
  8
2_HILFSLIN
  6
CONTINUOUS
 10
2081.4066465066857745
 20
3747.936787439895852
 30
0.0
 42
0.4142135623730951
  0
VERTEX
  5
60736E4
  8
2_HILFSLIN
  6
CONTINUOUS
 10
2096.4066465066857745
 20
3762.936787439895852
 30
0.0
  0
VERTEX
  5
60736E5
  8
2_HILFSLIN
  6
CONTINUOUS
 10
2096.4066465066857745
 20
3807.936787439895852
 30
0.0
 42
0.4142135623730951
  0
VERTEX
  5
60736E6
  8
2_HILFSLIN
  6
CONTINUOUS
 10
2081.4066465066857745
 20
3822.936787439895852
 30
0.0
  0
VERTEX
  5
60736E7
  8
2_HILFSLIN
  6
CONTINUOUS
 10
1511.4066465066860019
 20
3822.936787439895852
 30
0.0
 42
0.4142135623730951
  0
VERTEX
  5
60736E8
  8
2_HILFSLIN
  6
CONTINUOUS
 10
1496.4066465066860019
 20
3807.936787439895852
 30
0.0
  0
VERTEX
  5
60736E9
  8
2_HILFSLIN
  6
CONTINUOUS
 10
1496.4066465066860019
 20
3762.936787439895852
 30
0.0
 42
0.4142135623730951
  0
SEQEND
  5
60736EA
  8
2_HILFSLIN
  6
CONTINUOUS
  0
POLYLINE
  5
6073284
  8
2_HILFSLIN
  6
CONTINUOUS
 66
     1
 10
0.0
 20
0.0
 30
0.0
 70
     1
  0
VERTEX
  5
60736EB
  8
2_HILFSLIN
  6
CONTINUOUS
 10
1511.4066465066860019
 20
3234.936787439895852
 30
0.0
  0
VERTEX
  5
60736EC
  8
2_HILFSLIN
  6
CONTINUOUS
 10
2081.4066465066857745
 20
3234.936787439895852
 30
0.0
 42
0.4142135623730951
  0
VERTEX
  5
60736ED
  8
2_HILFSLIN
  6
CONTINUOUS
 10
2096.4066465066857745
 20
3249.936787439895852
 30
0.0
  0
VERTEX
  5
60736EE
  8
2_HILFSLIN
  6
CONTINUOUS
 10
2096.4066465066857745
 20
3294.936787439895852
 30
0.0
 42
0.4142135623730951
  0
VERTEX
  5
60736EF
  8
2_HILFSLIN
  6
CONTINUOUS
 10
2081.4066465066857745
 20
3309.936787439895852
 30
0.0
  0
VERTEX
  5
60736F0
  8
2_HILFSLIN
  6
CONTINUOUS
 10
1511.4066465066860019
 20
3309.936787439895852
 30
0.0
 42
0.4142135623730951
  0
VERTEX
  5
60736F1
  8
2_HILFSLIN
  6
CONTINUOUS
 10
1496.4066465066860019
 20
3294.936787439895852
 30
0.0
  0
VERTEX
  5
60736F2
  8
2_HILFSLIN
  6
CONTINUOUS
 10
1496.4066465066860019
 20
3249.936787439895852
 30
0.0
 42
0.4142135623730951
  0
SEQEND
  5
60736F3
  8
2_HILFSLIN
  6
CONTINUOUS
  0
POLYLINE
  5
6073285
  8
2_HILFSLIN
  6
CONTINUOUS
 66
     1
 10
0.0
 20
0.0
 30
0.0
 70
     1
  0
VERTEX
  5
60736F4
  8
2_HILFSLIN
  6
CONTINUOUS
 10
1511.4066465066860019
 20
4260.936787439895852
 30
0.0
  0
VERTEX
  5
60736F5
  8
2_HILFSLIN
  6
CONTINUOUS
 10
2081.4066465066857745
 20
4260.936787439895852
 30
0.0
 42
0.4142135623730951
  0
VERTEX
  5
60736F6
  8
2_HILFSLIN
  6
CONTINUOUS
 10
2096.4066465066857745
 20
4275.936787439895852
 30
0.0
  0
VERTEX
  5
60736F7
  8
2_HILFSLIN
  6
CONTINUOUS
 10
2096.4066465066857745
 20
4320.936787439895852
 30
0.0
 42
0.4142135623730951
  0
VERTEX
  5
60736F8
  8
2_HILFSLIN
  6
CONTINUOUS
 10
2081.4066465066857745
 20
4335.936787439895852
 30
0.0
  0
VERTEX
  5
60736F9
  8
2_HILFSLIN
  6
CONTINUOUS
 10
1511.4066465066860019
 20
4335.936787439895852
 30
0.0
 42
0.4142135623730951
  0
VERTEX
  5
60736FA
  8
2_HILFSLIN
  6
CONTINUOUS
 10
1496.4066465066860019
 20
4320.936787439895852
 30
0.0
  0
VERTEX
  5
60736FB
  8
2_HILFSLIN
  6
CONTINUOUS
 10
1496.4066465066860019
 20
4275.936787439895852
 30
0.0
 42
0.4142135623730951
  0
SEQEND
  5
60736FC
  8
2_HILFSLIN
  6
CONTINUOUS
  0
POLYLINE
  5
6073286
  8
2_HILFSLIN
  6
CONTINUOUS
 66
     1
 10
0.0
 20
0.0
 30
0.0
 70
     1
  0
VERTEX
  5
60736FD
  8
2_HILFSLIN
  6
CONTINUOUS
 10
2408.5321465076990535
 20
3672.9362883821158903
 30
0.0
  0
VERTEX
  5
60736FE
  8
2_HILFSLIN
  6
CONTINUOUS
 10
2465.3901465105009265
 20
3672.9362883821158903
 30
0.0
 42
-0.4142135623730951
  0
VERTEX
  5
60736FF
  8
2_HILFSLIN
  6
CONTINUOUS
 10
2480.3901465105009265
 20
3657.9362883821158903
 30
0.0
  0
VERTEX
  5
6073700
  8
2_HILFSLIN
  6
CONTINUOUS
 10
2480.3901465105009265
 20
3562.9612986521319726
 30
0.0
 42
0.4142135623731115
  0
VERTEX
  5
6073701
  8
2_HILFSLIN
  6
CONTINUOUS
 10
2515.3901465105009265
 20
3527.9612986521319726
 30
0.0
  0
VERTEX
  5
6073702
  8
2_HILFSLIN
  6
CONTINUOUS
 10
2807.3901465105009265
 20
3527.9612986521460698
 30
0.0
 42
-0.4142135623731107
  0
VERTEX
  5
6073703
  8
2_HILFSLIN
  6
CONTINUOUS
 10
2822.3901465105009265
 20
3512.9612986521460698
 30
0.0
  0
VERTEX
  5
6073704
  8
2_HILFSLIN
  6
CONTINUOUS
 10
2822.3901465105009265
 20
3467.9612986521460698
 30
0.0
 42
-0.4142135623730951
  0
VERTEX
  5
6073705
  8
2_HILFSLIN
  6
CONTINUOUS
 10
2807.3901465105009265
 20
3452.9612986521469793
 30
0.0
  0
VERTEX
  5
6073706
  8
2_HILFSLIN
  6
CONTINUOUS
 10
2515.3901465105009265
 20
3452.9612986521469793
 30
0.0
 42
0.4142135623730951
  0
VERTEX
  5
6073707
  8
2_HILFSLIN
  6
CONTINUOUS
 10
2480.3901465105009265
 20
3417.9612986521469793
 30
0.0
  0
VERTEX
  5
6073708
  8
2_HILFSLIN
  6
CONTINUOUS
 10
2480.3901465105009265
 20
3322.985810806617792
 30
0.0
 42
-0.4142135623730951
  0
VERTEX
  5
6073709
  8
2_HILFSLIN
  6
CONTINUOUS
 10
2465.3901465105009265
 20
3307.9858108066191562
 30
0.0
  0
VERTEX
  5
607370A
  8
2_HILFSLIN
  6
CONTINUOUS
 10
2408.5321465076990535
 20
3307.9858108066191562
 30
0.0
 42
-0.4142135623730951
  0
VERTEX
  5
607370B
  8
2_HILFSLIN
  6
CONTINUOUS
 10
2393.532146507699963
 20
3322.985810806617792
 30
0.0
  0
VERTEX
  5
607370C
  8
2_HILFSLIN
  6
CONTINUOUS
 10
2393.532146507699963
 20
3657.9362883821158903
 30
0.0
 42
-0.4142135623730951
  0
SEQEND
  5
607370D
  8
2_HILFSLIN
  6
CONTINUOUS
  0
POLYLINE
  5
6073287
  8
2_HILFSLIN
  6
CONTINUOUS
 66
     1
 10
0.0
 20
0.0
 30
0.0
 70
     1
  0
VERTEX
  5
607370E
  8
2_HILFSLIN
  6
CONTINUOUS
 10
2408.5321465076990535
 20
4185.9367883821169016
 30
0.0
  0
VERTEX
  5
607370F
  8
2_HILFSLIN
  6
CONTINUOUS
 10
2465.3901465105009265
 20
4185.9367883821169016
 30
0.0
 42
-0.4142135623730951
  0
VERTEX
  5
6073710
  8
2_HILFSLIN
  6
CONTINUOUS
 10
2480.3901465105009265
 20
4170.9367883821178111
 30
0.0
  0
VERTEX
  5
6073711
  8
2_HILFSLIN
  6
CONTINUOUS
 10
2480.3901465105009265
 20
4075.961798652132984
 30
0.0
 42
0.4142135623731115
  0
VERTEX
  5
6073712
  8
2_HILFSLIN
  6
CONTINUOUS
 10
2515.3901465105009265
 20
4040.961798652132984
 30
0.0
  0
VERTEX
  5
6073713
  8
2_HILFSLIN
  6
CONTINUOUS
 10
2807.3901465105009265
 20
4040.9617986521479907
 30
0.0
 42
-0.4142135623731107
  0
VERTEX
  5
6073714
  8
2_HILFSLIN
  6
CONTINUOUS
 10
2822.3901465105009265
 20
4025.9617986521479907
 30
0.0
  0
VERTEX
  5
6073715
  8
2_HILFSLIN
  6
CONTINUOUS
 10
2822.3901465105009265
 20
3980.9617986521479907
 30
0.0
 42
-0.4142135623730951
  0
VERTEX
  5
6073716
  8
2_HILFSLIN
  6
CONTINUOUS
 10
2807.3901465105009265
 20
3965.9617986521479907
 30
0.0
  0
VERTEX
  5
6073717
  8
2_HILFSLIN
  6
CONTINUOUS
 10
2515.3901465105009265
 20
3965.9617986521479907
 30
0.0
 42
0.4142135623730951
  0
VERTEX
  5
6073718
  8
2_HILFSLIN
  6
CONTINUOUS
 10
2480.3901465105009265
 20
3930.9617986521479907
 30
0.0
  0
VERTEX
  5
6073719
  8
2_HILFSLIN
  6
CONTINUOUS
 10
2480.3901465105009265
 20
3835.9868108066220884
 30
0.0
 42
-0.4142135623730951
  0
VERTEX
  5
607371A
  8
2_HILFSLIN
  6
CONTINUOUS
 10
2465.3901465105009265
 20
3820.9868108066229979
 30
0.0
  0
VERTEX
  5
607371B
  8
2_HILFSLIN
  6
CONTINUOUS
 10
2408.5321465076990535
 20
3820.9868108066229979
 30
0.0
 42
-0.4142135623730951
  0
VERTEX
  5
607371C
  8
2_HILFSLIN
  6
CONTINUOUS
 10
2393.532146507699963
 20
3835.9868108066220884
 30
0.0
  0
VERTEX
  5
607371D
  8
2_HILFSLIN
  6
CONTINUOUS
 10
2393.532146507699963
 20
4170.9367883821178111
 30
0.0
 42
-0.4142135623730951
  0
SEQEND
  5
607371E
  8
2_HILFSLIN
  6
CONTINUOUS
  0
POLYLINE
  5
6073288
  8
1_OBJEKTE
  6
CONTINUOUS
 66
     1
 10
0.0
 20
0.0
 30
0.0
 70
     1
  0
VERTEX
  5
607371F
  8
1_OBJEKTE
  6
CONTINUOUS
 10
7835.6270767454398083
 20
4708.8372872259560609
 30
0.0
  0
VERTEX
  5
6073720
  8
1_OBJEKTE
  6
CONTINUOUS
 10
7761.2681464995121132
 20
4708.8372874398919521
 30
0.0
 42
-0.4142135623730951
  0
VERTEX
  5
6073721
  8
1_OBJEKTE
  6
CONTINUOUS
 10
7726.2681464995112037
 20
4743.8372874398919521
 30
0.0
  0
VERTEX
  5
6073722
  8
1_OBJEKTE
  6
CONTINUOUS
 10
7726.2681464995112037
 20
4847.5872874398928616
 30
0.0
 42
0.4142135623730951
  0
VERTEX
  5
6073723
  8
1_OBJEKTE
  6
CONTINUOUS
 10
7691.2681464995121132
 20
4882.5872874398919521
 30
0.0
  0
VERTEX
  5
6073724
  8
1_OBJEKTE
  6
CONTINUOUS
 10
7361.2681464995112037
 20
4882.5872874398919521
 30
0.0
 42
0.4142135623730951
  0
VERTEX
  5
6073725
  8
1_OBJEKTE
  6
CONTINUOUS
 10
7326.2681464995112037
 20
4847.5872874398928616
 30
0.0
  0
VERTEX
  5
6073726
  8
1_OBJEKTE
  6
CONTINUOUS
 10
7326.2681464995112037
 20
4743.8372874398919521
 30
0.0
 42
-0.4142135623730951
  0
VERTEX
  5
6073727
  8
1_OBJEKTE
  6
CONTINUOUS
 10
7291.2681464995112037
 20
4708.8372874398919521
 30
0.0
  0
VERTEX
  5
6073728
  8
1_OBJEKTE
  6
CONTINUOUS
 10
6913.7681465091309292
 20
4708.8372874398919521
 30
0.0
 42
-0.4142135623730951
  0
VERTEX
  5
6073729
  8
1_OBJEKTE
  6
CONTINUOUS
 10
6878.7681465091300197
 20
4743.8372874398919521
 30
0.0
  0
VERTEX
  5
607372A
  8
1_OBJEKTE
  6
CONTINUOUS
 10
6878.7681465091300197
 20
4847.5872874398928616
 30
0.0
 42
0.4142135623730951
  0
VERTEX
  5
607372B
  8
1_OBJEKTE
  6
CONTINUOUS
 10
6843.7681465091300197
 20
4882.5872874398919521
 30
0.0
  0
VERTEX
  5
607372C
  8
1_OBJEKTE
  6
CONTINUOUS
 10
6513.7681465091300197
 20
4882.5872874398919521
 30
0.0
 42
0.4142135623730951
  0
VERTEX
  5
607372D
  8
1_OBJEKTE
  6
CONTINUOUS
 10
6478.7681465091291102
 20
4847.5872874398928616
 30
0.0
  0
VERTEX
  5
607372E
  8
1_OBJEKTE
  6
CONTINUOUS
 10
6478.7681465091291102
 20
4743.8372874398919521
 30
0.0
 42
-0.4142135623730951
  0
VERTEX
  5
607372F
  8
1_OBJEKTE
  6
CONTINUOUS
 10
6443.7681465091300197
 20
4708.8372874398919521
 30
0.0
  0
VERTEX
  5
6073730
  8
1_OBJEKTE
  6
CONTINUOUS
 10
6063.7681465091300197
 20
4708.8372874398919521
 30
0.0
 42
-0.4142135623730951
  0
VERTEX
  5
6073731
  8
1_OBJEKTE
  6
CONTINUOUS
 10
6028.7681465091300197
 20
4743.8372874398919521
 30
0.0
  0
VERTEX
  5
6073732
  8
1_OBJEKTE
  6
CONTINUOUS
 10
6028.7681465091300197
 20
4847.5872874398928616
 30
0.0
 42
0.4142135623730951
  0
VERTEX
  5
6073733
  8
1_OBJEKTE
  6
CONTINUOUS
 10
5993.7681465091300197
 20
4882.5872874398919521
 30
0.0
  0
VERTEX
  5
6073734
  8
1_OBJEKTE
  6
CONTINUOUS
 10
5663.7681465091309292
 20
4882.5872874398919521
 30
0.0
 42
0.4142135623730951
  0
VERTEX
  5
6073735
  8
1_OBJEKTE
  6
CONTINUOUS
 10
5628.7681465091309292
 20
4847.5872874398928616
 30
0.0
  0
VERTEX
  5
6073736
  8
1_OBJEKTE
  6
CONTINUOUS
 10
5628.7681465091309292
 20
4743.8372874398919521
 30
0.0
 42
-0.4142135623730951
  0
VERTEX
  5
6073737
  8
1_OBJEKTE
  6
CONTINUOUS
 10
5593.7681465091300197
 20
4708.8372874398919521
 30
0.0
  0
VERTEX
  5
6073738
  8
1_OBJEKTE
  6
CONTINUOUS
 10
5213.5686983282357687
 20
4708.8372874398919521
 30
0.0
 42
-0.4125407288760646
  0
VERTEX
  5
6073739
  8
1_OBJEKTE
  6
CONTINUOUS
 10
5178.5692698554767048
 20
4743.6372709885981749
 30
0.0
  0
VERTEX
  5
607373A
  8
1_OBJEKTE
  6
CONTINUOUS
 10
5178.0883651181211462
 20
4827.7873038911930053
 30
0.0
 42
0.4125407288760651
  0
VERTEX
  5
607373B
  8
1_OBJEKTE
  6
CONTINUOUS
 10
5143.0889366453629918
 20
4862.5872874398919521
 30
0.0
  0
VERTEX
  5
607373C
  8
1_OBJEKTE
  6
CONTINUOUS
 10
4813.0900797110807616
 20
4862.5872874398919521
 30
0.0
 42
0.4158883769612526
  0
VERTEX
  5
607373D
  8
1_OBJEKTE
  6
CONTINUOUS
 10
4778.0906512383371592
 20
4827.3872709885981749
 30
0.0
  0
VERTEX
  5
607373E
  8
1_OBJEKTE
  6
CONTINUOUS
 10
4778.5669837203749921
 20
4744.0373038911920958
 30
0.0
 42
-0.415888376961255
  0
VERTEX
  5
607373F
  8
1_OBJEKTE
  6
CONTINUOUS
 10
4743.5675552476168377
 20
4708.8372874398919521
 30
0.0
  0
VERTEX
  5
6073740
  8
1_OBJEKTE
  6
CONTINUOUS
 10
4352.3931329182960326
 20
4708.837287439899228
 30
0.0
  0
VERTEX
  5
6073741
  8
1_OBJEKTE
  6
CONTINUOUS
 10
4224.8940565011580475
 20
4708.8372874398919521
 30
0.0
 42
-0.4142135623730951
  0
VERTEX
  5
6073742
  8
1_OBJEKTE
  6
CONTINUOUS
 10
4189.8940565011580475
 20
4743.8372874398919521
 30
0.0
  0
VERTEX
  5
6073743
  8
1_OBJEKTE
  6
CONTINUOUS
 10
4189.8926465043914504
 20
4969.2124696538812714
 30
0.0
 42
0.4142135623730888
  0
VERTEX
  5
6073744
  8
1_OBJEKTE
  6
CONTINUOUS
 10
4154.8926465043914504
 20
5004.2124696538812714
 30
0.0
  0
VERTEX
  5
6073745
  8
1_OBJEKTE
  6
CONTINUOUS
 10
3849.8926465043919052
 20
5004.2124696538812714
 30
0.0
 42
0.4142135623730951
  0
VERTEX
  5
6073746
  8
1_OBJEKTE
  6
CONTINUOUS
 10
3814.8926465043919052
 20
4969.2124696538812714
 30
0.0
  0
VERTEX
  5
6073747
  8
1_OBJEKTE
  6
CONTINUOUS
 10
3814.8940565011439503
 20
4743.8372874398919521
 30
0.0
 42
-0.4142135623730951
  0
VERTEX
  5
6073748
  8
1_OBJEKTE
  6
CONTINUOUS
 10
3779.8940565011439503
 20
4708.8372874398919521
 30
0.0
  0
VERTEX
  5
6073749
  8
1_OBJEKTE
  6
CONTINUOUS
 10
3652.3931329183110392
 20
4708.837287439899228
 30
0.0
  0
VERTEX
  5
607374A
  8
1_OBJEKTE
  6
CONTINUOUS
 10
3408.9531583381181008
 20
4708.837287439899228
 30
0.0
 42
-0.4670013235736607
  0
VERTEX
  5
607374B
  8
1_OBJEKTE
  6
CONTINUOUS
 10
3362.1937050741112216
 20
4764.6921381538340938
 30
0.0
  0
VERTEX
  5
607374C
  8
1_OBJEKTE
  6
CONTINUOUS
 10
3406.4389439434171436
 20
4954.8139153851661831
 30
0.0
 42
0.4670013235736276
  0
VERTEX
  5
607374D
  8
1_OBJEKTE
  6
CONTINUOUS
 10
3384.2897292394482065
 20
4981.2714762496616459
 30
0.0
  0
VERTEX
  5
607374E
  8
1_OBJEKTE
  6
CONTINUOUS
 10
3353.2023815567949896
 20
4981.2714762496616459
 30
0.0
 42
0.322095951164476
  0
VERTEX
  5
607374F
  8
1_OBJEKTE
  6
CONTINUOUS
 10
3331.8758196003041121
 20
4965.9427909907026333
 30
0.0
 42
-0.7187602619785549
  0
VERTEX
  5
6073750
  8
1_OBJEKTE
  6
CONTINUOUS
 10
3017.6644734409928787
 20
4965.9427909907026333
 30
0.0
 42
0.3220959511643606
  0
VERTEX
  5
6073751
  8
1_OBJEKTE
  6
CONTINUOUS
 10
2996.3379114844719879
 20
4981.2714762496616459
 30
0.0
  0
VERTEX
  5
6073752
  8
1_OBJEKTE
  6
CONTINUOUS
 10
2965.2507591260068693
 20
4981.2714762496616459
 30
0.0
 42
0.4670021458423637
  0
VERTEX
  5
6073753
  8
1_OBJEKTE
  6
CONTINUOUS
 10
2943.1015551082377897
 20
4954.8138555781124523
 30
0.0
  0
VERTEX
  5
6073754
  8
1_OBJEKTE
  6
CONTINUOUS
 10
2987.3474507168580203
 20
4764.6922644131773268
 30
0.0
 42
-0.4670021458424329
  0
VERTEX
  5
6073755
  8
1_OBJEKTE
  6
CONTINUOUS
 10
2940.5880200126848649
 20
4708.837287439899228
 30
0.0
  0
VERTEX
  5
6073756
  8
1_OBJEKTE
  6
CONTINUOUS
 10
2876.0781305205168792
 20
4708.8369716510787839
 30
0.0
  0
VERTEX
  5
6073757
  8
1_OBJEKTE
  6
CONTINUOUS
 10
2558.5660985439608339
 20
4708.8372874398919521
 30
0.0
 42
-0.454618491757757
  0
VERTEX
  5
6073758
  8
1_OBJEKTE
  6
CONTINUOUS
 10
2511.5044170357141411
 20
4762.7753099326364463
 30
0.0
  0
VERTEX
  5
6073759
  8
1_OBJEKTE
  6
CONTINUOUS
 10
2541.7915771873667836
 20
5073.2879478380846194
 30
0.0
 42
0.4546184917577145
  0
VERTEX
  5
607375A
  8
1_OBJEKTE
  6
CONTINUOUS
 10
2519.4992017360928003
 20
5098.8375374399111024
 30
0.0
  0
VERTEX
  5
607375B
  8
1_OBJEKTE
  6
CONTINUOUS
 10
2484.4533815439208411
 20
5098.8375374399111024
 30
0.0
 42
0.3220959511644834
  0
VERTEX
  5
607375C
  8
1_OBJEKTE
  6
CONTINUOUS
 10
2463.1268195874290541
 20
5083.5088521809439044
 30
0.0
 42
-0.7187602619785506
  0
VERTEX
  5
607375D
  8
1_OBJEKTE
  6
CONTINUOUS
 10
2148.9154734281178207
 20
5083.5088521809439044
 30
0.0
 42
0.3220959511643828
  0
VERTEX
  5
607375E
  8
1_OBJEKTE
  6
CONTINUOUS
 10
2127.5889114715978394
 20
5098.8375374399038265
 30
0.0
  0
VERTEX
  5
607375F
  8
1_OBJEKTE
  6
CONTINUOUS
 10
2092.5410912753718549
 20
5098.8375374399038265
 30
0.0
 42
0.4546184917577993
  0
VERTEX
  5
6073760
  8
1_OBJEKTE
  6
CONTINUOUS
 10
2070.2487158241278848
 20
5073.287947838078253
 30
0.0
  0
VERTEX
  5
6073761
  8
1_OBJEKTE
  6
CONTINUOUS
 10
2107.8172076591290534
 20
4758.9575615207577357
 30
0.0
 42
-0.5112505068851549
  0
VERTEX
  5
6073762
  8
1_OBJEKTE
  6
CONTINUOUS
 10
2060.7555261508969124
 20
4708.8372874398919521
 30
0.0
  0
VERTEX
  5
6073763
  8
1_OBJEKTE
  6
CONTINUOUS
 10
1960.95535950545991
 20
4708.8372874398919521
 30
0.0
  0
VERTEX
  5
6073764
  8
1_OBJEKTE
  6
CONTINUOUS
 10
1658.7712660336981116
 20
4708.8386491319606648
 30
0.0
 42
-0.4142135623730951
  0
VERTEX
  5
6073765
  8
1_OBJEKTE
  6
CONTINUOUS
 10
1623.7712660336981116
 20
4743.8386491319606648
 30
0.0
  0
VERTEX
  5
6073766
  8
1_OBJEKTE
  6
CONTINUOUS
 10
1623.7712660336981116
 20
5171.8419416375318178
 30
0.0
 42
0.4021496214904541
  0
VERTEX
  5
6073767
  8
1_OBJEKTE
  6
CONTINUOUS
 10
1586.6956847616820596
 20
5206.8362182967694025
 30
0.0
  0
VERTEX
  5
6073768
  8
1_OBJEKTE
  6
CONTINUOUS
 10
1583.7714048173509127
 20
5206.8362182967694025
 30
0.0
 42
0.414214723765383
  0
VERTEX
  5
6073769
  8
1_OBJEKTE
  6
CONTINUOUS
 10
1548.7714048176130746
 20
5171.8360795133767169
 30
0.0
  0
VERTEX
  5
607376A
  8
1_OBJEKTE
  6
CONTINUOUS
 10
1549.2701465055870358
 20
4982.0864037483988795
 30
0.0
 42
-0.4142135623730943
  0
VERTEX
  5
607376B
  8
1_OBJEKTE
  6
CONTINUOUS
 10
1437.2703303163580131
 20
4870.086219937934402
 30
0.0
  0
VERTEX
  5
607376C
  8
1_OBJEKTE
  6
CONTINUOUS
 10
1436.2703303160089945
 20
4870.0862182967675835
 30
0.0
 42
-0.4142135623716989
  0
VERTEX
  5
607376D
  8
1_OBJEKTE
  6
CONTINUOUS
 10
1324.2701465055290555
 20
4982.0860344854590949
 30
0.0
  0
VERTEX
  5
607376E
  8
1_OBJEKTE
  6
CONTINUOUS
 10
1323.7714048165360055
 20
5171.8363570801520837
 30
0.0
 42
0.4142124009817734
  0
VERTEX
  5
607376F
  8
1_OBJEKTE
  6
CONTINUOUS
 10
1288.7714048167979399
 20
5206.8362182967694025
 30
0.0
  0
VERTEX
  5
6073770
  8
1_OBJEKTE
  6
CONTINUOUS
 10
1283.7712660336981116
 20
5206.8362182967694025
 30
0.0
 42
0.4142135623730847
  0
VERTEX
  5
6073771
  8
1_OBJEKTE
  6
CONTINUOUS
 10
1248.7712660336981116
 20
5171.8362182967675835
 30
0.0
  0
VERTEX
  5
6073772
  8
1_OBJEKTE
  6
CONTINUOUS
 10
1248.7712660336981116
 20
4743.8372121400097967
 30
0.0
 42
-0.4142135623730951
  0
VERTEX
  5
6073773
  8
1_OBJEKTE
  6
CONTINUOUS
 10
1213.7712660336981116
 20
4708.8372121400097967
 30
0.0
  0
VERTEX
  5
6073774
  8
1_OBJEKTE
  6
CONTINUOUS
 10
1151.6451465057321002
 20
4708.8372121400097967
 30
0.0
 42
0.4142135623730951
  0
VERTEX
  5
6073775
  8
1_OBJEKTE
  6
CONTINUOUS
 10
1116.6451465057321002
 20
4673.8372121400097967
 30
0.0
  0
VERTEX
  5
6073776
  8
1_OBJEKTE
  6
CONTINUOUS
 10
1116.6451465057321002
 20
3854.6362874399128486
 30
0.0
 42
0.4142135623730951
  0
VERTEX
  5
6073777
  8
1_OBJEKTE
  6
CONTINUOUS
 10
1151.6451465057321002
 20
3819.6362874399128486
 30
0.0
  0
VERTEX
  5
6073778
  8
1_OBJEKTE
  6
CONTINUOUS
 10
1159.8951465057321002
 20
3819.6362874399128486
 30
0.0
 42
0.4142135623730951
  0
VERTEX
  5
6073779
  8
1_OBJEKTE
  6
CONTINUOUS
 10
1194.8951465057321002
 20
3854.6362874399128486
 30
0.0
  0
VERTEX
  5
607377A
  8
1_OBJEKTE
  6
CONTINUOUS
 10
1194.8951465057321002
 20
4595.5872874398919521
 30
0.0
 42
-0.4142135623730951
  0
VERTEX
  5
607377B
  8
1_OBJEKTE
  6
CONTINUOUS
 10
1229.8951465057330097
 20
4630.5872874398919521
 30
0.0
  0
VERTEX
  5
607377C
  8
1_OBJEKTE
  6
CONTINUOUS
 10
2136.4066465066857745
 20
4630.5872874398919521
 30
0.0
 42
-0.4142135623730951
  0
VERTEX
  5
607377D
  8
1_OBJEKTE
  6
CONTINUOUS
 10
2171.4066465066871388
 20
4595.5872874398919521
 30
0.0
  0
VERTEX
  5
607377E
  8
1_OBJEKTE
  6
CONTINUOUS
 10
2171.4066465066871388
 20
4512.9872874399006832
 30
0.0
 42
-0.4142135623730951
  0
VERTEX
  5
607377F
  8
1_OBJEKTE
  6
CONTINUOUS
 10
2136.4066465066857745
 20
4477.9872874398997737
 30
0.0
  0
VERTEX
  5
6073780
  8
1_OBJEKTE
  6
CONTINUOUS
 10
1861.407146507699963
 20
4477.9872874398997737
 30
0.0
 42
0.4142135623730951
  0
VERTEX
  5
6073781
  8
1_OBJEKTE
  6
CONTINUOUS
 10
1831.4071465076990535
 20
4447.9872874398997737
 30
0.0
  0
VERTEX
  5
6073782
  8
1_OBJEKTE
  6
CONTINUOUS
 10
1831.4071465076990535
 20
4440.936787439895852
 30
0.0
 42
0.4142135623730951
  0
VERTEX
  5
6073783
  8
1_OBJEKTE
  6
CONTINUOUS
 10
1861.407146507699963
 20
4410.936787439895852
 30
0.0
  0
VERTEX
  5
6073784
  8
1_OBJEKTE
  6
CONTINUOUS
 10
2136.4066465066857745
 20
4410.936787439895852
 30
0.0
 42
-0.4142135623730951
  0
VERTEX
  5
6073785
  8
1_OBJEKTE
  6
CONTINUOUS
 10
2171.4066465066871388
 20
4375.936787439895852
 30
0.0
  0
VERTEX
  5
6073786
  8
1_OBJEKTE
  6
CONTINUOUS
 10
2171.4066465066871388
 20
4220.9367874398949425
 30
0.0
 42
-0.4142135623730951
  0
VERTEX
  5
6073787
  8
1_OBJEKTE
  6
CONTINUOUS
 10
2136.4066465066857745
 20
4185.936787439895852
 30
0.0
  0
VERTEX
  5
6073788
  8
1_OBJEKTE
  6
CONTINUOUS
 10
1861.407146507699963
 20
4185.936787439895852
 30
0.0
 42
0.4142135623730951
  0
VERTEX
  5
6073789
  8
1_OBJEKTE
  6
CONTINUOUS
 10
1831.4071465076990535
 20
4155.936787439895852
 30
0.0
  0
VERTEX
  5
607378A
  8
1_OBJEKTE
  6
CONTINUOUS
 10
1831.4071465076990535
 20
4140.936787439895852
 30
0.0
 42
0.4142135623730951
  0
VERTEX
  5
607378B
  8
1_OBJEKTE
  6
CONTINUOUS
 10
1861.407146507699963
 20
4110.936787439895852
 30
0.0
  0
VERTEX
  5
607378C
  8
1_OBJEKTE
  6
CONTINUOUS
 10
2136.4066465066857745
 20
4110.936787439895852
 30
0.0
 42
-0.4142135623730951
  0
VERTEX
  5
607378D
  8
1_OBJEKTE
  6
CONTINUOUS
 10
2171.4066465066871388
 20
4075.9367874398949425
 30
0.0
  0
VERTEX
  5
607378E
  8
1_OBJEKTE
  6
CONTINUOUS
 10
2171.4066465066871388
 20
4007.9357874398988315
 30
0.0
 42
-0.4142135623730951
  0
VERTEX
  5
607378F
  8
1_OBJEKTE
  6
CONTINUOUS
 10
2136.4066465066857745
 20
3972.9357874398988315
 30
0.0
  0
VERTEX
  5
6073790
  8
1_OBJEKTE
  6
CONTINUOUS
 10
1861.407146507699963
 20
3972.9357874398988315
 30
0.0
 42
0.4142135623730951
  0
VERTEX
  5
6073791
  8
1_OBJEKTE
  6
CONTINUOUS
 10
1831.4071465076990535
 20
3942.9357874399001957
 30
0.0
  0
VERTEX
  5
6073792
  8
1_OBJEKTE
  6
CONTINUOUS
 10
1831.4071465076990535
 20
3927.936787439895852
 30
0.0
 42
0.4142135623730951
  0
VERTEX
  5
6073793
  8
1_OBJEKTE
  6
CONTINUOUS
 10
1861.407146507699963
 20
3897.936787439895852
 30
0.0
  0
VERTEX
  5
6073794
  8
1_OBJEKTE
  6
CONTINUOUS
 10
2136.4066465066857745
 20
3897.936787439895852
 30
0.0
 42
-0.4142135623730951
  0
VERTEX
  5
6073795
  8
1_OBJEKTE
  6
CONTINUOUS
 10
2171.4066465066871388
 20
3862.936787439895852
 30
0.0
  0
VERTEX
  5
6073796
  8
1_OBJEKTE
  6
CONTINUOUS
 10
2171.4066465066871388
 20
3707.936787439895852
 30
0.0
 42
-0.4142135623730951
  0
VERTEX
  5
6073797
  8
1_OBJEKTE
  6
CONTINUOUS
 10
2136.4066465066857745
 20
3672.936787439895852
 30
0.0
  0
VERTEX
  5
6073798
  8
1_OBJEKTE
  6
CONTINUOUS
 10
1861.407146507699963
 20
3672.936787439895852
 30
0.0
 42
0.4142135623730951
  0
VERTEX
  5
6073799
  8
1_OBJEKTE
  6
CONTINUOUS
 10
1831.4071465076990535
 20
3642.936787439895852
 30
0.0
  0
VERTEX
  5
607379A
  8
1_OBJEKTE
  6
CONTINUOUS
 10
1831.4071465076990535
 20
3627.936787439895852
 30
0.0
 42
0.4142135623730951
  0
VERTEX
  5
607379B
  8
1_OBJEKTE
  6
CONTINUOUS
 10
1861.407146507699963
 20
3597.936787439895852
 30
0.0
  0
VERTEX
  5
607379C
  8
1_OBJEKTE
  6
CONTINUOUS
 10
2136.4066465066857745
 20
3597.936787439895852
 30
0.0
 42
-0.4142135623730951
  0
VERTEX
  5
607379D
  8
1_OBJEKTE
  6
CONTINUOUS
 10
2171.4066465066871388
 20
3562.936787439895852
 30
0.0
  0
VERTEX
  5
607379E
  8
1_OBJEKTE
  6
CONTINUOUS
 10
2171.4066465066871388
 20
3494.9357874398988315
 30
0.0
 42
-0.4142135623730951
  0
VERTEX
  5
607379F
  8
1_OBJEKTE
  6
CONTINUOUS
 10
2136.4066465066857745
 20
3459.9357874399001957
 30
0.0
  0
VERTEX
  5
60737A0
  8
1_OBJEKTE
  6
CONTINUOUS
 10
1861.407146507699963
 20
3459.9357874399001957
 30
0.0
 42
0.4142135623730951
  0
VERTEX
  5
60737A1
  8
1_OBJEKTE
  6
CONTINUOUS
 10
1831.4071465076990535
 20
3429.9357874398988315
 30
0.0
  0
VERTEX
  5
60737A2
  8
1_OBJEKTE
  6
CONTINUOUS
 10
1831.4071465076990535
 20
3414.936787439895852
 30
0.0
 42
0.4142135623730951
  0
VERTEX
  5
60737A3
  8
1_OBJEKTE
  6
CONTINUOUS
 10
1861.407146507699963
 20
3384.936787439895852
 30
0.0
  0
VERTEX
  5
60737A4
  8
1_OBJEKTE
  6
CONTINUOUS
 10
2136.4066465066857745
 20
3384.936787439895852
 30
0.0
 42
-0.4142135623730951
  0
VERTEX
  5
60737A5
  8
1_OBJEKTE
  6
CONTINUOUS
 10
2171.4066465066871388
 20
3349.936787439895852
 30
0.0
  0
VERTEX
  5
60737A6
  8
1_OBJEKTE
  6
CONTINUOUS
 10
2171.4066465066871388
 20
3194.936787439895852
 30
0.0
 42
-0.4142135623730951
  0
VERTEX
  5
60737A7
  8
1_OBJEKTE
  6
CONTINUOUS
 10
2136.4066465066857745
 20
3159.936787439895852
 30
0.0
  0
VERTEX
  5
60737A8
  8
1_OBJEKTE
  6
CONTINUOUS
 10
1861.407146507699963
 20
3159.936787439895852
 30
0.0
 42
0.4142135623730951
  0
VERTEX
  5
60737A9
  8
1_OBJEKTE
  6
CONTINUOUS
 10
1831.4071465076990535
 20
3129.936787439895852
 30
0.0
  0
VERTEX
  5
60737AA
  8
1_OBJEKTE
  6
CONTINUOUS
 10
1831.4071465076990535
 20
3122.8862874398992062
 30
0.0
 42
0.4142135623730951
  0
VERTEX
  5
60737AB
  8
1_OBJEKTE
  6
CONTINUOUS
 10
1861.407146507699963
 20
3092.8862874398992062
 30
0.0
  0
VERTEX
  5
60737AC
  8
1_OBJEKTE
  6
CONTINUOUS
 10
2210.282146507699963
 20
3092.8862874398992062
 30
0.0
 42
0.4142135623730951
  0
VERTEX
  5
60737AD
  8
1_OBJEKTE
  6
CONTINUOUS
 10
2245.2821465076990535
 20
3127.8862874398992062
 30
0.0
  0
VERTEX
  5
60737AE
  8
1_OBJEKTE
  6
CONTINUOUS
 10
2245.2821465076990535
 20
3272.9863098643982084
 30
0.0
 42
-0.4142135623730951
  0
VERTEX
  5
60737AF
  8
1_OBJEKTE
  6
CONTINUOUS
 10
2280.2821465076990535
 20
3307.9863098643991179
 30
0.0
  0
VERTEX
  5
60737B0
  8
1_OBJEKTE
  6
CONTINUOUS
 10
2303.532146507699963
 20
3307.9863098643991179
 30
0.0
 42
0.4142135623730951
  0
VERTEX
  5
60737B1
  8
1_OBJEKTE
  6
CONTINUOUS
 10
2338.532146507699963
 20
3342.9863098643991179
 30
0.0
  0
VERTEX
  5
60737B2
  8
1_OBJEKTE
  6
CONTINUOUS
 10
2338.532146507699963
 20
3637.9357874398988315
 30
0.0
 42
0.4142135623730951
  0
VERTEX
  5
60737B3
  8
1_OBJEKTE
  6
CONTINUOUS
 10
2303.532146507699963
 20
3672.9357874398988315
 30
0.0
  0
VERTEX
  5
60737B4
  8
1_OBJEKTE
  6
CONTINUOUS
 10
2280.2821465076990535
 20
3672.9357874398988315
 30
0.0
 42
-0.4142135623730951
  0
VERTEX
  5
60737B5
  8
1_OBJEKTE
  6
CONTINUOUS
 10
2245.2821465076990535
 20
3707.9357874398988315
 30
0.0
  0
VERTEX
  5
60737B6
  8
1_OBJEKTE
  6
CONTINUOUS
 10
2245.2821465076990535
 20
3785.9868098644001293
 30
0.0
 42
-0.4142135623730951
  0
VERTEX
  5
60737B7
  8
1_OBJEKTE
  6
CONTINUOUS
 10
2280.2821465076990535
 20
3820.9868098644001293
 30
0.0
  0
VERTEX
  5
60737B8
  8
1_OBJEKTE
  6
CONTINUOUS
 10
2303.532146507699963
 20
3820.9868098644001293
 30
0.0
 42
0.4142135623730951
  0
VERTEX
  5
60737B9
  8
1_OBJEKTE
  6
CONTINUOUS
 10
2338.532146507699963
 20
3855.9868098644010388
 30
0.0
  0
VERTEX
  5
60737BA
  8
1_OBJEKTE
  6
CONTINUOUS
 10
2338.532146507699963
 20
4150.936787439895852
 30
0.0
 42
0.4142135623730951
  0
VERTEX
  5
60737BB
  8
1_OBJEKTE
  6
CONTINUOUS
 10
2303.532146507699963
 20
4185.936787439895852
 30
0.0
  0
VERTEX
  5
60737BC
  8
1_OBJEKTE
  6
CONTINUOUS
 10
2280.2821465076990535
 20
4185.936787439895852
 30
0.0
 42
-0.4142135623730951
  0
VERTEX
  5
60737BD
  8
1_OBJEKTE
  6
CONTINUOUS
 10
2245.2821465076990535
 20
4220.9367874398949425
 30
0.0
  0
VERTEX
  5
60737BE
  8
1_OBJEKTE
  6
CONTINUOUS
 10
2245.2821465076990535
 20
4595.5872874398919521
 30
0.0
 42
-0.4142135623730951
  0
VERTEX
  5
60737BF
  8
1_OBJEKTE
  6
CONTINUOUS
 10
2280.2821465076990535
 20
4630.5872874398919521
 30
0.0
  0
VERTEX
  5
60737C0
  8
1_OBJEKTE
  6
CONTINUOUS
 10
2864.5281464995928218
 20
4630.5872874398919521
 30
0.0
 42
-0.4142135623730951
  0
VERTEX
  5
60737C1
  8
1_OBJEKTE
  6
CONTINUOUS
 10
2899.5281464995928218
 20
4595.5872874398919521
 30
0.0
  0
VERTEX
  5
60737C2
  8
1_OBJEKTE
  6
CONTINUOUS
 10
2899.5281464995928218
 20
4552.0608756807487225
 30
0.0
 42
0.4142135623730951
  0
VERTEX
  5
60737C3
  8
1_OBJEKTE
  6
CONTINUOUS
 10
2934.528146499594186
 20
4517.0608756807487225
 30
0.0
  0
VERTEX
  5
60737C4
  8
1_OBJEKTE
  6
CONTINUOUS
 10
3195.8421465100841488
 20
4517.0608756807487225
 30
0.0
 42
0.4142135623730951
  0
VERTEX
  5
60737C5
  8
1_OBJEKTE
  6
CONTINUOUS
 10
3230.8421465100841488
 20
4552.0608756807487225
 30
0.0
  0
VERTEX
  5
60737C6
  8
1_OBJEKTE
  6
CONTINUOUS
 10
3230.8421465100841488
 20
4595.5872874398919521
 30
0.0
 42
-0.4142135623730951
  0
VERTEX
  5
60737C7
  8
1_OBJEKTE
  6
CONTINUOUS
 10
3265.8421465100841488
 20
4630.5872874398919521
 30
0.0
  0
VERTEX
  5
60737C8
  8
1_OBJEKTE
  6
CONTINUOUS
 10
3377.5286465006070102
 20
4630.5872874398919521
 30
0.0
 42
-0.4142135623730951
  0
VERTEX
  5
60737C9
  8
1_OBJEKTE
  6
CONTINUOUS
 10
3412.5286465006061007
 20
4595.5872874398919521
 30
0.0
  0
VERTEX
  5
60737CA
  8
1_OBJEKTE
  6
CONTINUOUS
 10
3412.5286465006061007
 20
4552.0608756807487225
 30
0.0
 42
0.4142135623730951
  0
VERTEX
  5
60737CB
  8
1_OBJEKTE
  6
CONTINUOUS
 10
3447.5286465006061007
 20
4517.0608756807487225
 30
0.0
  0
VERTEX
  5
60737CC
  8
1_OBJEKTE
  6
CONTINUOUS
 10
3708.8421465100841488
 20
4517.0608756807487225
 30
0.0
 42
0.4142135623730951
  0
VERTEX
  5
60737CD
  8
1_OBJEKTE
  6
CONTINUOUS
 10
3743.8421465100841488
 20
4552.0608756807487225
 30
0.0
  0
VERTEX
  5
60737CE
  8
1_OBJEKTE
  6
CONTINUOUS
 10
3743.8421465100841488
 20
4595.5872874398919521
 30
0.0
 42
-0.4142135623730951
  0
VERTEX
  5
60737CF
  8
1_OBJEKTE
  6
CONTINUOUS
 10
3778.8421465100841488
 20
4630.5872874398919521
 30
0.0
  0
VERTEX
  5
60737D0
  8
1_OBJEKTE
  6
CONTINUOUS
 10
3890.5281464995928218
 20
4630.5872874398919521
 30
0.0
 42
-0.4142135623730951
  0
VERTEX
  5
60737D1
  8
1_OBJEKTE
  6
CONTINUOUS
 10
3925.5281464995928218
 20
4595.5872874398919521
 30
0.0
  0
VERTEX
  5
60737D2
  8
1_OBJEKTE
  6
CONTINUOUS
 10
3925.5281464995928218
 20
4552.0608756807487225
 30
0.0
 42
0.4142135623730951
  0
VERTEX
  5
60737D3
  8
1_OBJEKTE
  6
CONTINUOUS
 10
3960.5281464995928218
 20
4517.0608756807487225
 30
0.0
  0
VERTEX
  5
60737D4
  8
1_OBJEKTE
  6
CONTINUOUS
 10
4221.8421465026331134
 20
4517.0608756807487225
 30
0.0
 42
0.4142135623730951
  0
VERTEX
  5
60737D5
  8
1_OBJEKTE
  6
CONTINUOUS
 10
4256.8421465026331134
 20
4552.0608756807487225
 30
0.0
  0
VERTEX
  5
60737D6
  8
1_OBJEKTE
  6
CONTINUOUS
 10
4256.8421465026331134
 20
4595.5872874398919521
 30
0.0
 42
-0.4142135623730951
  0
VERTEX
  5
60737D7
  8
1_OBJEKTE
  6
CONTINUOUS
 10
4291.8421465026331134
 20
4630.5872874398919521
 30
0.0
  0
VERTEX
  5
60737D8
  8
1_OBJEKTE
  6
CONTINUOUS
 10
4403.5281464995932765
 20
4630.5872874398919521
 30
0.0
 42
-0.4142135623730951
  0
VERTEX
  5
60737D9
  8
1_OBJEKTE
  6
CONTINUOUS
 10
4438.5281464995932765
 20
4595.5872874398919521
 30
0.0
  0
VERTEX
  5
60737DA
  8
1_OBJEKTE
  6
CONTINUOUS
 10
4438.5281464995932765
 20
4552.0608756807487225
 30
0.0
 42
0.4142135623730951
  0
VERTEX
  5
60737DB
  8
1_OBJEKTE
  6
CONTINUOUS
 10
4473.5281464995932765
 20
4517.0608756807487225
 30
0.0
  0
VERTEX
  5
60737DC
  8
1_OBJEKTE
  6
CONTINUOUS
 10
4734.8411465080571361
 20
4517.0608756807487225
 30
0.0
 42
0.4142135623730951
  0
VERTEX
  5
60737DD
  8
1_OBJEKTE
  6
CONTINUOUS
 10
4769.8411465080571361
 20
4552.0608756807487225
 30
0.0
  0
VERTEX
  5
60737DE
  8
1_OBJEKTE
  6
CONTINUOUS
 10
4769.8411465080571361
 20
4595.5872874398919521
 30
0.0
 42
-0.4142135623730951
  0
VERTEX
  5
60737DF
  8
1_OBJEKTE
  6
CONTINUOUS
 10
4804.8411465080562266
 20
4630.5872874398919521
 30
0.0
  0
VERTEX
  5
60737E0
  8
1_OBJEKTE
  6
CONTINUOUS
 10
5173.0291465016198345
 20
4630.5872874398919521
 30
0.0
 42
-0.4142135623730951
  0
VERTEX
  5
60737E1
  8
1_OBJEKTE
  6
CONTINUOUS
 10
5208.0291465016198345
 20
4595.5872874398919521
 30
0.0
  0
VERTEX
  5
60737E2
  8
1_OBJEKTE
  6
CONTINUOUS
 10
5208.0291465016198345
 20
4552.0608756807487225
 30
0.0
 42
0.4142135623730951
  0
VERTEX
  5
60737E3
  8
1_OBJEKTE
  6
CONTINUOUS
 10
5243.029146501618925
 20
4517.0608756807487225
 30
0.0
  0
VERTEX
  5
60737E4
  8
1_OBJEKTE
  6
CONTINUOUS
 10
5504.3421465100827845
 20
4517.0608756807487225
 30
0.0
 42
0.4142135623730951
  0
VERTEX
  5
60737E5
  8
1_OBJEKTE
  6
CONTINUOUS
 10
5539.3421465100827845
 20
4552.0608756807487225
 30
0.0
  0
VERTEX
  5
60737E6
  8
1_OBJEKTE
  6
CONTINUOUS
 10
5539.3421465100827845
 20
4557.9382874398952481
 30
0.0
 42
-0.4142135623730951
  0
VERTEX
  5
60737E7
  8
1_OBJEKTE
  6
CONTINUOUS
 10
5564.3421465100827845
 20
4582.9382874398943386
 30
0.0
  0
VERTEX
  5
60737E8
  8
1_OBJEKTE
  6
CONTINUOUS
 10
5728.2421465011429973
 20
4582.9382874398870626
 30
0.0
  0
VERTEX
  5
60737E9
  8
1_OBJEKTE
  6
CONTINUOUS
 10
9611.6181465031695552
 20
4582.9382874398870626
 30
0.0
 42
-1.0
  0
VERTEX
  5
60737EA
  8
1_OBJEKTE
  6
CONTINUOUS
 10
9611.6181465031695552
 20
4376.6882874398870626
 30
0.0
  0
VERTEX
  5
60737EB
  8
1_OBJEKTE
  6
CONTINUOUS
 10
7766.6176465058806571
 20
4376.6882874398870626
 30
0.0
  0
VERTEX
  5
60737EC
  8
1_OBJEKTE
  6
CONTINUOUS
 10
6029.1176813341744491
 20
4376.6882874398870626
 30
0.0
 42
1.0
  0
VERTEX
  5
60737ED
  8
1_OBJEKTE
  6
CONTINUOUS
 10
6029.1176813341744491
 20
4326.4372874398968634
 30
0.0
  0
VERTEX
  5
60737EE
  8
1_OBJEKTE
  6
CONTINUOUS
 10
9611.6181465031695552
 20
4326.4372874398968634
 30
0.0
 42
-1.0
  0
VERTEX
  5
60737EF
  8
1_OBJEKTE
  6
CONTINUOUS
 10
9611.6181465031695552
 20
4120.1872874398977729
 30
0.0
  0
VERTEX
  5
60737F0
  8
1_OBJEKTE
  6
CONTINUOUS
 10
7766.6176465058806571
 20
4120.1872874398977729
 30
0.0
  0
VERTEX
  5
60737F1
  8
1_OBJEKTE
  6
CONTINUOUS
 10
6029.1176813341744491
 20
4120.1872874398977729
 30
0.0
 42
1.0
  0
VERTEX
  5
60737F2
  8
1_OBJEKTE
  6
CONTINUOUS
 10
6029.1176813341744491
 20
4069.9362874399080283
 30
0.0
  0
VERTEX
  5
60737F3
  8
1_OBJEKTE
  6
CONTINUOUS
 10
9611.6181465031695552
 20
4069.9362874399080283
 30
0.0
 42
-1.0
  0
VERTEX
  5
60737F4
  8
1_OBJEKTE
  6
CONTINUOUS
 10
9611.6181465031695552
 20
3863.6862874398948406
 30
0.0
  0
VERTEX
  5
60737F5
  8
1_OBJEKTE
  6
CONTINUOUS
 10
7766.6176465058806571
 20
3863.6862874399089378
 30
0.0
  0
VERTEX
  5
60737F6
  8
1_OBJEKTE
  6
CONTINUOUS
 10
6029.1176813341744491
 20
3863.6862874399089378
 30
0.0
 42
1.0
  0
VERTEX
  5
60737F7
  8
1_OBJEKTE
  6
CONTINUOUS
 10
6029.1176813341744491
 20
3813.4352874399191933
 30
0.0
  0
VERTEX
  5
60737F8
  8
1_OBJEKTE
  6
CONTINUOUS
 10
9611.6181465031841071
 20
3813.4352874399191933
 30
0.0
 42
-0.9999999999999998
  0
VERTEX
  5
60737F9
  8
1_OBJEKTE
  6
CONTINUOUS
 10
9611.6181465031841071
 20
3607.1852874399050961
 30
0.0
  0
VERTEX
  5
60737FA
  8
1_OBJEKTE
  6
CONTINUOUS
 10
7766.6176465058806571
 20
3607.1852874399050961
 30
0.0
  0
VERTEX
  5
60737FB
  8
1_OBJEKTE
  6
CONTINUOUS
 10
6029.1176813341744491
 20
3607.1852874399050961
 30
0.0
 42
1.0
  0
VERTEX
  5
60737FC
  8
1_OBJEKTE
  6
CONTINUOUS
 10
6029.1176813341744491
 20
3556.9342874399148968
 30
0.0
  0
VERTEX
  5
60737FD
  8
1_OBJEKTE
  6
CONTINUOUS
 10
9611.6181465031841071
 20
3556.9342874399148968
 30
0.0
 42
-0.9999999999999998
  0
VERTEX
  5
60737FE
  8
1_OBJEKTE
  6
CONTINUOUS
 10
9611.6181465031841071
 20
3350.6842874399158063
 30
0.0
  0
VERTEX
  5
60737FF
  8
1_OBJEKTE
  6
CONTINUOUS
 10
7766.6176465058806571
 20
3350.6842874399158063
 30
0.0
  0
VERTEX
  5
6073800
  8
1_OBJEKTE
  6
CONTINUOUS
 10
6029.1176813341744491
 20
3350.6842874399158063
 30
0.0
 42
1.0
  0
VERTEX
  5
6073801
  8
1_OBJEKTE
  6
CONTINUOUS
 10
6029.1176813341744491
 20
3300.4332874399260618
 30
0.0
  0
VERTEX
  5
6073802
  8
1_OBJEKTE
  6
CONTINUOUS
 10
9696.7431465031841071
 20
3300.4332874399119646
 30
0.0
 42
-0.4142135623730946
  0
VERTEX
  5
6073803
  8
1_OBJEKTE
  6
CONTINUOUS
 10
9711.7431465031841071
 20
3285.4332874399110551
 30
0.0
  0
VERTEX
  5
6073804
  8
1_OBJEKTE
  6
CONTINUOUS
 10
9711.7431465031841071
 20
3280.4332874399119646
 30
0.0
 42
0.4142135623731015
  0
VERTEX
  5
6073805
  8
1_OBJEKTE
  6
CONTINUOUS
 10
9726.7431465031841071
 20
3265.4332874399119646
 30
0.0
  0
VERTEX
  5
6073806
  8
1_OBJEKTE
  6
CONTINUOUS
 10
9876.7431465106055839
 20
3265.4332874399187858
 30
0.0
 42
0.4142135623730951
  0
VERTEX
  5
6073807
  8
1_OBJEKTE
  6
CONTINUOUS
 10
9911.7431465106055839
 20
3300.4332874399119646
 30
0.0
  0
VERTEX
  5
6073808
  8
1_OBJEKTE
  6
CONTINUOUS
 10
9911.7431465106201358
 20
4289.0872874398919521
 30
0.0
 42
-0.4142135623730951
  0
VERTEX
  5
6073809
  8
1_OBJEKTE
  6
CONTINUOUS
 10
9946.7431465106201358
 20
4324.0872874398910426
 30
0.0
  0
VERTEX
  5
607380A
  8
1_OBJEKTE
  6
CONTINUOUS
 10
10189.7422556696092215
 20
4324.0872874398910426
 30
0.0
 42
-0.4142126488713507
  0
VERTEX
  5
607380B
  8
1_OBJEKTE
  6
CONTINUOUS
 10
10224.7422556694291416
 20
4289.0873966010840377
 30
0.0
  0
VERTEX
  5
607380C
  8
1_OBJEKTE
  6
CONTINUOUS
 10
10224.7431465031804692
 20
4003.4622426722780801
 30
0.0
 42
0.9999968374804851
  0
VERTEX
  5
607380D
  8
1_OBJEKTE
  6
CONTINUOUS
 10
10566.7431465031695552
 20
4003.4622277496241622
 30
0.0
  0
VERTEX
  5
607380E
  8
1_OBJEKTE
  6
CONTINUOUS
 10
10566.7431465031695552
 20
4289.0872874398919521
 30
0.0
 42
-0.4142135623730951
  0
VERTEX
  5
607380F
  8
1_OBJEKTE
  6
CONTINUOUS
 10
10601.7431465031695552
 20
4324.0872874398910426
 30
0.0
  0
VERTEX
  5
6073810
  8
1_OBJEKTE
  6
CONTINUOUS
 10
12276.7421465085899399
 20
4324.0872874398910426
 30
0.0
  0
VERTEX
  5
6073811
  8
1_OBJEKTE
  6
CONTINUOUS
 10
12276.7421465085899399
 20
3298.0872874398919521
 30
0.0
  0
VERTEX
  5
6073812
  8
1_OBJEKTE
  6
CONTINUOUS
 10
10601.2925330861198745
 20
3298.0872874398919521
 30
0.0
 42
-0.3949673018666744
  0
VERTEX
  5
6073813
  8
1_OBJEKTE
  6
CONTINUOUS
 10
10566.3690936498696828
 20
3330.7735506479079959
 30
0.0
 42
0.9674803976736374
  0
VERTEX
  5
6073814
  8
1_OBJEKTE
  6
CONTINUOUS
 10
10224.7431465031695552
 20
3319.4612874398890199
 30
0.0
  0
VERTEX
  5
6073815
  8
1_OBJEKTE
  6
CONTINUOUS
 10
10224.7431465031695552
 20
3003.9332874399119646
 30
0.0
 42
-0.4142135623730951
  0
VERTEX
  5
6073816
  8
1_OBJEKTE
  6
CONTINUOUS
 10
10189.7431465031695552
 20
2968.9332874399119646
 30
0.0
  0
VERTEX
  5
6073817
  8
1_OBJEKTE
  6
CONTINUOUS
 10
9710.4009078093513381
 20
2968.9332874399119646
 30
0.0
  0
VERTEX
  5
6073818
  8
1_OBJEKTE
  6
CONTINUOUS
 10
5921.6171465085935779
 20
2968.9332874399119646
 30
0.0
 42
-0.9999999999999998
  0
VERTEX
  5
6073819
  8
1_OBJEKTE
  6
CONTINUOUS
 10
5921.6171465085935779
 20
3169.1832874399119646
 30
0.0
  0
VERTEX
  5
607381A
  8
1_OBJEKTE
  6
CONTINUOUS
 10
7766.6176465058806571
 20
3169.1832874399119646
 30
0.0
  0
VERTEX
  5
607381B
  8
1_OBJEKTE
  6
CONTINUOUS
 10
9504.1176465031749103
 20
3169.1832874399260618
 30
0.0
 42
0.9999999999999998
  0
VERTEX
  5
607381C
  8
1_OBJEKTE
  6
CONTINUOUS
 10
9504.1176465031749103
 20
3225.4332874399260618
 30
0.0
  0
VERTEX
  5
607381D
  8
1_OBJEKTE
  6
CONTINUOUS
 10
5921.6176465085882228
 20
3225.4332874399260618
 30
0.0
 42
-0.9999999999999998
  0
VERTEX
  5
607381E
  8
1_OBJEKTE
  6
CONTINUOUS
 10
5921.6176465085882228
 20
3425.6842874399158063
 30
0.0
  0
VERTEX
  5
607381F
  8
1_OBJEKTE
  6
CONTINUOUS
 10
7766.6176465058806571
 20
3425.6842874399158063
 30
0.0
  0
VERTEX
  5
6073820
  8
1_OBJEKTE
  6
CONTINUOUS
 10
9504.1176465031749103
 20
3425.6842874399158063
 30
0.0
 42
0.9999999999999998
  0
VERTEX
  5
6073821
  8
1_OBJEKTE
  6
CONTINUOUS
 10
9504.1176465031749103
 20
3481.9342874399299035
 30
0.0
  0
VERTEX
  5
6073822
  8
1_OBJEKTE
  6
CONTINUOUS
 10
5921.6176465085882228
 20
3481.9342874399158063
 30
0.0
 42
-0.9999999999999998
  0
VERTEX
  5
6073823
  8
1_OBJEKTE
  6
CONTINUOUS
 10
5921.6176465085882228
 20
3682.1852874399050961
 30
0.0
  0
VERTEX
  5
6073824
  8
1_OBJEKTE
  6
CONTINUOUS
 10
7766.6176465058806571
 20
3682.1852874399050961
 30
0.0
  0
VERTEX
  5
6073825
  8
1_OBJEKTE
  6
CONTINUOUS
 10
9504.1176465031749103
 20
3682.1852874399050961
 30
0.0
 42
0.9999999999999998
  0
VERTEX
  5
6073826
  8
1_OBJEKTE
  6
CONTINUOUS
 10
9504.1176465031749103
 20
3738.4352874399191933
 30
0.0
  0
VERTEX
  5
6073827
  8
1_OBJEKTE
  6
CONTINUOUS
 10
5921.6176465085882228
 20
3738.4352874399191933
 30
0.0
 42
-0.9999999999999998
  0
VERTEX
  5
6073828
  8
1_OBJEKTE
  6
CONTINUOUS
 10
5921.6176465085882228
 20
3938.6862874399089378
 30
0.0
  0
VERTEX
  5
6073829
  8
1_OBJEKTE
  6
CONTINUOUS
 10
7766.6176465058806571
 20
3938.6862874398948406
 30
0.0
  0
VERTEX
  5
607382A
  8
1_OBJEKTE
  6
CONTINUOUS
 10
9504.1176465031749103
 20
3938.6862874398948406
 30
0.0
 42
0.9999999999999998
  0
VERTEX
  5
607382B
  8
1_OBJEKTE
  6
CONTINUOUS
 10
9504.1176465031749103
 20
3994.9362874399089378
 30
0.0
  0
VERTEX
  5
607382C
  8
1_OBJEKTE
  6
CONTINUOUS
 10
5921.6176465085882228
 20
3994.9362874399089378
 30
0.0
 42
-0.9999999999999998
  0
VERTEX
  5
607382D
  8
1_OBJEKTE
  6
CONTINUOUS
 10
5921.6176465085882228
 20
4195.1872874398977729
 30
0.0
  0
VERTEX
  5
607382E
  8
1_OBJEKTE
  6
CONTINUOUS
 10
7766.6176465058806571
 20
4195.1872874398977729
 30
0.0
  0
VERTEX
  5
607382F
  8
1_OBJEKTE
  6
CONTINUOUS
 10
9504.1176465031749103
 20
4195.1872874398977729
 30
0.0
 42
0.9999999999999998
  0
VERTEX
  5
6073830
  8
1_OBJEKTE
  6
CONTINUOUS
 10
9504.1176465031749103
 20
4251.4372874398968634
 30
0.0
  0
VERTEX
  5
6073831
  8
1_OBJEKTE
  6
CONTINUOUS
 10
5921.6176465085882228
 20
4251.4372874398968634
 30
0.0
 42
-0.9999999999999998
  0
VERTEX
  5
6073832
  8
1_OBJEKTE
  6
CONTINUOUS
 10
5921.6176465085882228
 20
4451.6882874398870626
 30
0.0
  0
VERTEX
  5
6073833
  8
1_OBJEKTE
  6
CONTINUOUS
 10
7766.6176465058806571
 20
4451.6882874398870626
 30
0.0
  0
VERTEX
  5
6073834
  8
1_OBJEKTE
  6
CONTINUOUS
 10
9504.1176465031749103
 20
4451.6882874398870626
 30
0.0
 42
0.9999999999999998
  0
VERTEX
  5
6073835
  8
1_OBJEKTE
  6
CONTINUOUS
 10
9504.1176465031749103
 20
4507.9382874398870626
 30
0.0
  0
VERTEX
  5
6073836
  8
1_OBJEKTE
  6
CONTINUOUS
 10
5728.2421465011429973
 20
4507.9382874398943386
 30
0.0
 42
0.4142135623730951
  0
VERTEX
  5
6073837
  8
1_OBJEKTE
  6
CONTINUOUS
 10
5693.2421465011429973
 20
4472.9382874398943386
 30
0.0
  0
VERTEX
  5
6073838
  8
1_OBJEKTE
  6
CONTINUOUS
 10
5693.2421465011429973
 20
4205.1872874398977729
 30
0.0
 42
-0.4142135623730951
  0
VERTEX
  5
6073839
  8
1_OBJEKTE
  6
CONTINUOUS
 10
5658.2421465011429973
 20
4170.1872874398968634
 30
0.0
  0
VERTEX
  5
607383A
  8
1_OBJEKTE
  6
CONTINUOUS
 10
5569.342146510083694
 20
4170.1872874398968634
 30
0.0
 42
-0.4142135623730951
  0
VERTEX
  5
607383B
  8
1_OBJEKTE
  6
CONTINUOUS
 10
5539.3421465100827845
 20
4200.1872874398977729
 30
0.0
  0
VERTEX
  5
607383C
  8
1_OBJEKTE
  6
CONTINUOUS
 10
5539.3421465100827845
 20
4213.9622874398910426
 30
0.0
 42
0.4142135623730951
  0
VERTEX
  5
607383D
  8
1_OBJEKTE
  6
CONTINUOUS
 10
5529.3421465100827845
 20
4223.9622874398910426
 30
0.0
  0
VERTEX
  5
607383E
  8
1_OBJEKTE
  6
CONTINUOUS
 10
5522.7421465085935779
 20
4223.9622874398910426
 30
0.0
 42
0.4142135623730925
  0
VERTEX
  5
607383F
  8
1_OBJEKTE
  6
CONTINUOUS
 10
5472.7421465085926684
 20
4173.9622874398910426
 30
0.0
  0
VERTEX
  5
6073840
  8
1_OBJEKTE
  6
CONTINUOUS
 10
5472.7421465085926684
 20
4153.5872874398919521
 30
0.0
 42
0.4142135623730951
  0
VERTEX
  5
6073841
  8
1_OBJEKTE
  6
CONTINUOUS
 10
5522.7421465085935779
 20
4103.5872874398919521
 30
0.0
  0
VERTEX
  5
6073842
  8
1_OBJEKTE
  6
CONTINUOUS
 10
5607.2421882381750038
 20
4103.5872874398919521
 30
0.0
 42
-0.414213420227835
  0
VERTEX
  5
6073843
  8
1_OBJEKTE
  6
CONTINUOUS
 10
5729.2421882381604519
 20
3981.5873466482448748
 30
0.0
  0
VERTEX
  5
6073844
  8
1_OBJEKTE
  6
CONTINUOUS
 10
5729.2426465086173266
 20
3037.3117526143178111
 30
0.0
 42
-1.0
  0
VERTEX
  5
6073845
  8
1_OBJEKTE
  6
CONTINUOUS
 10
5528.9926465086173266
 20
3037.3117740965758458
 30
0.0
  0
VERTEX
  5
6073846
  8
1_OBJEKTE
  6
CONTINUOUS
 10
5528.9931465085974196
 20
3875.2122874398919521
 30
0.0
 42
0.9999999999999996
  0
VERTEX
  5
6073847
  8
1_OBJEKTE
  6
CONTINUOUS
 10
5472.7431465085828677
 20
3875.2122659576270962
 30
0.0
  0
VERTEX
  5
6073848
  8
1_OBJEKTE
  6
CONTINUOUS
 10
5472.7426465085891323
 20
3037.3117874398890308
 30
0.0
 42
-1.0
  0
VERTEX
  5
6073849
  8
1_OBJEKTE
  6
CONTINUOUS
 10
5272.4916465086143944
 20
3037.3118089221538867
 30
0.0
  0
VERTEX
  5
607384A
  8
1_OBJEKTE
  6
CONTINUOUS
 10
5272.4921465086081298
 20
3875.2122874398919521
 30
0.0
 42
0.9999999999999996
  0
VERTEX
  5
607384B
  8
1_OBJEKTE
  6
CONTINUOUS
 10
5216.2421465085926684
 20
3875.2122659576270962
 30
0.0
  0
VERTEX
  5
607384C
  8
1_OBJEKTE
  6
CONTINUOUS
 10
5216.241646508598933
 20
3037.3117874398890308
 30
0.0
 42
-0.9999999999999996
  0
VERTEX
  5
607384D
  8
1_OBJEKTE
  6
CONTINUOUS
 10
5015.990646508638747
 20
3037.3118398527949466
 30
0.0
  0
VERTEX
  5
607384E
  8
1_OBJEKTE
  6
CONTINUOUS
 10
5015.992021292768186
 20
3981.5874650614068742
 30
0.0
 42
-0.414213135945817
  0
VERTEX
  5
607384F
  8
1_OBJEKTE
  6
CONTINUOUS
 10
5137.9920212926372187
 20
4103.5872874398919521
 30
0.0
  0
VERTEX
  5
6073850
  8
1_OBJEKTE
  6
CONTINUOUS
 10
5222.4921465085926684
 20
4103.5872874398919521
 30
0.0
 42
0.4142135623730951
  0
VERTEX
  5
6073851
  8
1_OBJEKTE
  6
CONTINUOUS
 10
5272.4921465085926684
 20
4153.5872874398919521
 30
0.0
  0
VERTEX
  5
6073852
  8
1_OBJEKTE
  6
CONTINUOUS
 10
5272.4921465085926684
 20
4173.9622874398910426
 30
0.0
 42
0.4142135623730951
  0
VERTEX
  5
6073853
  8
1_OBJEKTE
  6
CONTINUOUS
 10
5222.4921465085926684
 20
4223.9622874398910426
 30
0.0
  0
VERTEX
  5
6073854
  8
1_OBJEKTE
  6
CONTINUOUS
 10
5218.0291465016198345
 20
4223.9622874398910426
 30
0.0
 42
0.4142135623730951
  0
VERTEX
  5
6073855
  8
1_OBJEKTE
  6
CONTINUOUS
 10
5208.0291465016198345
 20
4213.9622874398910426
 30
0.0
  0
VERTEX
  5
6073856
  8
1_OBJEKTE
  6
CONTINUOUS
 10
5208.0291465016198345
 20
4200.1872874398977729
 30
0.0
 42
-0.4142135623730951
  0
VERTEX
  5
6073857
  8
1_OBJEKTE
  6
CONTINUOUS
 10
5178.0291465016198345
 20
4170.1872874398968634
 30
0.0
  0
VERTEX
  5
6073858
  8
1_OBJEKTE
  6
CONTINUOUS
 10
4799.8411465080571361
 20
4170.1872874398968634
 30
0.0
 42
-0.4142135623730951
  0
VERTEX
  5
6073859
  8
1_OBJEKTE
  6
CONTINUOUS
 10
4769.8411465080571361
 20
4200.1872874398977729
 30
0.0
  0
VERTEX
  5
607385A
  8
1_OBJEKTE
  6
CONTINUOUS
 10
4769.8411465080571361
 20
4213.9622874398910426
 30
0.0
 42
0.4142135623730951
  0
VERTEX
  5
607385B
  8
1_OBJEKTE
  6
CONTINUOUS
 10
4759.8411465080571361
 20
4223.9622874398910426
 30
0.0
  0
VERTEX
  5
607385C
  8
1_OBJEKTE
  6
CONTINUOUS
 10
4753.2416465075802989
 20
4223.9622874398910426
 30
0.0
 42
0.4142135623730925
  0
VERTEX
  5
607385D
  8
1_OBJEKTE
  6
CONTINUOUS
 10
4703.2416465075812084
 20
4173.9622874398910426
 30
0.0
  0
VERTEX
  5
607385E
  8
1_OBJEKTE
  6
CONTINUOUS
 10
4703.2416465075812084
 20
4153.5872874398919521
 30
0.0
 42
0.4142135623730951
  0
VERTEX
  5
607385F
  8
1_OBJEKTE
  6
CONTINUOUS
 10
4753.2416465075802989
 20
4103.5872874398919521
 30
0.0
  0
VERTEX
  5
6073860
  8
1_OBJEKTE
  6
CONTINUOUS
 10
4837.7416882371471729
 20
4103.5872874398919521
 30
0.0
 42
-0.414213420227835
  0
VERTEX
  5
6073861
  8
1_OBJEKTE
  6
CONTINUOUS
 10
4959.7416882371480824
 20
3981.5873466482371441
 30
0.0
  0
VERTEX
  5
6073862
  8
1_OBJEKTE
  6
CONTINUOUS
 10
4959.7421465076040477
 20
3037.3117526143178111
 30
0.0
 42
-1.0
  0
VERTEX
  5
6073863
  8
1_OBJEKTE
  6
CONTINUOUS
 10
4759.4921465076040477
 20
3037.3117740965758458
 30
0.0
  0
VERTEX
  5
6073864
  8
1_OBJEKTE
  6
CONTINUOUS
 10
4759.4926465075841406
 20
3875.2122874398919521
 30
0.0
 42
0.9999999999999996
  0
VERTEX
  5
6073865
  8
1_OBJEKTE
  6
CONTINUOUS
 10
4703.2426465075686792
 20
3875.2122659576270962
 30
0.0
  0
VERTEX
  5
6073866
  8
1_OBJEKTE
  6
CONTINUOUS
 10
4703.2421465075749438
 20
3037.3117874398890308
 30
0.0
 42
-1.0
  0
VERTEX
  5
6073867
  8
1_OBJEKTE
  6
CONTINUOUS
 10
4502.991146507600206
 20
3037.3118089221538867
 30
0.0
  0
VERTEX
  5
6073868
  8
1_OBJEKTE
  6
CONTINUOUS
 10
4502.9916465075802989
 20
3875.2122874398919521
 30
0.0
 42
0.9999999999999996
  0
VERTEX
  5
6073869
  8
1_OBJEKTE
  6
CONTINUOUS
 10
4446.7416465075812084
 20
3875.2122659576270962
 30
0.0
  0
VERTEX
  5
607386A
  8
1_OBJEKTE
  6
CONTINUOUS
 10
4446.7411465075847445
 20
3037.3117874398890308
 30
0.0
 42
-0.9999999999999996
  0
VERTEX
  5
607386B
  8
1_OBJEKTE
  6
CONTINUOUS
 10
4246.4901465076245586
 20
3037.3118398527949466
 30
0.0
  0
VERTEX
  5
607386C
  8
1_OBJEKTE
  6
CONTINUOUS
 10
4246.491521291754907
 20
3981.5874650614068742
 30
0.0
 42
-0.414213135945817
  0
VERTEX
  5
607386D
  8
1_OBJEKTE
  6
CONTINUOUS
 10
4368.4915212916230303
 20
4103.5872874398919521
 30
0.0
  0
VERTEX
  5
607386E
  8
1_OBJEKTE
  6
CONTINUOUS
 10
4452.9916465075802989
 20
4103.5872874398919521
 30
0.0
 42
0.4142135623730961
  0
VERTEX
  5
607386F
  8
1_OBJEKTE
  6
CONTINUOUS
 10
4502.9916465075802989
 20
4153.5872874398919521
 30
0.0
  0
VERTEX
  5
6073870
  8
1_OBJEKTE
  6
CONTINUOUS
 10
4502.9916465075802989
 20
4173.9622874398910426
 30
0.0
 42
0.3608361344670551
  0
VERTEX
  5
6073871
  8
1_OBJEKTE
  6
CONTINUOUS
 10
4462.2191464942652601
 20
4223.1034437550988514
 30
0.0
 42
0.4696846661727168
  0
VERTEX
  5
6073872
  8
1_OBJEKTE
  6
CONTINUOUS
 10
4438.5281464995932765
 20
4203.4469812290190021
 30
0.0
  0
VERTEX
  5
6073873
  8
1_OBJEKTE
  6
CONTINUOUS
 10
4438.5281464995932765
 20
4200.1872874398977729
 30
0.0
 42
-0.4142135623730951
  0
VERTEX
  5
6073874
  8
1_OBJEKTE
  6
CONTINUOUS
 10
4408.528146499594186
 20
4170.1872874398968634
 30
0.0
  0
VERTEX
  5
6073875
  8
1_OBJEKTE
  6
CONTINUOUS
 10
4286.8411465080571361
 20
4170.1872874398968634
 30
0.0
 42
-0.4142135623730951
  0
VERTEX
  5
6073876
  8
1_OBJEKTE
  6
CONTINUOUS
 10
4256.8411465080571361
 20
4200.1872874398977729
 30
0.0
  0
VERTEX
  5
6073877
  8
1_OBJEKTE
  6
CONTINUOUS
 10
4256.8411465080571361
 20
4203.9622954531232608
 30
0.0
 42
0.4142134450220228
  0
VERTEX
  5
6073878
  8
1_OBJEKTE
  6
CONTINUOUS
 10
4236.8411545212884448
 20
4223.9622954531223513
 30
0.0
  0
VERTEX
  5
6073879
  8
1_OBJEKTE
  6
CONTINUOUS
 10
4218.2416465065607554
 20
4223.9623029052299898
 30
0.0
 42
0.4142135623730951
  0
VERTEX
  5
607387A
  8
1_OBJEKTE
  6
CONTINUOUS
 10
4190.2416465065616649
 20
4195.9623029052308993
 30
0.0
  0
VERTEX
  5
607387B
  8
1_OBJEKTE
  6
CONTINUOUS
 10
4190.2416465065616649
 20
3037.3118304020317737
 30
0.0
 42
-0.9999999999999998
  0
VERTEX
  5
607387C
  8
1_OBJEKTE
  6
CONTINUOUS
 10
3989.9906465067178942
 20
3037.3119294817151967
 30
0.0
  0
VERTEX
  5
607387D
  8
1_OBJEKTE
  6
CONTINUOUS
 10
3989.991106334943197
 20
3260.9233066607630462
 30
0.0
 42
0.9999999999999915
  0
VERTEX
  5
607387E
  8
1_OBJEKTE
  6
CONTINUOUS
 10
3933.7411063347831259
 20
3260.9231723603152204
 30
0.0
  0
VERTEX
  5
607387F
  8
1_OBJEKTE
  6
CONTINUOUS
 10
3933.7406465065441807
 20
3037.3118699925548754
 30
0.0
 42
-0.9999999999999998
  0
VERTEX
  5
6073880
  8
1_OBJEKTE
  6
CONTINUOUS
 10
3733.4896465070778504
 20
3037.3120296302367933
 30
0.0
  0
VERTEX
  5
6073881
  8
1_OBJEKTE
  6
CONTINUOUS
 10
3733.490940376098024
 20
3366.0487292087641436
 30
0.0
 42
-0.4142126619553819
  0
VERTEX
  5
6073882
  8
1_OBJEKTE
  6
CONTINUOUS
 10
3855.4909403755300445
 20
3488.0483541540020269
 30
0.0
  0
VERTEX
  5
6073883
  8
1_OBJEKTE
  6
CONTINUOUS
 10
3961.99114650656702
 20
3488.0483541540020269
 30
0.0
 42
0.4142135623730951
  0
VERTEX
  5
6073884
  8
1_OBJEKTE
  6
CONTINUOUS
 10
3989.99114650656702
 20
3516.0483541540020269
 30
0.0
  0
VERTEX
  5
6073885
  8
1_OBJEKTE
  6
CONTINUOUS
 10
3989.99114650656702
 20
4195.9623029052308993
 30
0.0
 42
0.4142135623730951
  0
VERTEX
  5
6073886
  8
1_OBJEKTE
  6
CONTINUOUS
 10
3961.99114650656702
 20
4223.9623029052299898
 30
0.0
  0
VERTEX
  5
6073887
  8
1_OBJEKTE
  6
CONTINUOUS
 10
3943.3921384937639232
 20
4223.9622954532242147
 30
0.0
 42
0.4142134450205027
  0
VERTEX
  5
6073888
  8
1_OBJEKTE
  6
CONTINUOUS
 10
3923.392146507103007
 20
4203.9622954532242147
 30
0.0
  0
VERTEX
  5
6073889
  8
1_OBJEKTE
  6
CONTINUOUS
 10
3923.392146507103007
 20
4200.1872874398977729
 30
0.0
 42
-0.4142135623730951
  0
VERTEX
  5
607388A
  8
1_OBJEKTE
  6
CONTINUOUS
 10
3893.3921465071039165
 20
4170.1872874398968634
 30
0.0
  0
VERTEX
  5
607388B
  8
1_OBJEKTE
  6
CONTINUOUS
 10
3773.8421465100841488
 20
4170.1872874398968634
 30
0.0
 42
-0.4142135623730951
  0
VERTEX
  5
607388C
  8
1_OBJEKTE
  6
CONTINUOUS
 10
3743.8421465100841488
 20
4200.1872874398977729
 30
0.0
  0
VERTEX
  5
607388D
  8
1_OBJEKTE
  6
CONTINUOUS
 10
3743.8421465100841488
 20
4203.9622874398919521
 30
0.0
 42
0.4142135623730951
  0
VERTEX
  5
607388E
  8
1_OBJEKTE
  6
CONTINUOUS
 10
3723.8421465100827845
 20
4223.9622874398910426
 30
0.0
  0
VERTEX
  5
607388F
  8
1_OBJEKTE
  6
CONTINUOUS
 10
3705.2431465106201358
 20
4223.9622874398910426
 30
0.0
 42
0.4142135623730951
  0
VERTEX
  5
6073890
  8
1_OBJEKTE
  6
CONTINUOUS
 10
3677.2431465106201358
 20
4195.9622874398919521
 30
0.0
  0
VERTEX
  5
6073891
  8
1_OBJEKTE
  6
CONTINUOUS
 10
3677.3681435775938553
 20
3758.0536943655029063
 30
0.0
 42
0.9981433560982436
  0
VERTEX
  5
6073892
  8
1_OBJEKTE
  6
CONTINUOUS
 10
3733.6181465106201358
 20
3758.1581400793661487
 30
0.0
  0
VERTEX
  5
6073893
  8
1_OBJEKTE
  6
CONTINUOUS
 10
3733.4906174225029645
 20
4013.4410890038411708
 30
0.0
 42
-1.0000000000000011
  0
VERTEX
  5
6073894
  8
1_OBJEKTE
  6
CONTINUOUS
 10
3933.7416084396108999
 20
4013.4771742675220594
 30
0.0
  0
VERTEX
  5
6073895
  8
1_OBJEKTE
  6
CONTINUOUS
 10
3933.6183485682117862
 20
3647.0239150737111231
 30
0.0
 42
-0.4227856523405413
  0
VERTEX
  5
6073896
  8
1_OBJEKTE
  6
CONTINUOUS
 10
3811.6183526416721179
 20
3530.0482874398949207
 30
0.0
  0
VERTEX
  5
6073897
  8
1_OBJEKTE
  6
CONTINUOUS
 10
3705.2431465106201358
 20
3530.0482874398949207
 30
0.0
 42
0.3791390665335711
  0
VERTEX
  5
6073898
  8
1_OBJEKTE
  6
CONTINUOUS
 10
3677.1181465106210453
 20
3496.9232844227230999
 30
0.0
  0
VERTEX
  5
6073899
  8
1_OBJEKTE
  6
CONTINUOUS
 10
3677.2436438264558092
 20
3037.3314260389161063
 30
0.0
 42
-1.000000000000002
  0
VERTEX
  5
607389A
  8
1_OBJEKTE
  6
CONTINUOUS
 10
3476.9926465106259457
 20
3037.3118149367001024
 30
0.0
  0
VERTEX
  5
607389B
  8
1_OBJEKTE
  6
CONTINUOUS
 10
3476.9926465106259457
 20
4195.9622874398919521
 30
0.0
 42
0.4142135623730951
  0
VERTEX
  5
607389C
  8
1_OBJEKTE
  6
CONTINUOUS
 10
3448.9926465106259457
 20
4223.9622874398910426
 30
0.0
  0
VERTEX
  5
607389D
  8
1_OBJEKTE
  6
CONTINUOUS
 10
3440.0693509377010741
 20
4223.9622874398910426
 30
0.0
 42
0.384088565419011
  0
VERTEX
  5
607389E
  8
1_OBJEKTE
  6
CONTINUOUS
 10
3410.2312487234298715
 20
4197.0747874398948625
 30
0.0
 42
-0.3840885654190806
  0
VERTEX
  5
607389F
  8
1_OBJEKTE
  6
CONTINUOUS
 10
3380.3931465091300197
 20
4170.1872874398895874
 30
0.0
  0
VERTEX
  5
60738A0
  8
1_OBJEKTE
  6
CONTINUOUS
 10
3260.8431465121097972
 20
4170.1872874398895874
 30
0.0
 42
-0.4142135623730951
  0
VERTEX
  5
60738A1
  8
1_OBJEKTE
  6
CONTINUOUS
 10
3230.8431465121111614
 20
4200.1872874398914064
 30
0.0
  0
VERTEX
  5
60738A2
  8
1_OBJEKTE
  6
CONTINUOUS
 10
3230.8431465121111614
 20
4229.9622766987586147
 30
0.0
 42
0.4142135623730951
  0
VERTEX
  5
60738A3
  8
1_OBJEKTE
  6
CONTINUOUS
 10
3200.8431465121111614
 20
4259.9622766987586147
 30
0.0
  0
VERTEX
  5
60738A4
  8
1_OBJEKTE
  6
CONTINUOUS
 10
3192.2411357654500534
 20
4259.9622766987586147
 30
0.0
 42
0.4142135623730951
  0
VERTEX
  5
60738A5
  8
1_OBJEKTE
  6
CONTINUOUS
 10
3164.2411357654491439
 20
4231.9622766987604336
 30
0.0
  0
VERTEX
  5
60738A6
  8
1_OBJEKTE
  6
CONTINUOUS
 10
3164.2411357654491439
 20
3937.438792655360885
 30
0.0
 42
0.4142135623730959
  0
VERTEX
  5
60738A7
  8
1_OBJEKTE
  6
CONTINUOUS
 10
3192.2411357654500534
 20
3909.438792655360885
 30
0.0
  0
VERTEX
  5
60738A8
  8
1_OBJEKTE
  6
CONTINUOUS
 10
3320.7426357654039748
 20
3909.438792655360885
 30
0.0
 42
-0.4142135623730959
  0
VERTEX
  5
60738A9
  8
1_OBJEKTE
  6
CONTINUOUS
 10
3420.7426357654039748
 20
3809.438792655360885
 30
0.0
  0
VERTEX
  5
60738AA
  8
1_OBJEKTE
  6
CONTINUOUS
 10
3420.7426357654039748
 20
3073.3118291116629734
 30
0.0
 42
-1.0
  0
VERTEX
  5
60738AB
  8
1_OBJEKTE
  6
CONTINUOUS
 10
3220.4916357654437888
 20
3073.3117766987561481
 30
0.0
  0
VERTEX
  5
60738AC
  8
1_OBJEKTE
  6
CONTINUOUS
 10
3220.4911357654491439
 20
3302.9232766987561263
 30
0.0
 42
1.0
  0
VERTEX
  5
60738AD
  8
1_OBJEKTE
  6
CONTINUOUS
 10
3164.2411357654350468
 20
3302.9232981810209822
 30
0.0
  0
VERTEX
  5
60738AE
  8
1_OBJEKTE
  6
CONTINUOUS
 10
3164.2416357654437888
 20
3073.311798181021004
 30
0.0
 42
-1.0
  0
VERTEX
  5
60738AF
  8
1_OBJEKTE
  6
CONTINUOUS
 10
2963.9906357654549538
 20
3073.3117766987561481
 30
0.0
  0
VERTEX
  5
60738B0
  8
1_OBJEKTE
  6
CONTINUOUS
 10
2963.990635765469051
 20
4231.9622766987604336
 30
0.0
 42
0.4142135623730951
  0
VERTEX
  5
60738B1
  8
1_OBJEKTE
  6
CONTINUOUS
 10
2935.990635765469051
 20
4259.9622766987586147
 30
0.0
  0
VERTEX
  5
60738B2
  8
1_OBJEKTE
  6
CONTINUOUS
 10
2929.528146499594186
 20
4259.9622766987586147
 30
0.0
 42
0.4142135623730951
  0
VERTEX
  5
60738B3
  8
1_OBJEKTE
  6
CONTINUOUS
 10
2899.5281464995928218
 20
4229.9622766987586147
 30
0.0
  0
VERTEX
  5
60738B4
  8
1_OBJEKTE
  6
CONTINUOUS
 10
2899.5281464995928218
 20
4215.936787439888576
 30
0.0
 42
-0.4142135623730764
  0
VERTEX
  5
60738B5
  8
1_OBJEKTE
  6
CONTINUOUS
 10
2869.528146499594186
 20
4185.9367874398876666
 30
0.0
  0
VERTEX
  5
60738B6
  8
1_OBJEKTE
  6
CONTINUOUS
 10
2585.3901465105009265
 20
4185.9367874398740241
 30
0.0
 42
0.4142135623730782
  0
VERTEX
  5
60738B7
  8
1_OBJEKTE
  6
CONTINUOUS
 10
2555.3901465105009265
 20
4155.9367874398731146
 30
0.0
  0
VERTEX
  5
60738B8
  8
1_OBJEKTE
  6
CONTINUOUS
 10
2555.3901465105009265
 20
4145.9617986521261628
 30
0.0
 42
0.4142135623731076
  0
VERTEX
  5
60738B9
  8
1_OBJEKTE
  6
CONTINUOUS
 10
2585.3901465105009265
 20
4115.9617986521261628
 30
0.0
  0
VERTEX
  5
60738BA
  8
1_OBJEKTE
  6
CONTINUOUS
 10
2867.3901465105009265
 20
4115.9617986521407147
 30
0.0
 42
-0.4142135623731086
  0
VERTEX
  5
60738BB
  8
1_OBJEKTE
  6
CONTINUOUS
 10
2897.3901465105009265
 20
4085.9617986521411694
 30
0.0
  0
VERTEX
  5
60738BC
  8
1_OBJEKTE
  6
CONTINUOUS
 10
2897.3901465105009265
 20
3920.9617985694931122
 30
0.0
 42
-0.4142135615661701
  0
VERTEX
  5
60738BD
  8
1_OBJEKTE
  6
CONTINUOUS
 10
2867.390146593155805
 20
3890.9617985694931122
 30
0.0
  0
VERTEX
  5
60738BE
  8
1_OBJEKTE
  6
CONTINUOUS
 10
2585.390146427846048
 20
3890.96179779258091
 30
0.0
 42
0.414213561566171
  0
VERTEX
  5
60738BF
  8
1_OBJEKTE
  6
CONTINUOUS
 10
2555.3901465105009265
 20
3860.96179779258091
 30
0.0
  0
VERTEX
  5
60738C0
  8
1_OBJEKTE
  6
CONTINUOUS
 10
2555.3901465105009265
 20
3850.9868098644001293
 30
0.0
 42
0.4142135623730951
  0
VERTEX
  5
60738C1
  8
1_OBJEKTE
  6
CONTINUOUS
 10
2585.3901465105009265
 20
3820.9868098644001293
 30
0.0
  0
VERTEX
  5
60738C2
  8
1_OBJEKTE
  6
CONTINUOUS
 10
2867.3901465105009265
 20
3820.9868098644001293
 30
0.0
 42
-0.4142135623730951
  0
VERTEX
  5
60738C3
  8
1_OBJEKTE
  6
CONTINUOUS
 10
2897.3901465105009265
 20
3790.9868098644010388
 30
0.0
  0
VERTEX
  5
60738C4
  8
1_OBJEKTE
  6
CONTINUOUS
 10
2897.3901465105009265
 20
3702.9362874398939312
 30
0.0
 42
-0.4142135623730951
  0
VERTEX
  5
60738C5
  8
1_OBJEKTE
  6
CONTINUOUS
 10
2867.3901465105009265
 20
3672.9362874398939312
 30
0.0
  0
VERTEX
  5
60738C6
  8
1_OBJEKTE
  6
CONTINUOUS
 10
2585.3901465105009265
 20
3672.9362874398939312
 30
0.0
 42
0.4142135623730951
  0
VERTEX
  5
60738C7
  8
1_OBJEKTE
  6
CONTINUOUS
 10
2555.3901465105009265
 20
3642.9362874398939312
 30
0.0
  0
VERTEX
  5
60738C8
  8
1_OBJEKTE
  6
CONTINUOUS
 10
2555.3901465105009265
 20
3632.9612986521237872
 30
0.0
 42
0.4142135623730951
  0
VERTEX
  5
60738C9
  8
1_OBJEKTE
  6
CONTINUOUS
 10
2585.3901465105009265
 20
3602.9612986521237872
 30
0.0
  0
VERTEX
  5
60738CA
  8
1_OBJEKTE
  6
CONTINUOUS
 10
2867.3901465105009265
 20
3602.9612986521237872
 30
0.0
 42
-0.4142135623730951
  0
VERTEX
  5
60738CB
  8
1_OBJEKTE
  6
CONTINUOUS
 10
2897.3901465105009265
 20
3572.9612986521251514
 30
0.0
  0
VERTEX
  5
60738CC
  8
1_OBJEKTE
  6
CONTINUOUS
 10
2897.3901465105009265
 20
3407.9612986521387938
 30
0.0
 42
-0.4142135623730951
  0
VERTEX
  5
60738CD
  8
1_OBJEKTE
  6
CONTINUOUS
 10
2867.3901465105009265
 20
3377.9612986521387938
 30
0.0
  0
VERTEX
  5
60738CE
  8
1_OBJEKTE
  6
CONTINUOUS
 10
2585.3901465105009265
 20
3377.9612986521387938
 30
0.0
 42
0.4142135623730951
  0
VERTEX
  5
60738CF
  8
1_OBJEKTE
  6
CONTINUOUS
 10
2555.3901465105009265
 20
3347.9612986521387938
 30
0.0
  0
VERTEX
  5
60738D0
  8
1_OBJEKTE
  6
CONTINUOUS
 10
2555.3901465105009265
 20
3337.9863098643982084
 30
0.0
 42
0.4142135623730951
  0
VERTEX
  5
60738D1
  8
1_OBJEKTE
  6
CONTINUOUS
 10
2585.3901465105009265
 20
3307.9863098643991179
 30
0.0
  0
VERTEX
  5
60738D2
  8
1_OBJEKTE
  6
CONTINUOUS
 10
2867.3901465105009265
 20
3307.9863098643991179
 30
0.0
 42
-0.4142135623730951
  0
VERTEX
  5
60738D3
  8
1_OBJEKTE
  6
CONTINUOUS
 10
2897.3901465105009265
 20
3277.9863098643991179
 30
0.0
  0
VERTEX
  5
60738D4
  8
1_OBJEKTE
  6
CONTINUOUS
 10
2897.3901465105009265
 20
2953.1862874399021166
 30
0.0
 42
-0.4142135623730951
  0
VERTEX
  5
60738D5
  8
1_OBJEKTE
  6
CONTINUOUS
 10
2867.3901465105009265
 20
2923.1862874399021166
 30
0.0
  0
VERTEX
  5
60738D6
  8
1_OBJEKTE
  6
CONTINUOUS
 10
1229.8951465057330097
 20
2923.1862874399021166
 30
0.0
 42
-0.4142135623730951
  0
VERTEX
  5
60738D7
  8
1_OBJEKTE
  6
CONTINUOUS
 10
1194.8951465057321002
 20
2958.1862874399012071
 30
0.0
  0
VERTEX
  5
60738D8
  8
1_OBJEKTE
  6
CONTINUOUS
 10
1194.8951465057321002
 20
3057.886287439897842
 30
0.0
 42
-0.4142135623730951
  0
VERTEX
  5
60738D9
  8
1_OBJEKTE
  6
CONTINUOUS
 10
1229.8951465057330097
 20
3092.8862874398992062
 30
0.0
  0
VERTEX
  5
60738DA
  8
1_OBJEKTE
  6
CONTINUOUS
 10
1726.4071465076990535
 20
3092.8862874398992062
 30
0.0
 42
0.544149029615303
  0
VERTEX
  5
60738DB
  8
1_OBJEKTE
  6
CONTINUOUS
 10
1758.328566240408918
 20
3142.2397874398448039
 30
0.0
 42
0.2952117714300184
  0
VERTEX
  5
60738DC
  8
1_OBJEKTE
  6
CONTINUOUS
 10
1730.9673493266750484
 20
3159.936787439895852
 30
0.0
  0
VERTEX
  5
60738DD
  8
1_OBJEKTE
  6
CONTINUOUS
 10
1451.4066465066860019
 20
3159.936787439895852
 30
0.0
 42
-0.4142135623730951
  0
VERTEX
  5
60738DE
  8
1_OBJEKTE
  6
CONTINUOUS
 10
1421.4066465066860019
 20
3189.936787439895852
 30
0.0
  0
VERTEX
  5
60738DF
  8
1_OBJEKTE
  6
CONTINUOUS
 10
1421.4066465066860019
 20
3354.936787439895852
 30
0.0
 42
-0.4142135623730951
  0
VERTEX
  5
60738E0
  8
1_OBJEKTE
  6
CONTINUOUS
 10
1451.4066465066860019
 20
3384.936787439895852
 30
0.0
  0
VERTEX
  5
60738E1
  8
1_OBJEKTE
  6
CONTINUOUS
 10
1731.4071465076990535
 20
3384.936787439895852
 30
0.0
 42
0.4142135623730951
  0
VERTEX
  5
60738E2
  8
1_OBJEKTE
  6
CONTINUOUS
 10
1761.4071465076990535
 20
3414.936787439895852
 30
0.0
  0
VERTEX
  5
60738E3
  8
1_OBJEKTE
  6
CONTINUOUS
 10
1761.4071465076990535
 20
3429.9357874398988315
 30
0.0
 42
0.4142135623730951
  0
VERTEX
  5
60738E4
  8
1_OBJEKTE
  6
CONTINUOUS
 10
1731.4071465076990535
 20
3459.9357874399001957
 30
0.0
  0
VERTEX
  5
60738E5
  8
1_OBJEKTE
  6
CONTINUOUS
 10
1451.4066465066860019
 20
3459.9357874399001957
 30
0.0
 42
-0.4142135623730951
  0
VERTEX
  5
60738E6
  8
1_OBJEKTE
  6
CONTINUOUS
 10
1421.4066465066860019
 20
3489.9357874398988315
 30
0.0
  0
VERTEX
  5
60738E7
  8
1_OBJEKTE
  6
CONTINUOUS
 10
1421.4066465066860019
 20
3567.936787439895852
 30
0.0
 42
-0.4142135623730951
  0
VERTEX
  5
60738E8
  8
1_OBJEKTE
  6
CONTINUOUS
 10
1451.4066465066860019
 20
3597.936787439895852
 30
0.0
  0
VERTEX
  5
60738E9
  8
1_OBJEKTE
  6
CONTINUOUS
 10
1731.4071465076990535
 20
3597.936787439895852
 30
0.0
 42
0.4142135623730951
  0
VERTEX
  5
60738EA
  8
1_OBJEKTE
  6
CONTINUOUS
 10
1761.4071465076990535
 20
3627.936787439895852
 30
0.0
  0
VERTEX
  5
60738EB
  8
1_OBJEKTE
  6
CONTINUOUS
 10
1761.4071465076990535
 20
3642.936787439895852
 30
0.0
 42
0.4142135623730951
  0
VERTEX
  5
60738EC
  8
1_OBJEKTE
  6
CONTINUOUS
 10
1731.4071465076990535
 20
3672.936787439895852
 30
0.0
  0
VERTEX
  5
60738ED
  8
1_OBJEKTE
  6
CONTINUOUS
 10
1451.4066465066860019
 20
3672.936787439895852
 30
0.0
 42
-0.4142135623730951
  0
VERTEX
  5
60738EE
  8
1_OBJEKTE
  6
CONTINUOUS
 10
1421.4066465066860019
 20
3702.936787439895852
 30
0.0
  0
VERTEX
  5
60738EF
  8
1_OBJEKTE
  6
CONTINUOUS
 10
1421.4066465066860019
 20
3867.936787439895852
 30
0.0
 42
-0.4142135623730951
  0
VERTEX
  5
60738F0
  8
1_OBJEKTE
  6
CONTINUOUS
 10
1451.4066465066860019
 20
3897.936787439895852
 30
0.0
  0
VERTEX
  5
60738F1
  8
1_OBJEKTE
  6
CONTINUOUS
 10
1731.4071465076990535
 20
3897.936787439895852
 30
0.0
 42
0.4142135623730951
  0
VERTEX
  5
60738F2
  8
1_OBJEKTE
  6
CONTINUOUS
 10
1761.4071465076990535
 20
3927.936787439895852
 30
0.0
  0
VERTEX
  5
60738F3
  8
1_OBJEKTE
  6
CONTINUOUS
 10
1761.4071465076990535
 20
3942.9357874399001957
 30
0.0
 42
0.4142135623730951
  0
VERTEX
  5
60738F4
  8
1_OBJEKTE
  6
CONTINUOUS
 10
1731.4071465076990535
 20
3972.9357874398988315
 30
0.0
  0
VERTEX
  5
60738F5
  8
1_OBJEKTE
  6
CONTINUOUS
 10
1451.4066465066860019
 20
3972.9357874398988315
 30
0.0
 42
-0.4142135623730951
  0
VERTEX
  5
60738F6
  8
1_OBJEKTE
  6
CONTINUOUS
 10
1421.4066465066860019
 20
4002.9357874398988315
 30
0.0
  0
VERTEX
  5
60738F7
  8
1_OBJEKTE
  6
CONTINUOUS
 10
1421.4066465066860019
 20
4080.9367874398949425
 30
0.0
 42
-0.4142135623730951
  0
VERTEX
  5
60738F8
  8
1_OBJEKTE
  6
CONTINUOUS
 10
1451.4066465066860019
 20
4110.936787439895852
 30
0.0
  0
VERTEX
  5
60738F9
  8
1_OBJEKTE
  6
CONTINUOUS
 10
1731.4071465076990535
 20
4110.936787439895852
 30
0.0
 42
0.4142135623730951
  0
VERTEX
  5
60738FA
  8
1_OBJEKTE
  6
CONTINUOUS
 10
1761.4071465076990535
 20
4140.936787439895852
 30
0.0
  0
VERTEX
  5
60738FB
  8
1_OBJEKTE
  6
CONTINUOUS
 10
1761.4071465076990535
 20
4155.936787439895852
 30
0.0
 42
0.4142135623730951
  0
VERTEX
  5
60738FC
  8
1_OBJEKTE
  6
CONTINUOUS
 10
1731.4071465076990535
 20
4185.936787439895852
 30
0.0
  0
VERTEX
  5
60738FD
  8
1_OBJEKTE
  6
CONTINUOUS
 10
1451.4066465066860019
 20
4185.936787439895852
 30
0.0
 42
-0.4142135623730951
  0
VERTEX
  5
60738FE
  8
1_OBJEKTE
  6
CONTINUOUS
 10
1421.4066465066860019
 20
4215.936787439895852
 30
0.0
  0
VERTEX
  5
60738FF
  8
1_OBJEKTE
  6
CONTINUOUS
 10
1421.4066465066860019
 20
4380.9367874398949425
 30
0.0
 42
-0.4142135623730951
  0
VERTEX
  5
6073900
  8
1_OBJEKTE
  6
CONTINUOUS
 10
1451.4066465066860019
 20
4410.936787439895852
 30
0.0
  0
VERTEX
  5
6073901
  8
1_OBJEKTE
  6
CONTINUOUS
 10
1731.4071465076990535
 20
4410.936787439895852
 30
0.0
 42
0.4142135623730951
  0
VERTEX
  5
6073902
  8
1_OBJEKTE
  6
CONTINUOUS
 10
1761.4071465076990535
 20
4440.936787439895852
 30
0.0
  0
VERTEX
  5
6073903
  8
1_OBJEKTE
  6
CONTINUOUS
 10
1761.4071465076990535
 20
4447.9872874398997737
 30
0.0
 42
0.4142135623730951
  0
VERTEX
  5
6073904
  8
1_OBJEKTE
  6
CONTINUOUS
 10
1731.4071465076990535
 20
4477.9872874398997737
 30
0.0
  0
VERTEX
  5
6073905
  8
1_OBJEKTE
  6
CONTINUOUS
 10
1377.5311465056729503
 20
4477.9872874398997737
 30
0.0
 42
0.4142135623730951
  0
VERTEX
  5
6073906
  8
1_OBJEKTE
  6
CONTINUOUS
 10
1347.5311465056729503
 20
4447.9872874398997737
 30
0.0
  0
VERTEX
  5
6073907
  8
1_OBJEKTE
  6
CONTINUOUS
 10
1347.5311465056729503
 20
3243.3112874398939312
 30
0.0
 42
-0.4142135623730951
  0
VERTEX
  5
6073908
  8
1_OBJEKTE
  6
CONTINUOUS
 10
1312.5311465056729503
 20
3208.3112874398939312
 30
0.0
  0
VERTEX
  5
6073909
  8
1_OBJEKTE
  6
CONTINUOUS
 10
1229.8951465057330097
 20
3208.3112874398939312
 30
0.0
 42
-0.4142135623730951
  0
VERTEX
  5
607390A
  8
1_OBJEKTE
  6
CONTINUOUS
 10
1194.8951465057321002
 20
3243.3112874398939312
 30
0.0
  0
VERTEX
  5
607390B
  8
1_OBJEKTE
  6
CONTINUOUS
 10
1194.8951465057321002
 20
3442.636287439897842
 30
0.0
 42
0.4142135623730951
  0
VERTEX
  5
607390C
  8
1_OBJEKTE
  6
CONTINUOUS
 10
1159.8951465057321002
 20
3477.636287439897842
 30
0.0
  0
VERTEX
  5
607390D
  8
1_OBJEKTE
  6
CONTINUOUS
 10
1151.6453807378559304
 20
3477.636287439897842
 30
0.0
 42
0.4142155225099481
  0
VERTEX
  5
607390E
  8
1_OBJEKTE
  6
CONTINUOUS
 10
1116.6453807386419612
 20
3442.6360532086550847
 30
0.0
  0
VERTEX
  5
607390F
  8
1_OBJEKTE
  6
CONTINUOUS
 10
1116.6491464989369433
 20
2879.9373627397881137
 30
0.0
 42
0.4142135623730951
  0
VERTEX
  5
6073910
  8
1_OBJEKTE
  6
CONTINUOUS
 10
1151.6491464989380802
 20
2844.9373627397872042
 30
0.0
  0
VERTEX
  5
6073911
  8
1_OBJEKTE
  6
CONTINUOUS
 10
1213.7752660269029548
 20
2844.9373627397872042
 30
0.0
 42
-0.4142135623730951
  0
VERTEX
  5
6073912
  8
1_OBJEKTE
  6
CONTINUOUS
 10
1248.7752660269029548
 20
2809.9373627397881137
 30
0.0
  0
VERTEX
  5
6073913
  8
1_OBJEKTE
  6
CONTINUOUS
 10
1248.7752660269029548
 20
2381.9383565830289626
 30
0.0
 42
0.4142135623730847
  0
VERTEX
  5
6073914
  8
1_OBJEKTE
  6
CONTINUOUS
 10
1283.7752660269029548
 20
2346.9383565830289626
 30
0.0
  0
VERTEX
  5
6073915
  8
1_OBJEKTE
  6
CONTINUOUS
 10
1288.7754048100030104
 20
2346.9383565830289626
 30
0.0
 42
0.4142124009817734
  0
VERTEX
  5
6073916
  8
1_OBJEKTE
  6
CONTINUOUS
 10
1323.775404809741076
 20
2381.9382177996449172
 30
0.0
  0
VERTEX
  5
6073917
  8
1_OBJEKTE
  6
CONTINUOUS
 10
1324.2741464987338986
 20
2571.688540394337906
 30
0.0
 42
-0.4142135623716989
  0
VERTEX
  5
6073918
  8
1_OBJEKTE
  6
CONTINUOUS
 10
1436.2743303092129281
 20
2683.6883565830280531
 30
0.0
  0
VERTEX
  5
6073919
  8
1_OBJEKTE
  6
CONTINUOUS
 10
1437.2743303095630836
 20
2683.6883549418639632
 30
0.0
 42
-0.4142135623730943
  0
VERTEX
  5
607391A
  8
1_OBJEKTE
  6
CONTINUOUS
 10
1549.2741464987921063
 20
2571.6881711313981214
 30
0.0
  0
VERTEX
  5
607391B
  8
1_OBJEKTE
  6
CONTINUOUS
 10
1548.7754048108179177
 20
2381.9384953664189197
 30
0.0
 42
0.414214723765383
  0
VERTEX
  5
607391C
  8
1_OBJEKTE
  6
CONTINUOUS
 10
1583.7754048105559832
 20
2346.9383565830289626
 30
0.0
  0
VERTEX
  5
607391D
  8
1_OBJEKTE
  6
CONTINUOUS
 10
1586.6996847548869027
 20
2346.9383565830289626
 30
0.0
 42
0.4021496214904541
  0
VERTEX
  5
607391E
  8
1_OBJEKTE
  6
CONTINUOUS
 10
1623.7752660269029548
 20
2381.9326332422638188
 30
0.0
  0
VERTEX
  5
607391F
  8
1_OBJEKTE
  6
CONTINUOUS
 10
1623.7752660269029548
 20
2809.9359257478358813
 30
0.0
 42
-0.4142135623730951
  0
VERTEX
  5
6073920
  8
1_OBJEKTE
  6
CONTINUOUS
 10
1658.7752660269029548
 20
2844.9359257478358813
 30
0.0
  0
VERTEX
  5
6073921
  8
1_OBJEKTE
  6
CONTINUOUS
 10
1960.9593594986649805
 20
2844.9372874399050488
 30
0.0
  0
VERTEX
  5
6073922
  8
1_OBJEKTE
  6
CONTINUOUS
 10
2060.7595261441019829
 20
2844.9372874399050488
 30
0.0
 42
-0.5112505068851549
  0
VERTEX
  5
6073923
  8
1_OBJEKTE
  6
CONTINUOUS
 10
2107.8212076523341238
 20
2794.8170133590401747
 30
0.0
  0
VERTEX
  5
6073924
  8
1_OBJEKTE
  6
CONTINUOUS
 10
2070.2527158173320458
 20
2480.4866270417192027
 30
0.0
 42
0.4546184917577993
  0
VERTEX
  5
6073925
  8
1_OBJEKTE
  6
CONTINUOUS
 10
2092.5450912685769254
 20
2454.9370374398931745
 30
0.0
  0
VERTEX
  5
6073926
  8
1_OBJEKTE
  6
CONTINUOUS
 10
2127.5929114648029099
 20
2454.9370374398931745
 30
0.0
 42
0.3220959511643828
  0
VERTEX
  5
6073927
  8
1_OBJEKTE
  6
CONTINUOUS
 10
2148.9194734213238007
 20
2470.265722698852187
 30
0.0
 42
-0.7187602619785506
  0
VERTEX
  5
6073928
  8
1_OBJEKTE
  6
CONTINUOUS
 10
2463.1308195806341246
 20
2470.265722698852187
 30
0.0
 42
0.3220959511644834
  0
VERTEX
  5
6073929
  8
1_OBJEKTE
  6
CONTINUOUS
 10
2484.4573815371259116
 20
2454.9370374398858985
 30
0.0
  0
VERTEX
  5
607392A
  8
1_OBJEKTE
  6
CONTINUOUS
 10
2519.5032017292978708
 20
2454.9370374398858985
 30
0.0
 42
0.4546184917577145
  0
VERTEX
  5
607392B
  8
1_OBJEKTE
  6
CONTINUOUS
 10
2541.7955771805718541
 20
2480.4866270417119267
 30
0.0
  0
VERTEX
  5
607392C
  8
1_OBJEKTE
  6
CONTINUOUS
 10
2511.5084170289192116
 20
2790.9992649471600998
 30
0.0
 42
-0.454618491757757
  0
VERTEX
  5
607392D
  8
1_OBJEKTE
  6
CONTINUOUS
 10
2558.5700985371659044
 20
2844.9372874399050488
 30
0.0
  0
VERTEX
  5
607392E
  8
1_OBJEKTE
  6
CONTINUOUS
 10
2876.0821305137219497
 20
2844.937603228718217
 30
0.0
  0
VERTEX
  5
607392F
  8
1_OBJEKTE
  6
CONTINUOUS
 10
2940.5920200058899354
 20
2844.9372874398977729
 30
0.0
 42
-0.4670021458424329
  0
VERTEX
  5
6073930
  8
1_OBJEKTE
  6
CONTINUOUS
 10
2987.3514507100630908
 20
2789.0823104666201289
 30
0.0
  0
VERTEX
  5
6073931
  8
1_OBJEKTE
  6
CONTINUOUS
 10
2943.1055551014442244
 20
2598.9607193016859128
 30
0.0
 42
0.4670021458423637
  0
VERTEX
  5
6073932
  8
1_OBJEKTE
  6
CONTINUOUS
 10
2965.2547591192128493
 20
2572.5030986301358098
 30
0.0
  0
VERTEX
  5
6073933
  8
1_OBJEKTE
  6
CONTINUOUS
 10
2996.3419114776770584
 20
2572.5030986301358098
 30
0.0
 42
0.3220959511643606
  0
VERTEX
  5
6073934
  8
1_OBJEKTE
  6
CONTINUOUS
 10
3017.6684734341979492
 20
2587.8317838890939129
 30
0.0
 42
-0.7187602619785549
  0
VERTEX
  5
6073935
  8
1_OBJEKTE
  6
CONTINUOUS
 10
3331.8798195935091826
 20
2587.8317838890939129
 30
0.0
 42
0.322095951164476
  0
VERTEX
  5
6073936
  8
1_OBJEKTE
  6
CONTINUOUS
 10
3353.2063815500009696
 20
2572.5030986301358098
 30
0.0
  0
VERTEX
  5
6073937
  8
1_OBJEKTE
  6
CONTINUOUS
 10
3384.2937292326528222
 20
2572.5030986301358098
 30
0.0
 42
0.4670013235736276
  0
VERTEX
  5
6073938
  8
1_OBJEKTE
  6
CONTINUOUS
 10
3406.4429439366208499
 20
2598.9606594946308178
 30
0.0
  0
VERTEX
  5
6073939
  8
1_OBJEKTE
  6
CONTINUOUS
 10
3362.1977050673158374
 20
2789.0824367259629071
 30
0.0
 42
-0.4670013235736607
  0
VERTEX
  5
607393A
  8
1_OBJEKTE
  6
CONTINUOUS
 10
3408.9571583313231713
 20
2844.9372874398977729
 30
0.0
  0
VERTEX
  5
607393B
  8
1_OBJEKTE
  6
CONTINUOUS
 10
3652.3971329115161097
 20
2844.9372874398977729
 30
0.0
  0
VERTEX
  5
607393C
  8
1_OBJEKTE
  6
CONTINUOUS
 10
3779.8980564943481113
 20
2844.9372874399050488
 30
0.0
 42
-0.4142135623730951
  0
VERTEX
  5
607393D
  8
1_OBJEKTE
  6
CONTINUOUS
 10
3814.8980564943490208
 20
2809.9372874399050488
 30
0.0
  0
VERTEX
  5
607393E
  8
1_OBJEKTE
  6
CONTINUOUS
 10
3814.8966464975960662
 20
2584.5621052259161843
 30
0.0
 42
0.4142135623730951
  0
VERTEX
  5
607393F
  8
1_OBJEKTE
  6
CONTINUOUS
 10
3849.8966464975960662
 20
2549.5621052259161843
 30
0.0
  0
VERTEX
  5
6073940
  8
1_OBJEKTE
  6
CONTINUOUS
 10
4154.8966464975956114
 20
2549.5621052259161843
 30
0.0
 42
0.4142135623730888
  0
VERTEX
  5
6073941
  8
1_OBJEKTE
  6
CONTINUOUS
 10
4189.8966464975956114
 20
2584.5621052259161843
 30
0.0
  0
VERTEX
  5
6073942
  8
1_OBJEKTE
  6
CONTINUOUS
 10
4189.898056494363118
 20
2809.9372874399050488
 30
0.0
 42
-0.4142135623730951
  0
VERTEX
  5
6073943
  8
1_OBJEKTE
  6
CONTINUOUS
 10
4224.898056494363118
 20
2844.9372874399050488
 30
0.0
  0
VERTEX
  5
6073944
  8
1_OBJEKTE
  6
CONTINUOUS
 10
4352.3971329115011031
 20
2844.9372874398977729
 30
0.0
  0
VERTEX
  5
6073945
  8
1_OBJEKTE
  6
CONTINUOUS
 10
4743.5715552408219082
 20
2844.9372874399050488
 30
0.0
 42
-0.415888376961255
  0
VERTEX
  5
6073946
  8
1_OBJEKTE
  6
CONTINUOUS
 10
4778.5709837135809721
 20
2809.7372709886039956
 30
0.0
  0
VERTEX
  5
6073947
  8
1_OBJEKTE
  6
CONTINUOUS
 10
4778.0946512315422297
 20
2726.387303891198826
 30
0.0
 42
0.4158883769612526
  0
VERTEX
  5
6073948
  8
1_OBJEKTE
  6
CONTINUOUS
 10
4813.0940797042858321
 20
2691.1872874399050488
 30
0.0
  0
VERTEX
  5
6073949
  8
1_OBJEKTE
  6
CONTINUOUS
 10
5143.0929366385680623
 20
2691.1872874399050488
 30
0.0
 42
0.4125407288760651
  0
VERTEX
  5
607394A
  8
1_OBJEKTE
  6
CONTINUOUS
 10
5178.0923651113262167
 20
2725.9872709886039956
 30
0.0
  0
VERTEX
  5
607394B
  8
1_OBJEKTE
  6
CONTINUOUS
 10
5178.5732698486826848
 20
2810.137303891198826
 30
0.0
 42
-0.4125407288760646
  0
VERTEX
  5
607394C
  8
1_OBJEKTE
  6
CONTINUOUS
 10
5213.5726983214408392
 20
2844.9372874399050488
 30
0.0
  0
VERTEX
  5
607394D
  8
1_OBJEKTE
  6
CONTINUOUS
 10
5593.7721465023350902
 20
2844.9372874399050488
 30
0.0
 42
-0.4142135623730951
  0
VERTEX
  5
607394E
  8
1_OBJEKTE
  6
CONTINUOUS
 10
5628.7721465023350902
 20
2809.9372874399050488
 30
0.0
  0
VERTEX
  5
607394F
  8
1_OBJEKTE
  6
CONTINUOUS
 10
5628.7721465023350902
 20
2706.1872874399050488
 30
0.0
 42
0.4142135623730951
  0
VERTEX
  5
6073950
  8
1_OBJEKTE
  6
CONTINUOUS
 10
5663.7721465023350902
 20
2671.1872874399050488
 30
0.0
  0
VERTEX
  5
6073951
  8
1_OBJEKTE
  6
CONTINUOUS
 10
5993.7721465023350902
 20
2671.1872874399050488
 30
0.0
 42
0.4142135623730951
  0
VERTEX
  5
6073952
  8
1_OBJEKTE
  6
CONTINUOUS
 10
6028.7721465023350902
 20
2706.1872874399050488
 30
0.0
  0
VERTEX
  5
6073953
  8
1_OBJEKTE
  6
CONTINUOUS
 10
6028.7721465023350902
 20
2809.9372874399050488
 30
0.0
 42
-0.4142135623730951
  0
VERTEX
  5
6073954
  8
1_OBJEKTE
  6
CONTINUOUS
 10
6063.7721465023350902
 20
2844.9372874399050488
 30
0.0
  0
VERTEX
  5
6073955
  8
1_OBJEKTE
  6
CONTINUOUS
 10
6443.7721465023359997
 20
2844.9372874399050488
 30
0.0
 42
-0.4142135623730951
  0
VERTEX
  5
6073956
  8
1_OBJEKTE
  6
CONTINUOUS
 10
6478.7721465023350902
 20
2809.9372874399050488
 30
0.0
  0
VERTEX
  5
6073957
  8
1_OBJEKTE
  6
CONTINUOUS
 10
6478.7721465023350902
 20
2706.1872874399050488
 30
0.0
 42
0.4142135623730951
  0
VERTEX
  5
6073958
  8
1_OBJEKTE
  6
CONTINUOUS
 10
6513.7721465023350902
 20
2671.1872874399050488
 30
0.0
  0
VERTEX
  5
6073959
  8
1_OBJEKTE
  6
CONTINUOUS
 10
6843.7721465023359997
 20
2671.1872874399050488
 30
0.0
 42
0.4142135623730951
  0
VERTEX
  5
607395A
  8
1_OBJEKTE
  6
CONTINUOUS
 10
6878.7721465023350902
 20
2706.1872874399050488
 30
0.0
  0
VERTEX
  5
607395B
  8
1_OBJEKTE
  6
CONTINUOUS
 10
6878.7721465023350902
 20
2809.9372874399050488
 30
0.0
 42
-0.4142135623730951
  0
VERTEX
  5
607395C
  8
1_OBJEKTE
  6
CONTINUOUS
 10
6913.7721465023350902
 20
2844.9372874399050488
 30
0.0
  0
VERTEX
  5
607395D
  8
1_OBJEKTE
  6
CONTINUOUS
 10
7291.2721464927153647
 20
2844.9372874399050488
 30
0.0
 42
-0.4142135623730951
  0
VERTEX
  5
607395E
  8
1_OBJEKTE
  6
CONTINUOUS
 10
7326.2721464927162742
 20
2809.9372874399050488
 30
0.0
  0
VERTEX
  5
607395F
  8
1_OBJEKTE
  6
CONTINUOUS
 10
7326.2721464927162742
 20
2706.1872874399050488
 30
0.0
 42
0.4142135623730951
  0
VERTEX
  5
6073960
  8
1_OBJEKTE
  6
CONTINUOUS
 10
7361.2721464927162742
 20
2671.1872874399050488
 30
0.0
  0
VERTEX
  5
6073961
  8
1_OBJEKTE
  6
CONTINUOUS
 10
7691.2721464927162742
 20
2671.1872874399050488
 30
0.0
 42
0.4142135623730951
  0
VERTEX
  5
6073962
  8
1_OBJEKTE
  6
CONTINUOUS
 10
7726.2721464927171837
 20
2706.1872874399050488
 30
0.0
  0
VERTEX
  5
6073963
  8
1_OBJEKTE
  6
CONTINUOUS
 10
7726.2721464927171837
 20
2809.9372874399050488
 30
0.0
 42
-0.4142135623730951
  0
VERTEX
  5
6073964
  8
1_OBJEKTE
  6
CONTINUOUS
 10
7761.2721464927162742
 20
2844.9372874399050488
 30
0.0
  0
VERTEX
  5
6073965
  8
1_OBJEKTE
  6
CONTINUOUS
 10
7835.6270767454261659
 20
2844.9372876538332093
 30
0.0
  0
VERTEX
  5
6073966
  8
1_OBJEKTE
  6
CONTINUOUS
 10
7835.6270767453816006
 20
2844.9372874399050488
 30
0.0
  0
VERTEX
  5
6073967
  8
1_OBJEKTE
  6
CONTINUOUS
 10
9620.2461464943480678
 20
2844.9372874399050488
 30
0.0
 42
-0.4142135623730951
  0
VERTEX
  5
6073968
  8
1_OBJEKTE
  6
CONTINUOUS
 10
9655.2461464943498868
 20
2809.9372874399050488
 30
0.0
  0
VERTEX
  5
6073969
  8
1_OBJEKTE
  6
CONTINUOUS
 10
9655.2461592910403851
 20
2773.0624555613981101
 30
0.0
 42
-0.4142135623730951
  0
VERTEX
  5
607396A
  8
1_OBJEKTE
  6
CONTINUOUS
 10
9620.2461592910422041
 20
2738.0624555613981101
 30
0.0
  0
VERTEX
  5
607396B
  8
1_OBJEKTE
  6
CONTINUOUS
 10
8028.7731598545497036
 20
2738.0624555613981101
 30
0.0
 42
1.000008963583396
  0
VERTEX
  5
607396C
  8
1_OBJEKTE
  6
CONTINUOUS
 10
8028.7721592990292265
 20
2626.4374555613981101
 30
0.0
  0
VERTEX
  5
607396D
  8
1_OBJEKTE
  6
CONTINUOUS
 10
9617.2461353172548115
 20
2626.4374794841060066
 30
0.0
 42
-0.9999997008726941
  0
VERTEX
  5
607396E
  8
1_OBJEKTE
  6
CONTINUOUS
 10
9617.2462093040248874
 20
2379.4374316386888495
 30
0.0
  0
VERTEX
  5
607396F
  8
1_OBJEKTE
  6
CONTINUOUS
 10
8589.2721723442064103
 20
2379.4374555613981101
 30
0.0
 42
0.9999999999999998
  0
VERTEX
  5
6073970
  8
1_OBJEKTE
  6
CONTINUOUS
 10
8589.2721723442373332
 20
2284.437429471006908
 30
0.0
  0
VERTEX
  5
6073971
  8
1_OBJEKTE
  6
CONTINUOUS
 10
9741.7470546232070774
 20
2284.4365807545041207
 30
0.0
 42
0.4142137876727448
  0
VERTEX
  5
6073972
  8
1_OBJEKTE
  6
CONTINUOUS
 10
9911.7471798162168852
 20
2454.4365863291391179
 30
0.0
  0
VERTEX
  5
6073973
  8
1_OBJEKTE
  6
CONTINUOUS
 10
9911.7471476515656832
 20
2842.4612862921708256
 30
0.0
 42
-0.4142135719777311
  0
VERTEX
  5
6073974
  8
1_OBJEKTE
  6
CONTINUOUS
 10
9946.7471476515638642
 20
2877.4612874398958411
 30
0.0
  0
VERTEX
  5
6073975
  8
1_OBJEKTE
  6
CONTINUOUS
 10
10189.7463102433393942
 20
2877.4612874398958411
 30
0.0
 42
-0.4142121921195587
  0
VERTEX
  5
6073976
  8
1_OBJEKTE
  6
CONTINUOUS
 10
10224.7463102429592254
 20
2842.4614511818149367
 30
0.0
  0
VERTEX
  5
6073977
  8
1_OBJEKTE
  6
CONTINUOUS
 10
10224.7471464964291954
 20
2844.9374247275768539
 30
0.0
 42
0.9999953216704858
  0
VERTEX
  5
6073978
  8
1_OBJEKTE
  6
CONTINUOUS
 10
10566.7461465018004674
 20
2844.9374247275768539
 30
0.0
  0
VERTEX
  5
6073979
  8
1_OBJEKTE
  6
CONTINUOUS
 10
10566.7441465051906562
 20
3049.3372874398919521
 30
0.0
 42
-0.4142135623730951
  0
VERTEX
  5
607397A
  8
1_OBJEKTE
  6
CONTINUOUS
 10
10601.7441465051906562
 20
3084.3372874398919521
 30
0.0
  0
VERTEX
  5
607397B
  8
1_OBJEKTE
  6
CONTINUOUS
 10
12276.7441465051906562
 20
3084.3372874398919521
 30
0.0
  0
VERTEX
  5
607397C
  8
1_OBJEKTE
  6
CONTINUOUS
 10
12276.7461465018004674
 20
1989.9372874399050488
 30
0.0
  0
VERTEX
  5
607397D
  8
1_OBJEKTE
  6
CONTINUOUS
 10
10601.7463511807000032
 20
1989.9372874399050488
 30
0.0
 42
-0.4142152751994289
  0
VERTEX
  5
607397E
  8
1_OBJEKTE
  6
CONTINUOUS
 10
10566.7463511812893557
 20
2024.9374921181949958
 30
0.0
  0
VERTEX
  5
607397F
  8
1_OBJEKTE
  6
CONTINUOUS
 10
10566.7471464963400649
 20
2160.936406820438151
 30
0.0
 42
0.9992433098846989
  0
VERTEX
  5
6073980
  8
1_OBJEKTE
  6
CONTINUOUS
 10
10224.747146496489222
 20
2160.9362874402499983
 30
0.0
  0
VERTEX
  5
6073981
  8
1_OBJEKTE
  6
CONTINUOUS
 10
10224.7463511790792836
 20
2024.9370827614259269
 30
0.0
 42
-0.4142118495473906
  0
VERTEX
  5
6073982
  8
1_OBJEKTE
  6
CONTINUOUS
 10
10189.7463511796795501
 20
1989.9372874399050488
 30
0.0
  0
VERTEX
  5
6073983
  8
1_OBJEKTE
  6
CONTINUOUS
 10
9911.7471465038252063
 20
1989.9372874399050488
 30
0.0
  0
VERTEX
  5
6073984
  8
1_OBJEKTE
  6
CONTINUOUS
 10
9911.7471429138095118
 20
2017.0614117142611121
 30
0.0
 42
0.3890328722991239
  0
VERTEX
  5
6073985
  8
1_OBJEKTE
  6
CONTINUOUS
 10
9741.7472574842977338
 20
2208.4365573353497894
 30
0.0
  0
VERTEX
  5
6073986
  8
1_OBJEKTE
  6
CONTINUOUS
 10
8321.2991147866414394
 20
2208.4374077159809531
 30
0.0
 42
-0.9999997008726941
  0
VERTEX
  5
6073987
  8
1_OBJEKTE
  6
CONTINUOUS
 10
8321.2991887737007346
 20
2455.4374555613981101
 30
0.0
  0
VERTEX
  5
6073988
  8
1_OBJEKTE
  6
CONTINUOUS
 10
9349.2731593010539655
 20
2455.4374555613981101
 30
0.0
 42
0.9999999999999998
  0
VERTEX
  5
6073989
  8
1_OBJEKTE
  6
CONTINUOUS
 10
9349.2731593010539655
 20
2550.4374555613981101
 30
0.0
  0
VERTEX
  5
607398A
  8
1_OBJEKTE
  6
CONTINUOUS
 10
8198.7721592990274075
 20
2550.4374555613981101
 30
0.0
 42
0.4142135623730951
  0
VERTEX
  5
607398B
  8
1_OBJEKTE
  6
CONTINUOUS
 10
8028.7721592990292265
 20
2380.4374555613981101
 30
0.0
  0
VERTEX
  5
607398C
  8
1_OBJEKTE
  6
CONTINUOUS
 10
8028.7721592990292265
 20
2267.8124555613981101
 30
0.0
 42
0.4142135623730951
  0
VERTEX
  5
607398D
  8
1_OBJEKTE
  6
CONTINUOUS
 10
8199.7721592990274075
 20
2096.8124555613981101
 30
0.0
  0
VERTEX
  5
607398E
  8
1_OBJEKTE
  6
CONTINUOUS
 10
9620.2461592910422041
 20
2096.8124555613981101
 30
0.0
 42
-0.4142135623730951
  0
VERTEX
  5
607398F
  8
1_OBJEKTE
  6
CONTINUOUS
 10
9655.2461592910403851
 20
2061.8124555613981101
 30
0.0
  0
VERTEX
  5
6073990
  8
1_OBJEKTE
  6
CONTINUOUS
 10
9655.2461592910403851
 20
2024.9372874399050488
 30
0.0
 42
-0.4142135623730951
  0
VERTEX
  5
6073991
  8
1_OBJEKTE
  6
CONTINUOUS
 10
9620.2461592910422041
 20
1989.9372874399050488
 30
0.0
  0
VERTEX
  5
6073992
  8
1_OBJEKTE
  6
CONTINUOUS
 10
7835.6270767453534063
 20
1989.93728761901707
 30
0.0
  0
VERTEX
  5
6073993
  8
1_OBJEKTE
  6
CONTINUOUS
 10
7773.7721464927162742
 20
1989.9372874399050488
 30
0.0
 42
-0.4142135623668672
  0
VERTEX
  5
6073994
  8
1_OBJEKTE
  6
CONTINUOUS
 10
7726.2721464927171837
 20
2037.4372874388870969
 30
0.0
  0
VERTEX
  5
6073995
  8
1_OBJEKTE
  6
CONTINUOUS
 10
7726.2721464927171837
 20
2317.6582618601028116
 30
0.0
 42
0.4142135623668487
  0
VERTEX
  5
6073996
  8
1_OBJEKTE
  6
CONTINUOUS
 10
7703.7721464927162742
 20
2340.1582618596221437
 30
0.0
  0
VERTEX
  5
6073997
  8
1_OBJEKTE
  6
CONTINUOUS
 10
7662.8971465008498853
 20
2340.1582871969371809
 30
0.0
 42
0.4142130153945678
  0
VERTEX
  5
6073998
  8
1_OBJEKTE
  6
CONTINUOUS
 10
7641.2721465009090025
 20
2318.5333509248739574
 30
0.0
  0
VERTEX
  5
6073999
  8
1_OBJEKTE
  6
CONTINUOUS
 10
7641.2721464921050938
 20
2120.9073981654150884
 30
0.0
 42
-0.4142135623729166
  0
VERTEX
  5
607399A
  8
1_OBJEKTE
  6
CONTINUOUS
 10
7526.2721464955111514
 20
2005.9073981688779895
 30
0.0
 42
-0.4142135623729166
  0
VERTEX
  5
607399B
  8
1_OBJEKTE
  6
CONTINUOUS
 10
7411.2721464919159189
 20
2120.9073981654150884
 30
0.0
  0
VERTEX
  5
607399C
  8
1_OBJEKTE
  6
CONTINUOUS
 10
7411.2721464830983678
 20
2318.5333509248739574
 30
0.0
 42
0.4142130153945678
  0
VERTEX
  5
607399D
  8
1_OBJEKTE
  6
CONTINUOUS
 10
7389.6471464831556659
 20
2340.1582871969371809
 30
0.0
  0
VERTEX
  5
607399E
  8
1_OBJEKTE
  6
CONTINUOUS
 10
7348.7721464913047384
 20
2340.1582618596221437
 30
0.0
 42
0.4142135623668487
  0
VERTEX
  5
607399F
  8
1_OBJEKTE
  6
CONTINUOUS
 10
7326.272146491303829
 20
2317.6582618601028116
 30
0.0
  0
VERTEX
  5
60739A0
  8
1_OBJEKTE
  6
CONTINUOUS
 10
7326.272146491303829
 20
2037.4372874388870969
 30
0.0
 42
-0.4142135623668672
  0
VERTEX
  5
60739A1
  8
1_OBJEKTE
  6
CONTINUOUS
 10
7278.7721464913047384
 20
1989.9372874399050488
 30
0.0
  0
VERTEX
  5
60739A2
  8
1_OBJEKTE
  6
CONTINUOUS
 10
6926.2721465023341807
 20
1989.9372874399050488
 30
0.0
 42
-0.4142135623668672
  0
VERTEX
  5
60739A3
  8
1_OBJEKTE
  6
CONTINUOUS
 10
6878.7721465023350902
 20
2037.4372874388870969
 30
0.0
  0
VERTEX
  5
60739A4
  8
1_OBJEKTE
  6
CONTINUOUS
 10
6878.7721465023350902
 20
2317.6582618601028116
 30
0.0
 42
0.4142135623668487
  0
VERTEX
  5
60739A5
  8
1_OBJEKTE
  6
CONTINUOUS
 10
6856.2721465023359997
 20
2340.1582618596221437
 30
0.0
  0
VERTEX
  5
60739A6
  8
1_OBJEKTE
  6
CONTINUOUS
 10
6815.3971465104841627
 20
2340.1582871969371809
 30
0.0
 42
0.4142130153945678
  0
VERTEX
  5
60739A7
  8
1_OBJEKTE
  6
CONTINUOUS
 10
6793.7721465105423704
 20
2318.5333509248739574
 30
0.0
  0
VERTEX
  5
60739A8
  8
1_OBJEKTE
  6
CONTINUOUS
 10
6793.7721465017230003
 20
2120.9073981654150884
 30
0.0
 42
-0.4142135623729166
  0
VERTEX
  5
60739A9
  8
1_OBJEKTE
  6
CONTINUOUS
 10
6678.7721465051290579
 20
2005.9073981688779895
 30
0.0
 42
-0.4142135623729166
  0
VERTEX
  5
60739AA
  8
1_OBJEKTE
  6
CONTINUOUS
 10
6563.7721465015338254
 20
2120.9073981654150884
 30
0.0
  0
VERTEX
  5
60739AB
  8
1_OBJEKTE
  6
CONTINUOUS
 10
6563.7721464927299166
 20
2318.5333509248739574
 30
0.0
 42
0.4142130153945678
  0
VERTEX
  5
60739AC
  8
1_OBJEKTE
  6
CONTINUOUS
 10
6542.1471464927890338
 20
2340.1582871969371809
 30
0.0
  0
VERTEX
  5
60739AD
  8
1_OBJEKTE
  6
CONTINUOUS
 10
6501.2721465009226449
 20
2340.1582618596221437
 30
0.0
 42
0.4142135623668487
  0
VERTEX
  5
60739AE
  8
1_OBJEKTE
  6
CONTINUOUS
 10
6478.7721465009235544
 20
2317.6582618601028116
 30
0.0
  0
VERTEX
  5
60739AF
  8
1_OBJEKTE
  6
CONTINUOUS
 10
6478.7721465009235544
 20
2037.4372874388870969
 30
0.0
 42
-0.4142135623668672
  0
VERTEX
  5
60739B0
  8
1_OBJEKTE
  6
CONTINUOUS
 10
6431.2721465009226449
 20
1989.9372874399050488
 30
0.0
  0
VERTEX
  5
60739B1
  8
1_OBJEKTE
  6
CONTINUOUS
 10
6076.2721465023350902
 20
1989.9372874399050488
 30
0.0
 42
-0.4142135623668672
  0
VERTEX
  5
60739B2
  8
1_OBJEKTE
  6
CONTINUOUS
 10
6028.7721465023350902
 20
2037.4372874388870969
 30
0.0
  0
VERTEX
  5
60739B3
  8
1_OBJEKTE
  6
CONTINUOUS
 10
6028.7721465023350902
 20
2317.6582618601028116
 30
0.0
 42
0.4142135623668487
  0
VERTEX
  5
60739B4
  8
1_OBJEKTE
  6
CONTINUOUS
 10
6006.2721465023350902
 20
2340.1582618596221437
 30
0.0
  0
VERTEX
  5
60739B5
  8
1_OBJEKTE
  6
CONTINUOUS
 10
5965.3971465104841627
 20
2340.1582871969371809
 30
0.0
 42
0.4142130153945678
  0
VERTEX
  5
60739B6
  8
1_OBJEKTE
  6
CONTINUOUS
 10
5943.7721465105432799
 20
2318.5333509248739574
 30
0.0
  0
VERTEX
  5
60739B7
  8
1_OBJEKTE
  6
CONTINUOUS
 10
5943.7721465017239098
 20
2120.9073981654150884
 30
0.0
 42
-0.4142135623729166
  0
VERTEX
  5
60739B8
  8
1_OBJEKTE
  6
CONTINUOUS
 10
5828.7721465051290579
 20
2005.9073981688779895
 30
0.0
 42
-0.4142135623729166
  0
VERTEX
  5
60739B9
  8
1_OBJEKTE
  6
CONTINUOUS
 10
5713.7721465015338254
 20
2120.9073981654150884
 30
0.0
  0
VERTEX
  5
60739BA
  8
1_OBJEKTE
  6
CONTINUOUS
 10
5713.7721464927308261
 20
2318.5333509248739574
 30
0.0
 42
0.4142130153945678
  0
VERTEX
  5
60739BB
  8
1_OBJEKTE
  6
CONTINUOUS
 10
5692.1471464927890338
 20
2340.1582871969371809
 30
0.0
  0
VERTEX
  5
60739BC
  8
1_OBJEKTE
  6
CONTINUOUS
 10
5651.2721465009226449
 20
2340.1582618596221437
 30
0.0
 42
0.4142135623668487
  0
VERTEX
  5
60739BD
  8
1_OBJEKTE
  6
CONTINUOUS
 10
5628.7721465009226449
 20
2317.6582618601028116
 30
0.0
  0
VERTEX
  5
60739BE
  8
1_OBJEKTE
  6
CONTINUOUS
 10
5628.7721465009226449
 20
2037.4372874388870969
 30
0.0
 42
-0.4142135623668672
  0
VERTEX
  5
60739BF
  8
1_OBJEKTE
  6
CONTINUOUS
 10
5581.2721465009235544
 20
1989.9372874399050488
 30
0.0
  0
VERTEX
  5
60739C0
  8
1_OBJEKTE
  6
CONTINUOUS
 10
5213.9164264018181711
 20
1989.9372874399050488
 30
0.0
 42
-0.4154189798143956
  0
VERTEX
  5
60739C1
  8
1_OBJEKTE
  6
CONTINUOUS
 10
5178.9167225597329889
 20
2025.0812699606169645
 30
0.0
  0
VERTEX
  5
60739C2
  8
1_OBJEKTE
  6
CONTINUOUS
 10
5179.2600704415226573
 20
2108.5433049191851751
 30
0.0
 42
0.4154189798143964
  0
VERTEX
  5
60739C3
  8
1_OBJEKTE
  6
CONTINUOUS
 10
5144.2603665994392941
 20
2143.6872874399050488
 30
0.0
  0
VERTEX
  5
60739C4
  8
1_OBJEKTE
  6
CONTINUOUS
 10
4814.2609589128260268
 20
2143.6872874399050488
 30
0.0
 42
0.4130091715050046
  0
VERTEX
  5
60739C5
  8
1_OBJEKTE
  6
CONTINUOUS
 10
4779.261255070741754
 20
2108.8312699606181013
 30
0.0
  0
VERTEX
  5
60739C6
  8
1_OBJEKTE
  6
CONTINUOUS
 10
4778.9155379156136405
 20
2024.7933049191849477
 30
0.0
 42
-0.4130091715050054
  0
VERTEX
  5
60739C7
  8
1_OBJEKTE
  6
CONTINUOUS
 10
4743.9158340735302772
 20
1989.9372874399050488
 30
0.0
  0
VERTEX
  5
60739C8
  8
1_OBJEKTE
  6
CONTINUOUS
 10
4352.3971329115147455
 20
1989.9371073845541105
 30
0.0
  0
VERTEX
  5
60739C9
  8
1_OBJEKTE
  6
CONTINUOUS
 10
4224.898056494348566
 20
1989.9372874399050488
 30
0.0
 42
-0.4142135623730961
  0
VERTEX
  5
60739CA
  8
1_OBJEKTE
  6
CONTINUOUS
 10
4189.898056494348566
 20
2024.9372874399050488
 30
0.0
  0
VERTEX
  5
60739CB
  8
1_OBJEKTE
  6
CONTINUOUS
 10
4189.8980836577966329
 20
2444.5621025487557745
 30
0.0
 42
0.41421358477649
  0
VERTEX
  5
60739CC
  8
1_OBJEKTE
  6
CONTINUOUS
 10
4154.8980836577966329
 20
2479.5621052259161843
 30
0.0
  0
VERTEX
  5
60739CD
  8
1_OBJEKTE
  6
CONTINUOUS
 10
4149.8971464948699577
 20
2479.5621052259161843
 30
0.0
 42
0.4142135623731053
  0
VERTEX
  5
60739CE
  8
1_OBJEKTE
  6
CONTINUOUS
 10
4114.8971464948699577
 20
2444.5621052259089083
 30
0.0
  0
VERTEX
  5
60739CF
  8
1_OBJEKTE
  6
CONTINUOUS
 10
4114.8971464948836001
 20
2242.8112281532307861
 30
0.0
 42
-0.4142135623731015
  0
VERTEX
  5
60739D0
  8
1_OBJEKTE
  6
CONTINUOUS
 10
4002.3971464948840548
 20
2130.3112281532298766
 30
0.0
  0
VERTEX
  5
60739D1
  8
1_OBJEKTE
  6
CONTINUOUS
 10
4002.3971464948699577
 20
2130.3112281532298766
 30
0.0
 42
-0.4142135623730951
  0
VERTEX
  5
60739D2
  8
1_OBJEKTE
  6
CONTINUOUS
 10
3889.8971464948699577
 20
2242.8112281532307861
 30
0.0
  0
VERTEX
  5
60739D3
  8
1_OBJEKTE
  6
CONTINUOUS
 10
3889.8971464948699577
 20
2444.5621772299268741
 30
0.0
 42
0.4142131393266521
  0
VERTEX
  5
60739D4
  8
1_OBJEKTE
  6
CONTINUOUS
 10
3854.8971970478601179
 20
2479.5621772298982251
 30
0.0
  0
VERTEX
  5
60739D5
  8
1_OBJEKTE
  6
CONTINUOUS
 10
3849.8983552402060013
 20
2479.5621844500778934
 30
0.0
 42
0.4142137807198988
  0
VERTEX
  5
60739D6
  8
1_OBJEKTE
  6
CONTINUOUS
 10
3814.8983046872158411
 20
2444.5622089112080175
 30
0.0
  0
VERTEX
  5
60739D7
  8
1_OBJEKTE
  6
CONTINUOUS
 10
3814.8980564943490208
 20
2024.9372874399050488
 30
0.0
 42
-0.4142135623730951
  0
VERTEX
  5
60739D8
  8
1_OBJEKTE
  6
CONTINUOUS
 10
3779.8980564943481113
 20
1989.9372874399050488
 30
0.0
  0
VERTEX
  5
60739D9
  8
1_OBJEKTE
  6
CONTINUOUS
 10
3652.3971329115161097
 20
1989.9372874399050488
 30
0.0
  0
VERTEX
  5
60739DA
  8
1_OBJEKTE
  6
CONTINUOUS
 10
3413.5497243509748841
 20
1989.9410986301450066
 30
0.0
 42
-0.498284345327149
  0
VERTEX
  5
60739DB
  8
1_OBJEKTE
  6
CONTINUOUS
 10
3367.8773445172118954
 20
2050.4903790823009331
 30
0.0
  0
VERTEX
  5
60739DC
  8
1_OBJEKTE
  6
CONTINUOUS
 10
3417.9084316907969878
 20
2213.0987940839399926
 30
0.0
 42
0.0696875434212096
  0
VERTEX
  5
60739DD
  8
1_OBJEKTE
  6
CONTINUOUS
 10
3418.774146506388206
 20
2219.2800321928589256
 30
0.0
  0
VERTEX
  5
60739DE
  8
1_OBJEKTE
  6
CONTINUOUS
 10
3418.774146506388206
 20
2475.0030986301430858
 30
0.0
 42
0.4142135623730951
  0
VERTEX
  5
60739DF
  8
1_OBJEKTE
  6
CONTINUOUS
 10
3396.2741465063891155
 20
2497.5030986301430858
 30
0.0
  0
VERTEX
  5
60739E0
  8
1_OBJEKTE
  6
CONTINUOUS
 10
3363.0241465134899954
 20
2497.5030986301430858
 30
0.0
 42
0.4142135623730951
  0
VERTEX
  5
60739E1
  8
1_OBJEKTE
  6
CONTINUOUS
 10
3340.5241465134899954
 20
2475.0030986301430858
 30
0.0
  0
VERTEX
  5
60739E2
  8
1_OBJEKTE
  6
CONTINUOUS
 10
3340.5241465134899954
 20
2214.3777723146558856
 30
0.0
 42
-0.9999978663523487
  0
VERTEX
  5
60739E3
  8
1_OBJEKTE
  6
CONTINUOUS
 10
3009.0241465141589288
 20
2214.3784249453019584
 30
0.0
  0
VERTEX
  5
60739E4
  8
1_OBJEKTE
  6
CONTINUOUS
 10
3009.02414650728997
 20
2475.0030986307319836
 30
0.0
 42
0.4142135623653699
  0
VERTEX
  5
60739E5
  8
1_OBJEKTE
  6
CONTINUOUS
 10
2986.5241465072908795
 20
2497.5030986301430858
 30
0.0
  0
VERTEX
  5
60739E6
  8
1_OBJEKTE
  6
CONTINUOUS
 10
2953.274146506388206
 20
2497.5030986301430858
 30
0.0
 42
0.4142135623730951
  0
VERTEX
  5
60739E7
  8
1_OBJEKTE
  6
CONTINUOUS
 10
2930.7741465063891155
 20
2475.0030986301430858
 30
0.0
  0
VERTEX
  5
60739E8
  8
1_OBJEKTE
  6
CONTINUOUS
 10
2930.7741465063891155
 20
2219.2800846942341195
 30
0.0
 42
0.0696882825840598
  0
VERTEX
  5
60739E9
  8
1_OBJEKTE
  6
CONTINUOUS
 10
2931.6398795094869456
 20
2213.0987829294390394
 30
0.0
  0
VERTEX
  5
60739EA
  8
1_OBJEKTE
  6
CONTINUOUS
 10
2981.6717502012911609
 20
2050.4895761494772159
 30
0.0
 42
-0.4982856851324044
  0
VERTEX
  5
60739EB
  8
1_OBJEKTE
  6
CONTINUOUS
 10
2935.999344595911225
 20
1989.940161312741111
 30
0.0
  0
VERTEX
  5
60739EC
  8
1_OBJEKTE
  6
CONTINUOUS
 10
2856.0251465009641834
 20
1989.9372738452730118
 30
0.0
  0
VERTEX
  5
60739ED
  8
1_OBJEKTE
  6
CONTINUOUS
 10
2538.8890071236819495
 20
1989.9372874399050488
 30
0.0
 42
-0.4573999380672042
  0
VERTEX
  5
60739EE
  8
1_OBJEKTE
  6
CONTINUOUS
 10
2491.8886184333541678
 20
2044.3084927897800753
 30
0.0
  0
VERTEX
  5
60739EF
  8
1_OBJEKTE
  6
CONTINUOUS
 10
2539.0179377405152081
 20
2354.1822559583738439
 30
0.0
 42
0.4573999380671235
  0
VERTEX
  5
60739F0
  8
1_OBJEKTE
  6
CONTINUOUS
 10
2516.754595729319135
 20
2379.9370374398931745
 30
0.0
  0
VERTEX
  5
60739F1
  8
1_OBJEKTE
  6
CONTINUOUS
 10
2484.4573815371259116
 20
2379.9370374398931745
 30
0.0
 42
0.3220959511644723
  0
VERTEX
  5
60739F2
  8
1_OBJEKTE
  6
CONTINUOUS
 10
2463.1308195806050207
 20
2364.6083521809341619
 30
0.0
 42
-0.7187602619785564
  0
VERTEX
  5
60739F3
  8
1_OBJEKTE
  6
CONTINUOUS
 10
2148.9194734212937874
 20
2364.6083521809418926
 30
0.0
 42
0.3220959511644103
  0
VERTEX
  5
60739F4
  8
1_OBJEKTE
  6
CONTINUOUS
 10
2127.5929114647728966
 20
2379.9370374398999957
 30
0.0
  0
VERTEX
  5
60739F5
  8
1_OBJEKTE
  6
CONTINUOUS
 10
2095.2955977357341908
 20
2379.9370374398999957
 30
0.0
 42
0.4573992027115869
  0
VERTEX
  5
60739F6
  8
1_OBJEKTE
  6
CONTINUOUS
 10
2073.032247807335807
 20
2354.1823101141199004
 30
0.0
  0
VERTEX
  5
60739F7
  8
1_OBJEKTE
  6
CONTINUOUS
 10
2120.1607908094010781
 20
2044.308378460998938
 30
0.0
 42
-0.4573992027116348
  0
VERTEX
  5
60739F8
  8
1_OBJEKTE
  6
CONTINUOUS
 10
2073.1603854049758411
 20
1989.9372874399050488
 30
0.0
  0
VERTEX
  5
60739F9
  8
1_OBJEKTE
  6
CONTINUOUS
 10
1960.9593594986649805
 20
1989.9373345415299354
 30
0.0
  0
VERTEX
  5
60739FA
  8
1_OBJEKTE
  6
CONTINUOUS
 10
1658.7752632165791056
 20
1989.9373913955998887
 30
0.0
 42
-0.4142135623730739
  0
VERTEX
  5
60739FB
  8
1_OBJEKTE
  6
CONTINUOUS
 10
1623.775265893724054
 20
2024.9373940727530226
 30
0.0
  0
VERTEX
  5
60739FC
  8
1_OBJEKTE
  6
CONTINUOUS
 10
1623.7752821096510161
 20
2236.9388502327487913
 30
0.0
 42
0.41421358477649
  0
VERTEX
  5
60739FD
  8
1_OBJEKTE
  6
CONTINUOUS
 10
1588.7752821096510161
 20
2271.9388529099010157
 30
0.0
  0
VERTEX
  5
60739FE
  8
1_OBJEKTE
  6
CONTINUOUS
 10
1583.7743449467229766
 20
2271.9388529099010157
 30
0.0
 42
0.4142135623731053
  0
VERTEX
  5
60739FF
  8
1_OBJEKTE
  6
CONTINUOUS
 10
1548.7743449467229766
 20
2236.9388529099019252
 30
0.0
  0
VERTEX
  5
6073A00
  8
1_OBJEKTE
  6
CONTINUOUS
 10
1548.7743449467520804
 20
2166.4133565830347834
 30
0.0
 42
-0.4142135623731015
  0
VERTEX
  5
6073A01
  8
1_OBJEKTE
  6
CONTINUOUS
 10
1436.2743449467520804
 20
2053.9133565830270527
 30
0.0
  0
VERTEX
  5
6073A02
  8
1_OBJEKTE
  6
CONTINUOUS
 10
1436.2743449467229766
 20
2053.9133565830270527
 30
0.0
 42
-0.4142135623730951
  0
VERTEX
  5
6073A03
  8
1_OBJEKTE
  6
CONTINUOUS
 10
1323.7743449467229766
 20
2166.4133565830270527
 30
0.0
  0
VERTEX
  5
6073A04
  8
1_OBJEKTE
  6
CONTINUOUS
 10
1323.7743449467229766
 20
2236.938924913919891
 30
0.0
 42
0.4142131393266521
  0
VERTEX
  5
6073A05
  8
1_OBJEKTE
  6
CONTINUOUS
 10
1288.7743954997270066
 20
2271.9389249138839659
 30
0.0
  0
VERTEX
  5
6073A06
  8
1_OBJEKTE
  6
CONTINUOUS
 10
1283.7755536920740269
 20
2271.938932134064089
 30
0.0
 42
0.4142137807198988
  0
VERTEX
  5
6073A07
  8
1_OBJEKTE
  6
CONTINUOUS
 10
1248.7755031390699969
 20
2236.9389565952010344
 30
0.0
  0
VERTEX
  5
6073A08
  8
1_OBJEKTE
  6
CONTINUOUS
 10
1248.7753549735059551
 20
2024.9372555800221107
 30
0.0
 42
-0.4142133916660952
  0
VERTEX
  5
6073A09
  8
1_OBJEKTE
  6
CONTINUOUS
 10
1213.7753509114850203
 20
1989.9372800411219941
 30
0.0
  0
VERTEX
  5
6073A0A
  8
1_OBJEKTE
  6
CONTINUOUS
 10
849.7481430166518521
 20
1989.9373222895299023
 30
0.0
 42
-0.4142135283803841
  0
VERTEX
  5
6073A0B
  8
1_OBJEKTE
  6
CONTINUOUS
 10
819.7481464984010699
 20
2019.9373222895299023
 30
0.0
  0
VERTEX
  5
6073A0C
  8
1_OBJEKTE
  6
CONTINUOUS
 10
819.7481464984010699
 20
3162.8696752223409021
 30
0.0
  0
VERTEX
  5
6073A0D
  8
1_OBJEKTE
  6
CONTINUOUS
 10
819.7441964850439717
 20
5533.8372026105062105
 30
0.0
 42
-0.4142140163382689
  0
VERTEX
  5
6073A0E
  8
1_OBJEKTE
  6
CONTINUOUS
 10
849.7441930032508708
 20
5563.8372525902750567
 30
0.0
  0
VERTEX
  5
6073A0F
  8
1_OBJEKTE
  6
CONTINUOUS
 10
1213.7713509182790403
 20
5563.8372948386750068
 30
0.0
 42
-0.4142133916660952
  0
VERTEX
  5
6073A10
  8
1_OBJEKTE
  6
CONTINUOUS
 10
1248.7713549803011119
 20
5528.8373192997751175
 30
0.0
  0
VERTEX
  5
6073A11
  8
1_OBJEKTE
  6
CONTINUOUS
 10
1248.7715031458649264
 20
5316.8356182845973308
 30
0.0
 42
0.4142137807198988
  0
VERTEX
  5
6073A12
  8
1_OBJEKTE
  6
CONTINUOUS
 10
1283.7715536988689564
 20
5281.8356427457329119
 30
0.0
  0
VERTEX
  5
6073A13
  8
1_OBJEKTE
  6
CONTINUOUS
 10
1288.770395506523073
 20
5281.835649965913035
 30
0.0
 42
0.4142131393266521
  0
VERTEX
  5
6073A14
  8
1_OBJEKTE
  6
CONTINUOUS
 10
1323.7703449535179061
 20
5316.8356499658766552
 30
0.0
  0
VERTEX
  5
6073A15
  8
1_OBJEKTE
  6
CONTINUOUS
 10
1323.7703449535179061
 20
5387.3612182967699482
 30
0.0
 42
-0.4142135623730951
  0
VERTEX
  5
6073A16
  8
1_OBJEKTE
  6
CONTINUOUS
 10
1436.2703449535179061
 20
5499.8612182967699482
 30
0.0
  0
VERTEX
  5
6073A17
  8
1_OBJEKTE
  6
CONTINUOUS
 10
1436.2703449535470099
 20
5499.8612182967699482
 30
0.0
 42
-0.4142135623731015
  0
VERTEX
  5
6073A18
  8
1_OBJEKTE
  6
CONTINUOUS
 10
1548.7703449535470099
 20
5387.3612182967626723
 30
0.0
  0
VERTEX
  5
6073A19
  8
1_OBJEKTE
  6
CONTINUOUS
 10
1548.7703449535179061
 20
5316.835721969894621
 30
0.0
 42
0.4142135623731053
  0
VERTEX
  5
6073A1A
  8
1_OBJEKTE
  6
CONTINUOUS
 10
1583.7703449535179061
 20
5281.835721969894621
 30
0.0
  0
VERTEX
  5
6073A1B
  8
1_OBJEKTE
  6
CONTINUOUS
 10
1588.7712821164459456
 20
5281.835721969894621
 30
0.0
 42
0.41421358477649
  0
VERTEX
  5
6073A1C
  8
1_OBJEKTE
  6
CONTINUOUS
 10
1623.7712821164459456
 20
5316.8357246470477548
 30
0.0
  0
VERTEX
  5
6073A1D
  8
1_OBJEKTE
  6
CONTINUOUS
 10
1623.7712659005189835
 20
5528.8371808070451152
 30
0.0
 42
-0.4142135623730739
  0
VERTEX
  5
6073A1E
  8
1_OBJEKTE
  6
CONTINUOUS
 10
1658.7712632233740351
 20
5563.8371834841964301
 30
0.0
  0
VERTEX
  5
6073A1F
  8
1_OBJEKTE
  6
CONTINUOUS
 10
1960.95535950545991
 20
5563.8372403382672928
 30
0.0
  0
VERTEX
  5
6073A20
  8
1_OBJEKTE
  6
CONTINUOUS
 10
2073.1563854117698611
 20
5563.8372874398910426
 30
0.0
 42
-0.4573992027116348
  0
VERTEX
  5
6073A21
  8
1_OBJEKTE
  6
CONTINUOUS
 10
2120.1567908161960077
 20
5509.4661964187989724
 30
0.0
  0
VERTEX
  5
6073A22
  8
1_OBJEKTE
  6
CONTINUOUS
 10
2073.0282478141311913
 20
5199.592264765676191
 30
0.0
 42
0.4573992027115869
  0
VERTEX
  5
6073A23
  8
1_OBJEKTE
  6
CONTINUOUS
 10
2095.2915977425291203
 20
5173.8375374398965505
 30
0.0
  0
VERTEX
  5
6073A24
  8
1_OBJEKTE
  6
CONTINUOUS
 10
2127.5889114715678261
 20
5173.8375374398965505
 30
0.0
 42
0.3220959511644103
  0
VERTEX
  5
6073A25
  8
1_OBJEKTE
  6
CONTINUOUS
 10
2148.9154734280891716
 20
5189.1662226988546536
 30
0.0
 42
-0.7187602619785564
  0
VERTEX
  5
6073A26
  8
1_OBJEKTE
  6
CONTINUOUS
 10
2463.1268195873999503
 20
5189.166222698862839
 30
0.0
 42
0.3220959511644723
  0
VERTEX
  5
6073A27
  8
1_OBJEKTE
  6
CONTINUOUS
 10
2484.4533815439208411
 20
5173.8375374399038265
 30
0.0
  0
VERTEX
  5
6073A28
  8
1_OBJEKTE
  6
CONTINUOUS
 10
2516.7505957361140645
 20
5173.8375374399038265
 30
0.0
 42
0.4573999380671235
  0
VERTEX
  5
6073A29
  8
1_OBJEKTE
  6
CONTINUOUS
 10
2539.0139377473101376
 20
5199.5923189214227023
 30
0.0
  0
VERTEX
  5
6073A2A
  8
1_OBJEKTE
  6
CONTINUOUS
 10
2491.8846184401481878
 20
5509.4660820900180624
 30
0.0
 42
-0.4573999380672042
  0
VERTEX
  5
6073A2B
  8
1_OBJEKTE
  6
CONTINUOUS
 10
2538.885007130476879
 20
5563.8372874398910426
 30
0.0
  0
VERTEX
  5
6073A2C
  8
1_OBJEKTE
  6
CONTINUOUS
 10
2856.0211465077591129
 20
5563.8373010345239891
 30
0.0
  0
VERTEX
  5
6073A2D
  8
1_OBJEKTE
  6
CONTINUOUS
 10
2935.995344602707064
 20
5563.8344135670558899
 30
0.0
 42
-0.4982856851324044
  0
VERTEX
  5
6073A2E
  8
1_OBJEKTE
  6
CONTINUOUS
 10
2981.6677502080860904
 20
5503.284998730319785
 30
0.0
  0
VERTEX
  5
6073A2F
  8
1_OBJEKTE
  6
CONTINUOUS
 10
2931.6358795162818751
 20
5340.6757919503579615
 30
0.0
 42
0.0696882825840598
  0
VERTEX
  5
6073A30
  8
1_OBJEKTE
  6
CONTINUOUS
 10
2930.7701465131831355
 20
5334.4944901855633361
 30
0.0
  0
VERTEX
  5
6073A31
  8
1_OBJEKTE
  6
CONTINUOUS
 10
2930.7701465131831355
 20
5078.7714762496543699
 30
0.0
 42
0.4142135623730951
  0
VERTEX
  5
6073A32
  8
1_OBJEKTE
  6
CONTINUOUS
 10
2953.270146513184045
 20
5056.2714762496552794
 30
0.0
  0
VERTEX
  5
6073A33
  8
1_OBJEKTE
  6
CONTINUOUS
 10
2986.5201465140848995
 20
5056.2714762496552794
 30
0.0
 42
0.4142135623653699
  0
VERTEX
  5
6073A34
  8
1_OBJEKTE
  6
CONTINUOUS
 10
3009.020146514085809
 20
5078.7714762490650173
 30
0.0
  0
VERTEX
  5
6073A35
  8
1_OBJEKTE
  6
CONTINUOUS
 10
3009.0201465209538583
 20
5339.3961499344950425
 30
0.0
 42
-0.9999978663523487
  0
VERTEX
  5
6073A36
  8
1_OBJEKTE
  6
CONTINUOUS
 10
3340.5201465202840154
 20
5339.3968025651411153
 30
0.0
  0
VERTEX
  5
6073A37
  8
1_OBJEKTE
  6
CONTINUOUS
 10
3340.5201465202840154
 20
5078.7714762496543699
 30
0.0
 42
0.4142135623730951
  0
VERTEX
  5
6073A38
  8
1_OBJEKTE
  6
CONTINUOUS
 10
3363.0201465202840154
 20
5056.2714762496552794
 30
0.0
  0
VERTEX
  5
6073A39
  8
1_OBJEKTE
  6
CONTINUOUS
 10
3396.2701465131831355
 20
5056.2714762496552794
 30
0.0
 42
0.4142135623730951
  0
VERTEX
  5
6073A3A
  8
1_OBJEKTE
  6
CONTINUOUS
 10
3418.7701465131831355
 20
5078.7714762496543699
 30
0.0
  0
VERTEX
  5
6073A3B
  8
1_OBJEKTE
  6
CONTINUOUS
 10
3418.7701465131831355
 20
5334.4945426869380753
 30
0.0
 42
0.0696875434212096
  0
VERTEX
  5
6073A3C
  8
1_OBJEKTE
  6
CONTINUOUS
 10
3417.9044316975928268
 20
5340.6757807958565536
 30
0.0
  0
VERTEX
  5
6073A3D
  8
1_OBJEKTE
  6
CONTINUOUS
 10
3367.8733445240068249
 20
5503.2841957974960678
 30
0.0
 42
-0.498284345327149
  0
VERTEX
  5
6073A3E
  8
1_OBJEKTE
  6
CONTINUOUS
 10
3413.5457243577698137
 20
5563.833476249652449
 30
0.0
  0
VERTEX
  5
6073A3F
  8
1_OBJEKTE
  6
CONTINUOUS
 10
3652.3931329183110392
 20
5563.8372874398910426
 30
0.0
  0
VERTEX
  5
6073A40
  8
1_OBJEKTE
  6
CONTINUOUS
 10
3779.8940565011439503
 20
5563.8372874398910426
 30
0.0
 42
-0.4142135623730951
  0
VERTEX
  5
6073A41
  8
1_OBJEKTE
  6
CONTINUOUS
 10
3814.8940565011439503
 20
5528.8372874398919521
 30
0.0
  0
VERTEX
  5
6073A42
  8
1_OBJEKTE
  6
CONTINUOUS
 10
3814.8943046940112254
 20
5109.2123659685894381
 30
0.0
 42
0.4142137807198988
  0
VERTEX
  5
6073A43
  8
1_OBJEKTE
  6
CONTINUOUS
 10
3849.8943552470009308
 20
5074.2123904297177432
 30
0.0
  0
VERTEX
  5
6073A44
  8
1_OBJEKTE
  6
CONTINUOUS
 10
3854.8931970546550474
 20
5074.2123976498978664
 30
0.0
 42
0.4142131393266521
  0
VERTEX
  5
6073A45
  8
1_OBJEKTE
  6
CONTINUOUS
 10
3889.8931465016648872
 20
5109.2123976498687625
 30
0.0
  0
VERTEX
  5
6073A46
  8
1_OBJEKTE
  6
CONTINUOUS
 10
3889.8931465016648872
 20
5310.96334672656576
 30
0.0
 42
-0.4142135623730951
  0
VERTEX
  5
6073A47
  8
1_OBJEKTE
  6
CONTINUOUS
 10
4002.3931465016648872
 20
5423.4633467265666695
 30
0.0
  0
VERTEX
  5
6073A48
  8
1_OBJEKTE
  6
CONTINUOUS
 10
4002.3931465016789844
 20
5423.4633467265666695
 30
0.0
 42
-0.4142135623731015
  0
VERTEX
  5
6073A49
  8
1_OBJEKTE
  6
CONTINUOUS
 10
4114.8931465016794391
 20
5310.96334672656576
 30
0.0
  0
VERTEX
  5
6073A4A
  8
1_OBJEKTE
  6
CONTINUOUS
 10
4114.8931465016648872
 20
5109.2124696538885473
 30
0.0
 42
0.4142135623731053
  0
VERTEX
  5
6073A4B
  8
1_OBJEKTE
  6
CONTINUOUS
 10
4149.8931465016639777
 20
5074.2124696538821809
 30
0.0
  0
VERTEX
  5
6073A4C
  8
1_OBJEKTE
  6
CONTINUOUS
 10
4154.8940836645933814
 20
5074.2124696538821809
 30
0.0
 42
0.41421358477649
  0
VERTEX
  5
6073A4D
  8
1_OBJEKTE
  6
CONTINUOUS
 10
4189.8940836645933814
 20
5109.2124723310407717
 30
0.0
  0
VERTEX
  5
6073A4E
  8
1_OBJEKTE
  6
CONTINUOUS
 10
4189.8940565011425861
 20
5528.8372874398919521
 30
0.0
 42
-0.4142135623730961
  0
VERTEX
  5
6073A4F
  8
1_OBJEKTE
  6
CONTINUOUS
 10
4224.894056501144405
 20
5563.8372874398910426
 30
0.0
  0
VERTEX
  5
6073A50
  8
1_OBJEKTE
  6
CONTINUOUS
 10
4352.3931329183105845
 20
5563.8374674952428904
 30
0.0
  0
VERTEX
  5
6073A51
  8
1_OBJEKTE
  6
CONTINUOUS
 10
4743.9118340803252067
 20
5563.8372874398910426
 30
0.0
 42
-0.4130091715050054
  0
VERTEX
  5
6073A52
  8
1_OBJEKTE
  6
CONTINUOUS
 10
4778.91153792240857
 20
5528.9812699606118258
 30
0.0
  0
VERTEX
  5
6073A53
  8
1_OBJEKTE
  6
CONTINUOUS
 10
4779.2572550775366835
 20
5444.9433049191793543
 30
0.0
 42
0.4130091715050046
  0
VERTEX
  5
6073A54
  8
1_OBJEKTE
  6
CONTINUOUS
 10
4814.2569589196209563
 20
5410.0872874398928616
 30
0.0
  0
VERTEX
  5
6073A55
  8
1_OBJEKTE
  6
CONTINUOUS
 10
5144.2563666062342236
 20
5410.0872874398928616
 30
0.0
 42
0.4154189798143964
  0
VERTEX
  5
6073A56
  8
1_OBJEKTE
  6
CONTINUOUS
 10
5179.2560704483175869
 20
5445.2312699606109163
 30
0.0
  0
VERTEX
  5
6073A57
  8
1_OBJEKTE
  6
CONTINUOUS
 10
5178.9127225665288279
 20
5528.6933049191802638
 30
0.0
 42
-0.4154189798143956
  0
VERTEX
  5
6073A58
  8
1_OBJEKTE
  6
CONTINUOUS
 10
5213.9124264086131006
 20
5563.8372874398910426
 30
0.0
  0
VERTEX
  5
6073A59
  8
1_OBJEKTE
  6
CONTINUOUS
 10
5581.2681465077175744
 20
5563.8372874398910426
 30
0.0
 42
-0.4142135623668672
  0
VERTEX
  5
6073A5A
  8
1_OBJEKTE
  6
CONTINUOUS
 10
5628.7681465077175744
 20
5516.3372874409105862
 30
0.0
  0
VERTEX
  5
6073A5B
  8
1_OBJEKTE
  6
CONTINUOUS
 10
5628.7681465077175744
 20
5236.116313019694644
 30
0.0
 42
0.4142135623668487
  0
VERTEX
  5
6073A5C
  8
1_OBJEKTE
  6
CONTINUOUS
 10
5651.2681465077175744
 20
5213.6163130201748572
 30
0.0
  0
VERTEX
  5
6073A5D
  8
1_OBJEKTE
  6
CONTINUOUS
 10
5692.1431464995839633
 20
5213.6162876828602748
 30
0.0
 42
0.4142130153945678
  0
VERTEX
  5
6073A5E
  8
1_OBJEKTE
  6
CONTINUOUS
 10
5713.7681464995257556
 20
5235.2412239549230435
 30
0.0
  0
VERTEX
  5
6073A5F
  8
1_OBJEKTE
  6
CONTINUOUS
 10
5713.7681465083287549
 20
5432.8671767143823672
 30
0.0
 42
-0.4142135623729166
  0
VERTEX
  5
6073A60
  8
1_OBJEKTE
  6
CONTINUOUS
 10
5828.7681465119239874
 20
5547.8671767109190114
 30
0.0
 42
-0.4142135623729166
  0
VERTEX
  5
6073A61
  8
1_OBJEKTE
  6
CONTINUOUS
 10
5943.7681465085188393
 20
5432.8671767143823672
 30
0.0
  0
VERTEX
  5
6073A62
  8
1_OBJEKTE
  6
CONTINUOUS
 10
5943.7681465173382094
 20
5235.2412239549230435
 30
0.0
 42
0.4142130153945678
  0
VERTEX
  5
6073A63
  8
1_OBJEKTE
  6
CONTINUOUS
 10
5965.3931465172781827
 20
5213.6162876828602748
 30
0.0
  0
VERTEX
  5
6073A64
  8
1_OBJEKTE
  6
CONTINUOUS
 10
6006.2681465091300197
 20
5213.6163130201748572
 30
0.0
 42
0.4142135623668487
  0
VERTEX
  5
6073A65
  8
1_OBJEKTE
  6
CONTINUOUS
 10
6028.7681465091300197
 20
5236.116313019694644
 30
0.0
  0
VERTEX
  5
6073A66
  8
1_OBJEKTE
  6
CONTINUOUS
 10
6028.7681465091300197
 20
5516.3372874409105862
 30
0.0
 42
-0.4142135623668672
  0
VERTEX
  5
6073A67
  8
1_OBJEKTE
  6
CONTINUOUS
 10
6076.2681465091300197
 20
5563.8372874398910426
 30
0.0
  0
VERTEX
  5
6073A68
  8
1_OBJEKTE
  6
CONTINUOUS
 10
6431.2681465077193934
 20
5563.8372874398910426
 30
0.0
 42
-0.4142135623668672
  0
VERTEX
  5
6073A69
  8
1_OBJEKTE
  6
CONTINUOUS
 10
6478.7681465077175744
 20
5516.3372874409105862
 30
0.0
  0
VERTEX
  5
6073A6A
  8
1_OBJEKTE
  6
CONTINUOUS
 10
6478.7681465077175744
 20
5236.116313019694644
 30
0.0
 42
0.4142135623668487
  0
VERTEX
  5
6073A6B
  8
1_OBJEKTE
  6
CONTINUOUS
 10
6501.2681465077175744
 20
5213.6163130201748572
 30
0.0
  0
VERTEX
  5
6073A6C
  8
1_OBJEKTE
  6
CONTINUOUS
 10
6542.1431464995830538
 20
5213.6162876828602748
 30
0.0
 42
0.4142130153945678
  0
VERTEX
  5
6073A6D
  8
1_OBJEKTE
  6
CONTINUOUS
 10
6563.7681464995248461
 20
5235.2412239549230435
 30
0.0
  0
VERTEX
  5
6073A6E
  8
1_OBJEKTE
  6
CONTINUOUS
 10
6563.7681465083296644
 20
5432.8671767143823672
 30
0.0
 42
-0.4142135623729166
  0
VERTEX
  5
6073A6F
  8
1_OBJEKTE
  6
CONTINUOUS
 10
6678.7681465119239874
 20
5547.8671767109190114
 30
0.0
 42
-0.4142135623729166
  0
VERTEX
  5
6073A70
  8
1_OBJEKTE
  6
CONTINUOUS
 10
6793.7681465085188393
 20
5432.8671767143823672
 30
0.0
  0
VERTEX
  5
6073A71
  8
1_OBJEKTE
  6
CONTINUOUS
 10
6793.7681465173363904
 20
5235.2412239549230435
 30
0.0
 42
0.4142130153945678
  0
VERTEX
  5
6073A72
  8
1_OBJEKTE
  6
CONTINUOUS
 10
6815.3931465172790922
 20
5213.6162876828602748
 30
0.0
  0
VERTEX
  5
6073A73
  8
1_OBJEKTE
  6
CONTINUOUS
 10
6856.2681465091300197
 20
5213.6163130201748572
 30
0.0
 42
0.4142135623668487
  0
VERTEX
  5
6073A74
  8
1_OBJEKTE
  6
CONTINUOUS
 10
6878.7681465091300197
 20
5236.116313019694644
 30
0.0
  0
VERTEX
  5
6073A75
  8
1_OBJEKTE
  6
CONTINUOUS
 10
6878.7681465091300197
 20
5516.3372874409105862
 30
0.0
 42
-0.4142135623668672
  0
VERTEX
  5
6073A76
  8
1_OBJEKTE
  6
CONTINUOUS
 10
6926.2681465091300197
 20
5563.8372874398910426
 30
0.0
  0
VERTEX
  5
6073A77
  8
1_OBJEKTE
  6
CONTINUOUS
 10
7278.7681464980987585
 20
5563.8372874398910426
 30
0.0
 42
-0.4142135623668672
  0
VERTEX
  5
6073A78
  8
1_OBJEKTE
  6
CONTINUOUS
 10
7326.268146498099668
 20
5516.3372874409105862
 30
0.0
  0
VERTEX
  5
6073A79
  8
1_OBJEKTE
  6
CONTINUOUS
 10
7326.268146498099668
 20
5236.116313019694644
 30
0.0
 42
0.4142135623668487
  0
VERTEX
  5
6073A7A
  8
1_OBJEKTE
  6
CONTINUOUS
 10
7348.7681464980987585
 20
5213.6163130201748572
 30
0.0
  0
VERTEX
  5
6073A7B
  8
1_OBJEKTE
  6
CONTINUOUS
 10
7389.6431464899505954
 20
5213.6162876828602748
 30
0.0
 42
0.4142130153945678
  0
VERTEX
  5
6073A7C
  8
1_OBJEKTE
  6
CONTINUOUS
 10
7411.2681464898923878
 20
5235.2412239549230435
 30
0.0
  0
VERTEX
  5
6073A7D
  8
1_OBJEKTE
  6
CONTINUOUS
 10
7411.2681464987099389
 20
5432.8671767143823672
 30
0.0
 42
-0.4142135623729166
  0
VERTEX
  5
6073A7E
  8
1_OBJEKTE
  6
CONTINUOUS
 10
7526.2681465023051715
 20
5547.8671767109190114
 30
0.0
 42
-0.4142135623729166
  0
VERTEX
  5
6073A7F
  8
1_OBJEKTE
  6
CONTINUOUS
 10
7641.2681464989009328
 20
5432.8671767143823672
 30
0.0
  0
VERTEX
  5
6073A80
  8
1_OBJEKTE
  6
CONTINUOUS
 10
7641.268146507703932
 20
5235.2412239549230435
 30
0.0
 42
0.4142130153945678
  0
VERTEX
  5
6073A81
  8
1_OBJEKTE
  6
CONTINUOUS
 10
7662.8931465076457243
 20
5213.6162876828602748
 30
0.0
  0
VERTEX
  5
6073A82
  8
1_OBJEKTE
  6
CONTINUOUS
 10
7703.7681464995121132
 20
5213.6163130201748572
 30
0.0
 42
0.4142135623668487
  0
VERTEX
  5
6073A83
  8
1_OBJEKTE
  6
CONTINUOUS
 10
7726.2681464995112037
 20
5236.116313019694644
 30
0.0
  0
VERTEX
  5
6073A84
  8
1_OBJEKTE
  6
CONTINUOUS
 10
7726.2681464995112037
 20
5516.3372874409105862
 30
0.0
 42
-0.4142135623668672
  0
VERTEX
  5
6073A85
  8
1_OBJEKTE
  6
CONTINUOUS
 10
7773.7681464995121132
 20
5563.8372874398910426
 30
0.0
  0
VERTEX
  5
6073A86
  8
1_OBJEKTE
  6
CONTINUOUS
 10
7835.6270767453388544
 20
5563.8372846398133333
 30
0.0
  0
VERTEX
  5
6073A87
  8
1_OBJEKTE
  6
CONTINUOUS
 10
9620.2461592910422041
 20
5563.8372846398133333
 30
0.0
 42
-0.4142135623730951
  0
VERTEX
  5
6073A88
  8
1_OBJEKTE
  6
CONTINUOUS
 10
9655.2461592910403851
 20
5528.8372846398133333
 30
0.0
  0
VERTEX
  5
6073A89
  8
1_OBJEKTE
  6
CONTINUOUS
 10
9655.2461592910403851
 20
5491.9621165183198173
 30
0.0
 42
-0.4142135623730951
  0
VERTEX
  5
6073A8A
  8
1_OBJEKTE
  6
CONTINUOUS
 10
9620.2461592910422041
 20
5456.9621165183198173
 30
0.0
  0
VERTEX
  5
6073A8B
  8
1_OBJEKTE
  6
CONTINUOUS
 10
8199.7721592990274075
 20
5456.9621165183198173
 30
0.0
 42
0.4142135623730951
  0
VERTEX
  5
6073A8C
  8
1_OBJEKTE
  6
CONTINUOUS
 10
8028.7721592990292265
 20
5285.9621165183189078
 30
0.0
  0
VERTEX
  5
6073A8D
  8
1_OBJEKTE
  6
CONTINUOUS
 10
8028.7721592990292265
 20
5173.3371165183198173
 30
0.0
 42
0.4142135623730951
  0
VERTEX
  5
6073A8E
  8
1_OBJEKTE
  6
CONTINUOUS
 10
8198.7721592990274075
 20
5003.3371165183198173
 30
0.0
  0
VERTEX
  5
6073A8F
  8
1_OBJEKTE
  6
CONTINUOUS
 10
9349.2731593010539655
 20
5003.3371165183198173
 30
0.0
 42
0.9999999999999998
  0
VERTEX
  5
6073A90
  8
1_OBJEKTE
  6
CONTINUOUS
 10
9349.2731593010539655
 20
5098.3371165183198173
 30
0.0
  0
VERTEX
  5
6073A91
  8
1_OBJEKTE
  6
CONTINUOUS
 10
8321.2991887737007346
 20
5098.3371165183198173
 30
0.0
 42
-0.9999997008726941
  0
VERTEX
  5
6073A92
  8
1_OBJEKTE
  6
CONTINUOUS
 10
8321.2991147866414394
 20
5345.3371643637374291
 30
0.0
  0
VERTEX
  5
6073A93
  8
1_OBJEKTE
  6
CONTINUOUS
 10
9741.7472574842977338
 20
5345.3380147443676833
 30
0.0
 42
0.3890328722991239
  0
VERTEX
  5
6073A94
  8
1_OBJEKTE
  6
CONTINUOUS
 10
9911.7471429138095118
 20
5536.7131603654561331
 30
0.0
  0
VERTEX
  5
6073A95
  8
1_OBJEKTE
  6
CONTINUOUS
 10
9911.7471465038252063
 20
5563.8372846398133333
 30
0.0
  0
VERTEX
  5
6073A96
  8
1_OBJEKTE
  6
CONTINUOUS
 10
10189.7463511796795501
 20
5563.8372846398133333
 30
0.0
 42
-0.4142118495473906
  0
VERTEX
  5
6073A97
  8
1_OBJEKTE
  6
CONTINUOUS
 10
10224.7463511790792836
 20
5528.8374893182908636
 30
0.0
  0
VERTEX
  5
6073A98
  8
1_OBJEKTE
  6
CONTINUOUS
 10
10224.747146496489222
 20
5392.8382846394661101
 30
0.0
 42
0.9992433098846989
  0
VERTEX
  5
6073A99
  8
1_OBJEKTE
  6
CONTINUOUS
 10
10566.7471464963400649
 20
5392.8381652592797764
 30
0.0
  0
VERTEX
  5
6073A9A
  8
1_OBJEKTE
  6
CONTINUOUS
 10
10566.7463511812893557
 20
5528.8370799615222495
 30
0.0
 42
-0.4142152751994289
  0
VERTEX
  5
6073A9B
  8
1_OBJEKTE
  6
CONTINUOUS
 10
10601.7463511807000032
 20
5563.8372846398133333
 30
0.0
  0
VERTEX
  5
6073A9C
  8
1_OBJEKTE
  6
CONTINUOUS
 10
12276.7461465018004674
 20
5563.8372846398133333
 30
0.0
  0
VERTEX
  5
6073A9D
  8
1_OBJEKTE
  6
CONTINUOUS
 10
12276.7441465051906562
 20
4469.4372846398182446
 30
0.0
  0
VERTEX
  5
6073A9E
  8
1_OBJEKTE
  6
CONTINUOUS
 10
10601.7441465051906562
 20
4469.4372846398182446
 30
0.0
 42
-0.4142135623730951
  0
VERTEX
  5
6073A9F
  8
1_OBJEKTE
  6
CONTINUOUS
 10
10566.7441465051906562
 20
4504.4372846398182446
 30
0.0
  0
VERTEX
  5
6073AA0
  8
1_OBJEKTE
  6
CONTINUOUS
 10
10566.7461465018004674
 20
4708.8371473521410735
 30
0.0
 42
0.9999953216704858
  0
VERTEX
  5
6073AA1
  8
1_OBJEKTE
  6
CONTINUOUS
 10
10224.7471464964291954
 20
4708.8371473521410735
 30
0.0
  0
VERTEX
  5
6073AA2
  8
1_OBJEKTE
  6
CONTINUOUS
 10
10224.7463102429592254
 20
4711.3131208979029907
 30
0.0
 42
-0.4142121921195587
  0
VERTEX
  5
6073AA3
  8
1_OBJEKTE
  6
CONTINUOUS
 10
10189.7463102433393942
 20
4676.3132846398220863
 30
0.0
  0
VERTEX
  5
6073AA4
  8
1_OBJEKTE
  6
CONTINUOUS
 10
9946.7471476515638642
 20
4676.3132846398220863
 30
0.0
 42
-0.4142135719777311
  0
VERTEX
  5
6073AA5
  8
1_OBJEKTE
  6
CONTINUOUS
 10
9911.7471476515656832
 20
4711.3132857875461923
 30
0.0
  0
VERTEX
  5
6073AA6
  8
1_OBJEKTE
  6
CONTINUOUS
 10
9911.7471798162168852
 20
5099.3379857505788095
 30
0.0
 42
0.4142137876727448
  0
VERTEX
  5
6073AA7
  8
1_OBJEKTE
  6
CONTINUOUS
 10
9741.7470546232070774
 20
5269.3379913252138067
 30
0.0
  0
VERTEX
  5
6073AA8
  8
1_OBJEKTE
  6
CONTINUOUS
 10
8589.2721723442373332
 20
5269.3371426087096552
 30
0.0
 42
0.9999999999999998
  0
VERTEX
  5
6073AA9
  8
1_OBJEKTE
  6
CONTINUOUS
 10
8589.2721723442064103
 20
5174.3371165183189078
 30
0.0
  0
VERTEX
  5
6073AAA
  8
1_OBJEKTE
  6
CONTINUOUS
 10
9617.2462093040248874
 20
5174.3371404410281684
 30
0.0
 42
-0.9999997008726941
  0
VERTEX
  5
6073AAB
  8
1_OBJEKTE
  6
CONTINUOUS
 10
9617.2461353172548115
 20
4927.3370925956105566
 30
0.0
  0
VERTEX
  5
6073AAC
  8
1_OBJEKTE
  6
CONTINUOUS
 10
8028.7721592990292265
 20
4927.3371165183189078
 30
0.0
 42
1.000008963583396
  0
VERTEX
  5
6073AAD
  8
1_OBJEKTE
  6
CONTINUOUS
 10
8028.7731598545497036
 20
4815.7121165183189078
 30
0.0
  0
VERTEX
  5
6073AAE
  8
1_OBJEKTE
  6
CONTINUOUS
 10
9620.2461592910422041
 20
4815.7121165183189078
 30
0.0
 42
-0.4142135623730951
  0
VERTEX
  5
6073AAF
  8
1_OBJEKTE
  6
CONTINUOUS
 10
9655.2461592910403851
 20
4780.7121165183189078
 30
0.0
  0
VERTEX
  5
6073AB0
  8
1_OBJEKTE
  6
CONTINUOUS
 10
9655.2461464943498868
 20
4743.8372846398124238
 30
0.0
 42
-0.4142135623730951
  0
VERTEX
  5
6073AB1
  8
1_OBJEKTE
  6
CONTINUOUS
 10
9620.2461464943480678
 20
4708.8372846398124238
 30
0.0
  0
VERTEX
  5
6073AB2
  8
1_OBJEKTE
  6
CONTINUOUS
 10
7835.6270767453816006
 20
4708.8372846398124238
 30
0.0
  0
SEQEND
  5
6073AB3
  8
1_OBJEKTE
  6
CONTINUOUS
  0
POLYLINE
  5
6073289
  8
2_HILFSLIN
  6
CONTINUOUS
 66
     1
 10
0.0
 20
0.0
 30
0.0
 70
     1
  0
VERTEX
  5
6073AB4
  8
2_HILFSLIN
  6
CONTINUOUS
 10
4471.5281511551293079
 20
4298.9622874398910426
 30
0.0
  0
VERTEX
  5
6073AB5
  8
2_HILFSLIN
  6
CONTINUOUS
 10
4474.9911511621030513
 20
4298.9622874398910426
 30
0.0
 42
-0.4142135623730951
  0
VERTEX
  5
6073AB6
  8
2_HILFSLIN
  6
CONTINUOUS
 10
4577.9911511621030513
 20
4195.9622874398919521
 30
0.0
  0
VERTEX
  5
6073AB7
  8
2_HILFSLIN
  6
CONTINUOUS
 10
4577.9911511621030513
 20
4131.5872874398919521
 30
0.0
 42
-0.4142135623730951
  0
VERTEX
  5
6073AB8
  8
2_HILFSLIN
  6
CONTINUOUS
 10
4474.9911511621030513
 20
4028.5872874398919521
 30
0.0
  0
VERTEX
  5
6073AB9
  8
2_HILFSLIN
  6
CONTINUOUS
 10
4368.4910259461466921
 20
4028.5872874398919521
 30
0.0
 42
0.4142131359457905
  0
VERTEX
  5
6073ABA
  8
2_HILFSLIN
  6
CONTINUOUS
 10
4321.4910259461903479
 20
3981.5873558678581503
 30
0.0
  0
VERTEX
  5
6073ABB
  8
2_HILFSLIN
  6
CONTINUOUS
 10
4321.4896511620900128
 20
3037.3117306592471323
 30
0.0
 42
1.0
  0
VERTEX
  5
6073ABC
  8
2_HILFSLIN
  6
CONTINUOUS
 10
4371.7406511621093159
 20
3037.311784644582076
 30
0.0
  0
VERTEX
  5
6073ABD
  8
2_HILFSLIN
  6
CONTINUOUS
 10
4371.7411511621030513
 20
3875.2123107123479713
 30
0.0
 42
-1.0
  0
VERTEX
  5
6073ABE
  8
2_HILFSLIN
  6
CONTINUOUS
 10
4577.9911511621030513
 20
3875.2122871180617949
 30
0.0
  0
VERTEX
  5
6073ABF
  8
2_HILFSLIN
  6
CONTINUOUS
 10
4577.9906511621084064
 20
3037.3117641674398328
 30
0.0
 42
1.0
  0
VERTEX
  5
6073AC0
  8
2_HILFSLIN
  6
CONTINUOUS
 10
4628.2416511620976962
 20
3037.311786294194917
 30
0.0
  0
VERTEX
  5
6073AC1
  8
2_HILFSLIN
  6
CONTINUOUS
 10
4628.242151162106893
 20
3875.2123107123479713
 30
0.0
 42
-1.0
  0
VERTEX
  5
6073AC2
  8
2_HILFSLIN
  6
CONTINUOUS
 10
4834.4921511621059835
 20
3875.2122871180617949
 30
0.0
  0
VERTEX
  5
6073AC3
  8
2_HILFSLIN
  6
CONTINUOUS
 10
4834.4916511620976962
 20
3037.3117293418617919
 30
0.0
 42
1.0
  0
VERTEX
  5
6073AC4
  8
2_HILFSLIN
  6
CONTINUOUS
 10
4884.7416511621258906
 20
3037.3117514685950482
 30
0.0
  0
VERTEX
  5
6073AC5
  8
2_HILFSLIN
  6
CONTINUOUS
 10
4884.7411928916699253
 20
3981.5873102496698266
 30
0.0
 42
0.4142134202278406
  0
VERTEX
  5
6073AC6
  8
2_HILFSLIN
  6
CONTINUOUS
 10
4837.7411928916699253
 20
4028.5872874398919521
 30
0.0
  0
VERTEX
  5
6073AC7
  8
2_HILFSLIN
  6
CONTINUOUS
 10
4731.2411511621030513
 20
4028.5872874398919521
 30
0.0
 42
-0.4142135623730958
  0
VERTEX
  5
6073AC8
  8
2_HILFSLIN
  6
CONTINUOUS
 10
4628.2411511621030513
 20
4131.5872874398919521
 30
0.0
  0
VERTEX
  5
6073AC9
  8
2_HILFSLIN
  6
CONTINUOUS
 10
4628.2411511621030513
 20
4195.9622874398919521
 30
0.0
 42
-0.4142135623730951
  0
VERTEX
  5
6073ACA
  8
2_HILFSLIN
  6
CONTINUOUS
 10
4731.2411511621030513
 20
4298.9622874398910426
 30
0.0
  0
VERTEX
  5
6073ACB
  8
2_HILFSLIN
  6
CONTINUOUS
 10
4736.8411511635931674
 20
4298.9622874398910426
 30
0.0
 42
0.4142135623730951
  0
VERTEX
  5
6073ACC
  8
2_HILFSLIN
  6
CONTINUOUS
 10
4766.8411511635931674
 20
4328.9622874398919521
 30
0.0
  0
VERTEX
  5
6073ACD
  8
2_HILFSLIN
  6
CONTINUOUS
 10
4766.8411511635931674
 20
4424.0608756807487225
 30
0.0
 42
0.4142135623730951
  0
VERTEX
  5
6073ACE
  8
2_HILFSLIN
  6
CONTINUOUS
 10
4736.8411511635931674
 20
4454.060875680747813
 30
0.0
  0
VERTEX
  5
6073ACF
  8
2_HILFSLIN
  6
CONTINUOUS
 10
4471.5281511551293079
 20
4454.060875680747813
 30
0.0
 42
0.4142135623730951
  0
VERTEX
  5
6073AD0
  8
2_HILFSLIN
  6
CONTINUOUS
 10
4441.5281511551293079
 20
4424.0608756807487225
 30
0.0
  0
VERTEX
  5
6073AD1
  8
2_HILFSLIN
  6
CONTINUOUS
 10
4441.5281511551293079
 20
4328.9622874398919521
 30
0.0
 42
0.4142135623730951
  0
SEQEND
  5
6073AD2
  8
2_HILFSLIN
  6
CONTINUOUS
  0
POLYLINE
  5
607328A
  8
2_HILFSLIN
  6
CONTINUOUS
 66
     1
 10
0.0
 20
0.0
 30
0.0
 70
     1
  0
VERTEX
  5
6073AD3
  8
2_HILFSLIN
  6
CONTINUOUS
 10
9726.7431465031841071
 20
3205.4332874399119646
 30
0.0
  0
VERTEX
  5
6073AD4
  8
2_HILFSLIN
  6
CONTINUOUS
 10
9876.7431465106055839
 20
3205.4332874399119646
 30
0.0
 42
-0.4142135623730951
  0
VERTEX
  5
6073AD5
  8
2_HILFSLIN
  6
CONTINUOUS
 10
9911.7431465106055839
 20
3170.4332874399119646
 30
0.0
  0
VERTEX
  5
6073AD6
  8
2_HILFSLIN
  6
CONTINUOUS
 10
9911.7431465106055839
 20
3058.9332874399110551
 30
0.0
 42
-0.4142135623730241
  0
VERTEX
  5
6073AD7
  8
2_HILFSLIN
  6
CONTINUOUS
 10
9896.7431465106074029
 20
3043.9332874399187858
 30
0.0
  0
VERTEX
  5
6073AD8
  8
2_HILFSLIN
  6
CONTINUOUS
 10
9649.0088862443517428
 20
3043.9332874399187858
 30
0.0
  0
VERTEX
  5
6073AD9
  8
2_HILFSLIN
  6
CONTINUOUS
 10
6029.1176465085882228
 20
3043.9332874399187858
 30
0.0
 42
-1.0
  0
VERTEX
  5
6073ADA
  8
2_HILFSLIN
  6
CONTINUOUS
 10
6029.1176465085882228
 20
3094.1832874399187858
 30
0.0
  0
VERTEX
  5
6073ADB
  8
2_HILFSLIN
  6
CONTINUOUS
 10
7766.6176465058806571
 20
3094.1832874399187858
 30
0.0
  0
VERTEX
  5
6073ADC
  8
2_HILFSLIN
  6
CONTINUOUS
 10
9676.7431465031841071
 20
3094.1832874399337925
 30
0.0
 42
0.4142135623731463
  0
VERTEX
  5
6073ADD
  8
2_HILFSLIN
  6
CONTINUOUS
 10
9711.7431465031841071
 20
3129.1832874399410684
 30
0.0
  0
VERTEX
  5
6073ADE
  8
2_HILFSLIN
  6
CONTINUOUS
 10
9711.7431465031841071
 20
3190.4332874399119646
 30
0.0
 42
-0.4142135623731015
  0
SEQEND
  5
6073ADF
  8
2_HILFSLIN
  6
CONTINUOUS
  0
POLYLINE
  5
607328B
  8
2_HILFSLIN
  6
CONTINUOUS
 66
     1
 10
0.0
 20
0.0
 30
0.0
 70
     1
  0
VERTEX
  5
6073AE0
  8
2_HILFSLIN
  6
CONTINUOUS
 10
1468.7703303159501047
 20
5387.3612182967699482
 30
0.0
  0
VERTEX
  5
6073AE1
  8
2_HILFSLIN
  6
CONTINUOUS
 10
1468.7703303159501047
 20
4982.5862182967675835
 30
0.0
 42
-0.4142135623730951
  0
VERTEX
  5
6073AE2
  8
2_HILFSLIN
  6
CONTINUOUS
 10
1436.2703303159501047
 20
4950.0862182967675835
 30
0.0
 42
-0.4142135623730951
  0
VERTEX
  5
6073AE3
  8
2_HILFSLIN
  6
CONTINUOUS
 10
1403.7703303159501047
 20
4982.5862182967675835
 30
0.0
  0
VERTEX
  5
6073AE4
  8
2_HILFSLIN
  6
CONTINUOUS
 10
1403.7703303159501047
 20
5387.3612182967699482
 30
0.0
 42
-0.4142135623730951
  0
VERTEX
  5
6073AE5
  8
2_HILFSLIN
  6
CONTINUOUS
 10
1436.2703303159501047
 20
5419.8612182967699482
 30
0.0
 42
-0.4142135623730951
  0
SEQEND
  5
6073AE6
  8
2_HILFSLIN
  6
CONTINUOUS
  0
CIRCLE
  5
607328C
  8
2_HILFSLIN
  6
CONTINUOUS
 10
2306.0211465077600224
 20
5136.3375374399038265
 30
0.0
 40
85.7500000000000142
  0
POLYLINE
  5
607328D
  8
2_HILFSLIN
  6
CONTINUOUS
 66
     1
 10
0.0
 20
0.0
 30
0.0
 70
     1
  0
VERTEX
  5
6073AE7
  8
2_HILFSLIN
  6
CONTINUOUS
 10
3089.0201465131831355
 20
5018.7718142137391624
 30
0.0
 42
0.9999612925372332
  0
VERTEX
  5
6073AE8
  8
2_HILFSLIN
  6
CONTINUOUS
 10
3260.5201465251161608
 20
5018.7721222077088896
 30
0.0
  0
VERTEX
  5
6073AE9
  8
2_HILFSLIN
  6
CONTINUOUS
 10
3260.5201465204590932
 20
5339.3962834303529235
 30
0.0
 42
1.000001990669162
  0
VERTEX
  5
6073AEA
  8
2_HILFSLIN
  6
CONTINUOUS
 10
3089.0201465208378977
 20
5339.3962930081097511
 30
0.0
  0
SEQEND
  5
6073AEB
  8
2_HILFSLIN
  6
CONTINUOUS
  0
POLYLINE
  5
607328E
  8
2_HILFSLIN
  6
CONTINUOUS
 66
     1
 10
0.0
 20
0.0
 30
0.0
 70
     1
  0
VERTEX
  5
6073AEC
  8
2_HILFSLIN
  6
CONTINUOUS
 10
4034.8931318640970858
 20
5310.96334672656576
 30
0.0
  0
VERTEX
  5
6073AED
  8
2_HILFSLIN
  6
CONTINUOUS
 10
4034.8930432584302253
 20
5100.8372904985726564
 30
0.0
 42
-0.4142135623730951
  0
VERTEX
  5
6073AEE
  8
2_HILFSLIN
  6
CONTINUOUS
 10
4002.3930432584320442
 20
5068.3372883901756722
 30
0.0
 42
-0.4142135623730951
  0
VERTEX
  5
6073AEF
  8
2_HILFSLIN
  6
CONTINUOUS
 10
3969.8930432584311347
 20
5100.8372883901756722
 30
0.0
  0
VERTEX
  5
6073AF0
  8
2_HILFSLIN
  6
CONTINUOUS
 10
3969.8931318640970858
 20
5310.9633446181760519
 30
0.0
 42
-0.4142135623730951
  0
VERTEX
  5
6073AF1
  8
2_HILFSLIN
  6
CONTINUOUS
 10
4002.3931318640970858
 20
5343.4633467265666695
 30
0.0
 42
-0.4142135623730951
  0
SEQEND
  5
6073AF2
  8
2_HILFSLIN
  6
CONTINUOUS
  0
POLYLINE
  5
607328F
  8
2_HILFSLIN
  6
CONTINUOUS
 66
     1
 10
0.0
 20
0.0
 30
0.0
 70
     1
  0
VERTEX
  5
6073AF3
  8
2_HILFSLIN
  6
CONTINUOUS
 10
4813.7408156779420096
 20
5290.087287439899228
 30
0.0
  0
VERTEX
  5
6073AF4
  8
2_HILFSLIN
  6
CONTINUOUS
 10
5144.372470412941766
 20
5290.0872874398919521
 30
0.0
 42
-0.4156536597883818
  0
VERTEX
  5
6073AF5
  8
2_HILFSLIN
  6
CONTINUOUS
 10
5179.3720477835304337
 20
5254.9152877885635462
 30
0.0
  0
VERTEX
  5
6073AF6
  8
2_HILFSLIN
  6
CONTINUOUS
 10
5178.2048931988247205
 20
5017.4152877885653652
 30
0.0
 42
-0.4127749299210434
  0
VERTEX
  5
6073AF7
  8
2_HILFSLIN
  6
CONTINUOUS
 10
5143.2053158282360528
 20
4982.5872874398910426
 30
0.0
  0
VERTEX
  5
6073AF8
  8
2_HILFSLIN
  6
CONTINUOUS
 10
4812.5736610932217445
 20
4982.587287439899228
 30
0.0
 42
-0.4156536597883832
  0
VERTEX
  5
6073AF9
  8
2_HILFSLIN
  6
CONTINUOUS
 10
4777.5740837226321673
 20
5017.7592870912267244
 30
0.0
  0
VERTEX
  5
6073AFA
  8
2_HILFSLIN
  6
CONTINUOUS
 10
4778.741238307353342
 20
5255.2592870912267244
 30
0.0
 42
-0.4127749299210437
  0
SEQEND
  5
6073AFB
  8
2_HILFSLIN
  6
CONTINUOUS
  0
POLYLINE
  5
6073290
  8
2_HILFSLIN
  6
CONTINUOUS
 66
     1
 10
0.0
 20
0.0
 30
0.0
 70
     1
  0
VERTEX
  5
6073AFC
  8
2_HILFSLIN
  6
CONTINUOUS
 10
7393.3931465137866326
 20
5153.6162874164356253
 30
0.0
  0
VERTEX
  5
6073AFD
  8
2_HILFSLIN
  6
CONTINUOUS
 10
7355.3931464982006219
 20
5153.6162874164356253
 30
0.0
 42
0.4502771237806869
  0
VERTEX
  5
6073AFE
  8
2_HILFSLIN
  6
CONTINUOUS
 10
7326.2681464982024409
 20
5118.6162874164356253
 30
0.0
  0
VERTEX
  5
6073AFF
  8
2_HILFSLIN
  6
CONTINUOUS
 10
7326.2681464979841621
 20
4997.5872874398919521
 30
0.0
 42
0.4142135623730951
  0
VERTEX
  5
6073B00
  8
2_HILFSLIN
  6
CONTINUOUS
 10
7361.2681464979832526
 20
4962.5872874398919521
 30
0.0
  0
VERTEX
  5
6073B01
  8
2_HILFSLIN
  6
CONTINUOUS
 10
7526.2681464995112037
 20
4962.5872874398919521
 30
0.0
  0
VERTEX
  5
6073B02
  8
2_HILFSLIN
  6
CONTINUOUS
 10
7691.2681464996130671
 20
4962.5872874398919521
 30
0.0
 42
0.4142135623730951
  0
VERTEX
  5
6073B03
  8
2_HILFSLIN
  6
CONTINUOUS
 10
7726.2681464996130671
 20
4997.5872874398919521
 30
0.0
  0
VERTEX
  5
6073B04
  8
2_HILFSLIN
  6
CONTINUOUS
 10
7726.2681464994093403
 20
5118.6162874164356253
 30
0.0
 42
0.4502771237806869
  0
VERTEX
  5
6073B05
  8
2_HILFSLIN
  6
CONTINUOUS
 10
7697.1431464994102498
 20
5153.6162874164356253
 30
0.0
  0
VERTEX
  5
6073B06
  8
2_HILFSLIN
  6
CONTINUOUS
 10
7659.1431464987690561
 20
5153.6162874164356253
 30
0.0
 42
-0.4169730541007399
  0
VERTEX
  5
6073B07
  8
2_HILFSLIN
  6
CONTINUOUS
 10
7566.2681464930356015
 20
5247.7412874177171034
 30
0.0
  0
VERTEX
  5
6073B08
  8
2_HILFSLIN
  6
CONTINUOUS
 10
7566.2681464988845619
 20
5432.8671767096675467
 30
0.0
 42
0.4142135623730218
  0
VERTEX
  5
6073B09
  8
2_HILFSLIN
  6
CONTINUOUS
 10
7526.2681465001523975
 20
5472.8671767109117354
 30
0.0
  0
VERTEX
  5
6073B0A
  8
2_HILFSLIN
  6
CONTINUOUS
 10
7526.268146498099668
 20
5472.8671767109117354
 30
0.0
  0
VERTEX
  5
6073B0B
  8
2_HILFSLIN
  6
CONTINUOUS
 10
7526.2681464974593837
 20
5472.8671767109117354
 30
0.0
 42
0.4142135623730218
  0
VERTEX
  5
6073B0C
  8
2_HILFSLIN
  6
CONTINUOUS
 10
7486.2681464987099389
 20
5432.8671767096675467
 30
0.0
  0
VERTEX
  5
6073B0D
  8
2_HILFSLIN
  6
CONTINUOUS
 10
7486.2681465045752702
 20
5247.7412874177171034
 30
0.0
 42
-0.4169730541007399
  0
VERTEX
  5
6073B0E
  8
2_HILFSLIN
  6
CONTINUOUS
 10
7393.3931464988272637
 20
5153.6162874164356253
 30
0.0
  0
SEQEND
  5
6073B0F
  8
2_HILFSLIN
  6
CONTINUOUS
  0
POLYLINE
  5
6073291
  8
2_HILFSLIN
  6
CONTINUOUS
 66
     1
 10
0.0
 20
0.0
 30
0.0
 70
     1
  0
VERTEX
  5
6073B10
  8
2_HILFSLIN
  6
CONTINUOUS
 10
6545.893146523406358
 20
5153.6162874164356253
 30
0.0
  0
VERTEX
  5
6073B11
  8
2_HILFSLIN
  6
CONTINUOUS
 10
6507.8931465078203473
 20
5153.6162874164356253
 30
0.0
 42
0.4502771237806869
  0
VERTEX
  5
6073B12
  8
2_HILFSLIN
  6
CONTINUOUS
 10
6478.7681465078212568
 20
5118.6162874164356253
 30
0.0
  0
VERTEX
  5
6073B13
  8
2_HILFSLIN
  6
CONTINUOUS
 10
6478.768146507615711
 20
4997.5872874398919521
 30
0.0
 42
0.4142135623730951
  0
VERTEX
  5
6073B14
  8
2_HILFSLIN
  6
CONTINUOUS
 10
6513.7681465076166205
 20
4962.5872874398919521
 30
0.0
  0
VERTEX
  5
6073B15
  8
2_HILFSLIN
  6
CONTINUOUS
 10
6678.7681465091291102
 20
4962.5872874398919521
 30
0.0
  0
VERTEX
  5
6073B16
  8
2_HILFSLIN
  6
CONTINUOUS
 10
6843.7681465092473445
 20
4962.5872874398919521
 30
0.0
 42
0.4142135623730951
  0
VERTEX
  5
6073B17
  8
2_HILFSLIN
  6
CONTINUOUS
 10
6878.768146509246435
 20
4997.5872874398919521
 30
0.0
  0
VERTEX
  5
6073B18
  8
2_HILFSLIN
  6
CONTINUOUS
 10
6878.7681465090281563
 20
5118.6162874164356253
 30
0.0
 42
0.4502771237806869
  0
VERTEX
  5
6073B19
  8
2_HILFSLIN
  6
CONTINUOUS
 10
6849.6431465090281563
 20
5153.6162874164356253
 30
0.0
  0
VERTEX
  5
6073B1A
  8
2_HILFSLIN
  6
CONTINUOUS
 10
6811.6431465084006049
 20
5153.6162874164356253
 30
0.0
 42
-0.4169730541007399
  0
VERTEX
  5
6073B1B
  8
2_HILFSLIN
  6
CONTINUOUS
 10
6718.7681465026544174
 20
5247.7412874177171034
 30
0.0
  0
VERTEX
  5
6073B1C
  8
2_HILFSLIN
  6
CONTINUOUS
 10
6718.7681465085188393
 20
5432.8671767096675467
 30
0.0
 42
0.4142135623730218
  0
VERTEX
  5
6073B1D
  8
2_HILFSLIN
  6
CONTINUOUS
 10
6678.7681465097712135
 20
5472.8671767109117354
 30
0.0
  0
VERTEX
  5
6073B1E
  8
2_HILFSLIN
  6
CONTINUOUS
 10
6678.7681465077175744
 20
5472.8671767109117354
 30
0.0
  0
VERTEX
  5
6073B1F
  8
2_HILFSLIN
  6
CONTINUOUS
 10
6678.7681465070791091
 20
5472.8671767109117354
 30
0.0
 42
0.4142135623730218
  0
VERTEX
  5
6073B20
  8
2_HILFSLIN
  6
CONTINUOUS
 10
6638.7681465083442163
 20
5432.8671767096675467
 30
0.0
  0
VERTEX
  5
6073B21
  8
2_HILFSLIN
  6
CONTINUOUS
 10
6638.7681465141940862
 20
5247.7412874177171034
 30
0.0
 42
-0.4169730541007399
  0
VERTEX
  5
6073B22
  8
2_HILFSLIN
  6
CONTINUOUS
 10
6545.8931465084597221
 20
5153.6162874164356253
 30
0.0
  0
SEQEND
  5
6073B23
  8
2_HILFSLIN
  6
CONTINUOUS
  0
POLYLINE
  5
6073292
  8
2_HILFSLIN
  6
CONTINUOUS
 66
     1
 10
0.0
 20
0.0
 30
0.0
 70
     1
  0
VERTEX
  5
6073B24
  8
2_HILFSLIN
  6
CONTINUOUS
 10
5695.893146523406358
 20
5153.6162874164356253
 30
0.0
  0
VERTEX
  5
6073B25
  8
2_HILFSLIN
  6
CONTINUOUS
 10
5657.8931465078203473
 20
5153.6162874164356253
 30
0.0
 42
0.4502771237806869
  0
VERTEX
  5
6073B26
  8
2_HILFSLIN
  6
CONTINUOUS
 10
5628.7681465078203473
 20
5118.6162874164356253
 30
0.0
  0
VERTEX
  5
6073B27
  8
2_HILFSLIN
  6
CONTINUOUS
 10
5628.7681465076166205
 20
4997.5872874398919521
 30
0.0
 42
0.4142135623730951
  0
VERTEX
  5
6073B28
  8
2_HILFSLIN
  6
CONTINUOUS
 10
5663.7681465076166205
 20
4962.5872874398919521
 30
0.0
  0
VERTEX
  5
6073B29
  8
2_HILFSLIN
  6
CONTINUOUS
 10
5828.7681465091300197
 20
4962.5872874398919521
 30
0.0
  0
VERTEX
  5
6073B2A
  8
2_HILFSLIN
  6
CONTINUOUS
 10
5993.768146509246435
 20
4962.5872874398919521
 30
0.0
 42
0.4142135623730951
  0
VERTEX
  5
6073B2B
  8
2_HILFSLIN
  6
CONTINUOUS
 10
6028.768146509246435
 20
4997.5872874398919521
 30
0.0
  0
VERTEX
  5
6073B2C
  8
2_HILFSLIN
  6
CONTINUOUS
 10
6028.7681465090281563
 20
5118.6162874164356253
 30
0.0
 42
0.4502771237806869
  0
VERTEX
  5
6073B2D
  8
2_HILFSLIN
  6
CONTINUOUS
 10
5999.6431465090281563
 20
5153.6162874164356253
 30
0.0
  0
VERTEX
  5
6073B2E
  8
2_HILFSLIN
  6
CONTINUOUS
 10
5961.6431465084033334
 20
5153.6162874164356253
 30
0.0
 42
-0.4169730541007399
  0
VERTEX
  5
6073B2F
  8
2_HILFSLIN
  6
CONTINUOUS
 10
5868.7681465026544174
 20
5247.7412874177171034
 30
0.0
  0
VERTEX
  5
6073B30
  8
2_HILFSLIN
  6
CONTINUOUS
 10
5868.7681465085188393
 20
5432.8671767096675467
 30
0.0
 42
0.4142135623730218
  0
VERTEX
  5
6073B31
  8
2_HILFSLIN
  6
CONTINUOUS
 10
5828.768146509770304
 20
5472.8671767109117354
 30
0.0
  0
VERTEX
  5
6073B32
  8
2_HILFSLIN
  6
CONTINUOUS
 10
5828.7681465077193934
 20
5472.8671767109117354
 30
0.0
  0
VERTEX
  5
6073B33
  8
2_HILFSLIN
  6
CONTINUOUS
 10
5828.7681465070781996
 20
5472.8671767109117354
 30
0.0
 42
0.4142135623730218
  0
VERTEX
  5
6073B34
  8
2_HILFSLIN
  6
CONTINUOUS
 10
5788.7681465083451258
 20
5432.8671767096675467
 30
0.0
  0
VERTEX
  5
6073B35
  8
2_HILFSLIN
  6
CONTINUOUS
 10
5788.7681465141940862
 20
5247.7412874177171034
 30
0.0
 42
-0.4169730541007399
  0
VERTEX
  5
6073B36
  8
2_HILFSLIN
  6
CONTINUOUS
 10
5695.8931465084606316
 20
5153.6162874164356253
 30
0.0
  0
SEQEND
  5
6073B37
  8
2_HILFSLIN
  6
CONTINUOUS
  0
POLYLINE
  5
6073293
  8
2_HILFSLIN
  6
CONTINUOUS
 66
     1
 10
0.0
 20
0.0
 30
0.0
 70
     1
  0
VERTEX
  5
6073B38
  8
2_HILFSLIN
  6
CONTINUOUS
 10
1468.7743303091560847
 20
2166.4133565830270527
 30
0.0
  0
VERTEX
  5
6073B39
  8
2_HILFSLIN
  6
CONTINUOUS
 10
1468.7743303091560847
 20
2571.1883565830289626
 30
0.0
 42
0.4142135623730951
  0
VERTEX
  5
6073B3A
  8
2_HILFSLIN
  6
CONTINUOUS
 10
1436.2743303091560847
 20
2603.6883565830289626
 30
0.0
 42
0.4142135623730951
  0
VERTEX
  5
6073B3B
  8
2_HILFSLIN
  6
CONTINUOUS
 10
1403.7743303091549478
 20
2571.1883565830289626
 30
0.0
  0
VERTEX
  5
6073B3C
  8
2_HILFSLIN
  6
CONTINUOUS
 10
1403.7743303091549478
 20
2166.4133565830270527
 30
0.0
 42
0.4142135623730951
  0
VERTEX
  5
6073B3D
  8
2_HILFSLIN
  6
CONTINUOUS
 10
1436.2743303091560847
 20
2133.9133565830270527
 30
0.0
 42
0.4142135623730951
  0
SEQEND
  5
6073B3E
  8
2_HILFSLIN
  6
CONTINUOUS
  0
CIRCLE
  5
6073294
  8
2_HILFSLIN
  6
CONTINUOUS
 10
2306.0251465009641834
 20
2417.4370374398931745
 30
0.0
 40
85.7500000000000142
  0
POLYLINE
  5
6073295
  8
2_HILFSLIN
  6
CONTINUOUS
 66
     1
 10
0.0
 20
0.0
 30
0.0
 70
     1
  0
VERTEX
  5
6073B3F
  8
2_HILFSLIN
  6
CONTINUOUS
 10
3089.0241465063891155
 20
2535.0027606660592028
 30
0.0
 42
-0.9999612925372332
  0
VERTEX
  5
6073B40
  8
2_HILFSLIN
  6
CONTINUOUS
 10
3260.5241465183207765
 20
2535.0024526720890208
 30
0.0
  0
VERTEX
  5
6073B41
  8
2_HILFSLIN
  6
CONTINUOUS
 10
3260.5241465136641636
 20
2214.3782914494440774
 30
0.0
 42
-1.000001990669162
  0
VERTEX
  5
6073B42
  8
2_HILFSLIN
  6
CONTINUOUS
 10
3089.0241465140429682
 20
2214.3782818716858856
 30
0.0
  0
SEQEND
  5
6073B43
  8
2_HILFSLIN
  6
CONTINUOUS
  0
POLYLINE
  5
6073296
  8
2_HILFSLIN
  6
CONTINUOUS
 66
     1
 10
0.0
 20
0.0
 30
0.0
 70
     1
  0
VERTEX
  5
6073B44
  8
2_HILFSLIN
  6
CONTINUOUS
 10
4034.897131857300792
 20
2242.8112281532307861
 30
0.0
  0
VERTEX
  5
6073B45
  8
2_HILFSLIN
  6
CONTINUOUS
 10
4034.8970432516362052
 20
2452.9372843812238898
 30
0.0
 42
0.4142135623730951
  0
VERTEX
  5
6073B46
  8
2_HILFSLIN
  6
CONTINUOUS
 10
4002.3970432516362052
 20
2485.4372864896208739
 30
0.0
 42
0.4142135623730951
  0
VERTEX
  5
6073B47
  8
2_HILFSLIN
  6
CONTINUOUS
 10
3969.8970432516362052
 20
2452.9372864896217834
 30
0.0
  0
VERTEX
  5
6073B48
  8
2_HILFSLIN
  6
CONTINUOUS
 10
3969.8971318573021563
 20
2242.811230261620949
 30
0.0
 42
0.4142135623730951
  0
VERTEX
  5
6073B49
  8
2_HILFSLIN
  6
CONTINUOUS
 10
4002.3971318573030658
 20
2210.3112281532298766
 30
0.0
 42
0.4142135623730951
  0
SEQEND
  5
6073B4A
  8
2_HILFSLIN
  6
CONTINUOUS
  0
POLYLINE
  5
6073297
  8
2_HILFSLIN
  6
CONTINUOUS
 66
     1
 10
0.0
 20
0.0
 30
0.0
 70
     1
  0
VERTEX
  5
6073B4B
  8
2_HILFSLIN
  6
CONTINUOUS
 10
4813.7448156711470801
 20
2263.6872874398977729
 30
0.0
  0
VERTEX
  5
6073B4C
  8
2_HILFSLIN
  6
CONTINUOUS
 10
5144.3764704061468365
 20
2263.6872874399050488
 30
0.0
 42
0.4156536597883818
  0
VERTEX
  5
6073B4D
  8
2_HILFSLIN
  6
CONTINUOUS
 10
5179.3760477767345947
 20
2298.8592870912320905
 30
0.0
  0
VERTEX
  5
6073B4E
  8
2_HILFSLIN
  6
CONTINUOUS
 10
5178.208893192029791
 20
2536.359287091233
 30
0.0
 42
0.4127749299210434
  0
VERTEX
  5
6073B4F
  8
2_HILFSLIN
  6
CONTINUOUS
 10
5143.2093158214411233
 20
2571.1872874399050488
 30
0.0
  0
VERTEX
  5
6073B50
  8
2_HILFSLIN
  6
CONTINUOUS
 10
4812.577661086426815
 20
2571.1872874398977729
 30
0.0
 42
0.4156536597883832
  0
VERTEX
  5
6073B51
  8
2_HILFSLIN
  6
CONTINUOUS
 10
4777.5780837158372378
 20
2536.015287788571186
 30
0.0
  0
VERTEX
  5
6073B52
  8
2_HILFSLIN
  6
CONTINUOUS
 10
4778.7452383005584124
 20
2298.5152877885698217
 30
0.0
 42
0.4127749299210437
  0
SEQEND
  5
6073B53
  8
2_HILFSLIN
  6
CONTINUOUS
  0
POLYLINE
  5
6073298
  8
2_HILFSLIN
  6
CONTINUOUS
 66
     1
 10
0.0
 20
0.0
 30
0.0
 70
     1
  0
VERTEX
  5
6073B54
  8
2_HILFSLIN
  6
CONTINUOUS
 10
7393.3971465069907936
 20
2400.1582874633609208
 30
0.0
  0
VERTEX
  5
6073B55
  8
2_HILFSLIN
  6
CONTINUOUS
 10
7355.3971464914066019
 20
2400.1582874633609208
 30
0.0
 42
-0.4502771237806869
  0
VERTEX
  5
6073B56
  8
2_HILFSLIN
  6
CONTINUOUS
 10
7326.2721464914056924
 20
2435.1582874633609208
 30
0.0
  0
VERTEX
  5
6073B57
  8
2_HILFSLIN
  6
CONTINUOUS
 10
7326.2721464911892326
 20
2556.1872874399050488
 30
0.0
 42
-0.4142135623730951
  0
VERTEX
  5
6073B58
  8
2_HILFSLIN
  6
CONTINUOUS
 10
7361.2721464911883231
 20
2591.1872874399050488
 30
0.0
  0
VERTEX
  5
6073B59
  8
2_HILFSLIN
  6
CONTINUOUS
 10
7526.2721464927171837
 20
2591.1872874399050488
 30
0.0
  0
VERTEX
  5
6073B5A
  8
2_HILFSLIN
  6
CONTINUOUS
 10
7691.2721464928181376
 20
2591.1872874399050488
 30
0.0
 42
-0.4142135623730951
  0
VERTEX
  5
6073B5B
  8
2_HILFSLIN
  6
CONTINUOUS
 10
7726.2721464928172281
 20
2556.1872874399050488
 30
0.0
  0
VERTEX
  5
6073B5C
  8
2_HILFSLIN
  6
CONTINUOUS
 10
7726.2721464926153203
 20
2435.1582874633609208
 30
0.0
 42
-0.4502771237806869
  0
VERTEX
  5
6073B5D
  8
2_HILFSLIN
  6
CONTINUOUS
 10
7697.1471464926144108
 20
2400.1582874633609208
 30
0.0
  0
VERTEX
  5
6073B5E
  8
2_HILFSLIN
  6
CONTINUOUS
 10
7659.1471464919741265
 20
2400.1582874633609208
 30
0.0
 42
0.4169730541007399
  0
VERTEX
  5
6073B5F
  8
2_HILFSLIN
  6
CONTINUOUS
 10
7566.2721464862406719
 20
2306.0332874620798975
 30
0.0
  0
VERTEX
  5
6073B60
  8
2_HILFSLIN
  6
CONTINUOUS
 10
7566.2721464920914514
 20
2120.907398170129909
 30
0.0
 42
-0.4142135623730218
  0
VERTEX
  5
6073B61
  8
2_HILFSLIN
  6
CONTINUOUS
 10
7526.272146493355649
 20
2080.907398168886175
 30
0.0
  0
VERTEX
  5
6073B62
  8
2_HILFSLIN
  6
CONTINUOUS
 10
7526.272146491303829
 20
2080.907398168886175
 30
0.0
  0
VERTEX
  5
6073B63
  8
2_HILFSLIN
  6
CONTINUOUS
 10
7526.2721464906653637
 20
2080.907398168886175
 30
0.0
 42
-0.4142135623730218
  0
VERTEX
  5
6073B64
  8
2_HILFSLIN
  6
CONTINUOUS
 10
7486.2721464919159189
 20
2120.907398170129909
 30
0.0
  0
VERTEX
  5
6073B65
  8
2_HILFSLIN
  6
CONTINUOUS
 10
7486.2721464977812502
 20
2306.0332874620798975
 30
0.0
 42
0.4169730541007399
  0
VERTEX
  5
6073B66
  8
2_HILFSLIN
  6
CONTINUOUS
 10
7393.3971464920323342
 20
2400.1582874633609208
 30
0.0
  0
SEQEND
  5
6073B67
  8
2_HILFSLIN
  6
CONTINUOUS
  0
POLYLINE
  5
6073299
  8
2_HILFSLIN
  6
CONTINUOUS
 66
     1
 10
0.0
 20
0.0
 30
0.0
 70
     1
  0
VERTEX
  5
6073B68
  8
2_HILFSLIN
  6
CONTINUOUS
 10
6545.8971465166096095
 20
2400.1582874633609208
 30
0.0
  0
VERTEX
  5
6073B69
  8
2_HILFSLIN
  6
CONTINUOUS
 10
6507.8971465010263273
 20
2400.1582874633609208
 30
0.0
 42
-0.4502771237806869
  0
VERTEX
  5
6073B6A
  8
2_HILFSLIN
  6
CONTINUOUS
 10
6478.7721465010254178
 20
2435.1582874633609208
 30
0.0
  0
VERTEX
  5
6073B6B
  8
2_HILFSLIN
  6
CONTINUOUS
 10
6478.772146500821691
 20
2556.1872874399050488
 30
0.0
 42
-0.4142135623730951
  0
VERTEX
  5
6073B6C
  8
2_HILFSLIN
  6
CONTINUOUS
 10
6513.7721465008207815
 20
2591.1872874399050488
 30
0.0
  0
VERTEX
  5
6073B6D
  8
2_HILFSLIN
  6
CONTINUOUS
 10
6678.7721465023350902
 20
2591.1872874399050488
 30
0.0
  0
VERTEX
  5
6073B6E
  8
2_HILFSLIN
  6
CONTINUOUS
 10
6843.772146502452415
 20
2591.1872874399050488
 30
0.0
 42
-0.4142135623730951
  0
VERTEX
  5
6073B6F
  8
2_HILFSLIN
  6
CONTINUOUS
 10
6878.772146502452415
 20
2556.1872874399050488
 30
0.0
  0
VERTEX
  5
6073B70
  8
2_HILFSLIN
  6
CONTINUOUS
 10
6878.7721465022332268
 20
2435.1582874633609208
 30
0.0
 42
-0.4502771237806869
  0
VERTEX
  5
6073B71
  8
2_HILFSLIN
  6
CONTINUOUS
 10
6849.6471465022341363
 20
2400.1582874633609208
 30
0.0
  0
VERTEX
  5
6073B72
  8
2_HILFSLIN
  6
CONTINUOUS
 10
6811.6471465016065849
 20
2400.1582874633609208
 30
0.0
 42
0.4169730541007399
  0
VERTEX
  5
6073B73
  8
2_HILFSLIN
  6
CONTINUOUS
 10
6718.7721464958603974
 20
2306.0332874620798975
 30
0.0
  0
VERTEX
  5
6073B74
  8
2_HILFSLIN
  6
CONTINUOUS
 10
6718.7721465017239098
 20
2120.907398170129909
 30
0.0
 42
-0.4142135623730218
  0
VERTEX
  5
6073B75
  8
2_HILFSLIN
  6
CONTINUOUS
 10
6678.772146502976284
 20
2080.907398168886175
 30
0.0
  0
VERTEX
  5
6073B76
  8
2_HILFSLIN
  6
CONTINUOUS
 10
6678.7721465009235544
 20
2080.907398168886175
 30
0.0
  0
VERTEX
  5
6073B77
  8
2_HILFSLIN
  6
CONTINUOUS
 10
6678.7721465002832701
 20
2080.907398168886175
 30
0.0
 42
-0.4142135623730218
  0
VERTEX
  5
6073B78
  8
2_HILFSLIN
  6
CONTINUOUS
 10
6638.7721465015492868
 20
2120.907398170129909
 30
0.0
  0
VERTEX
  5
6073B79
  8
2_HILFSLIN
  6
CONTINUOUS
 10
6638.7721465073991567
 20
2306.0332874620798975
 30
0.0
 42
0.4169730541007399
  0
VERTEX
  5
6073B7A
  8
2_HILFSLIN
  6
CONTINUOUS
 10
6545.8971465016647926
 20
2400.1582874633609208
 30
0.0
  0
SEQEND
  5
6073B7B
  8
2_HILFSLIN
  6
CONTINUOUS
  0
POLYLINE
  5
607329A
  8
2_HILFSLIN
  6
CONTINUOUS
 66
     1
 10
0.0
 20
0.0
 30
0.0
 70
     1
  0
VERTEX
  5
6073B7C
  8
2_HILFSLIN
  6
CONTINUOUS
 10
5695.8971465166096095
 20
2400.1582874633609208
 30
0.0
  0
VERTEX
  5
6073B7D
  8
2_HILFSLIN
  6
CONTINUOUS
 10
5657.8971465010254178
 20
2400.1582874633609208
 30
0.0
 42
-0.4502771237806869
  0
VERTEX
  5
6073B7E
  8
2_HILFSLIN
  6
CONTINUOUS
 10
5628.7721465010263273
 20
2435.1582874633609208
 30
0.0
  0
VERTEX
  5
6073B7F
  8
2_HILFSLIN
  6
CONTINUOUS
 10
5628.7721465008207815
 20
2556.1872874399050488
 30
0.0
 42
-0.4142135623730951
  0
VERTEX
  5
6073B80
  8
2_HILFSLIN
  6
CONTINUOUS
 10
5663.7721465008207815
 20
2591.1872874399050488
 30
0.0
  0
VERTEX
  5
6073B81
  8
2_HILFSLIN
  6
CONTINUOUS
 10
5828.7721465023350902
 20
2591.1872874399050488
 30
0.0
  0
VERTEX
  5
6073B82
  8
2_HILFSLIN
  6
CONTINUOUS
 10
5993.772146502450596
 20
2591.1872874399050488
 30
0.0
 42
-0.4142135623730951
  0
VERTEX
  5
6073B83
  8
2_HILFSLIN
  6
CONTINUOUS
 10
6028.772146502450596
 20
2556.1872874399050488
 30
0.0
  0
VERTEX
  5
6073B84
  8
2_HILFSLIN
  6
CONTINUOUS
 10
6028.7721465022341363
 20
2435.1582874633609208
 30
0.0
 42
-0.4502771237806869
  0
VERTEX
  5
6073B85
  8
2_HILFSLIN
  6
CONTINUOUS
 10
5999.6471465022332268
 20
2400.1582874633609208
 30
0.0
  0
VERTEX
  5
6073B86
  8
2_HILFSLIN
  6
CONTINUOUS
 10
5961.6471465016084039
 20
2400.1582874633609208
 30
0.0
 42
0.4169730541007399
  0
VERTEX
  5
6073B87
  8
2_HILFSLIN
  6
CONTINUOUS
 10
5868.7721464958603974
 20
2306.0332874620798975
 30
0.0
  0
VERTEX
  5
6073B88
  8
2_HILFSLIN
  6
CONTINUOUS
 10
5868.7721465017239098
 20
2120.907398170129909
 30
0.0
 42
-0.4142135623730218
  0
VERTEX
  5
6073B89
  8
2_HILFSLIN
  6
CONTINUOUS
 10
5828.7721465029753745
 20
2080.907398168886175
 30
0.0
  0
VERTEX
  5
6073B8A
  8
2_HILFSLIN
  6
CONTINUOUS
 10
5828.7721465009235544
 20
2080.907398168886175
 30
0.0
  0
VERTEX
  5
6073B8B
  8
2_HILFSLIN
  6
CONTINUOUS
 10
5828.7721465002832701
 20
2080.907398168886175
 30
0.0
 42
-0.4142135623730218
  0
VERTEX
  5
6073B8C
  8
2_HILFSLIN
  6
CONTINUOUS
 10
5788.7721465015501963
 20
2120.907398170129909
 30
0.0
  0
VERTEX
  5
6073B8D
  8
2_HILFSLIN
  6
CONTINUOUS
 10
5788.7721465073991567
 20
2306.0332874620798975
 30
0.0
 42
0.4169730541007399
  0
VERTEX
  5
6073B8E
  8
2_HILFSLIN
  6
CONTINUOUS
 10
5695.8971465016657021
 20
2400.1582874633609208
 30
0.0
  0
SEQEND
  5
6073B8F
  8
2_HILFSLIN
  6
CONTINUOUS
  0
POLYLINE
  5
607329B
  8
1_OBJEKTE
  6
CONTINUOUS
 66
     1
 10
0.0
 20
0.0
 30
0.0
  0
VERTEX
  5
6073B90
  8
1_OBJEKTE
  6
CONTINUOUS
 10
12276.7441465051906562
 20
861.0392874398966114
 30
0.0
  0
VERTEX
  5
6073B91
  8
1_OBJEKTE
  6
CONTINUOUS
 10
12276.7441465051906562
 20
1844.5872874398990007
 30
0.0
  0
VERTEX
  5
6073B92
  8
1_OBJEKTE
  6
CONTINUOUS
 10
10601.7431465031695552
 20
1844.5872874398990007
 30
0.0
 42
0.414213562373012
  0
VERTEX
  5
6073B93
  8
1_OBJEKTE
  6
CONTINUOUS
 10
10566.7431465031695552
 20
1809.5872874399140073
 30
0.0
  0
VERTEX
  5
6073B94
  8
1_OBJEKTE
  6
CONTINUOUS
 10
10566.7431465031404514
 20
1690.6864068204299656
 30
0.0
 42
-0.9999993018682125
  0
VERTEX
  5
6073B95
  8
1_OBJEKTE
  6
CONTINUOUS
 10
10224.7431465032295819
 20
1690.6861680593649453
 30
0.0
  0
VERTEX
  5
6073B96
  8
1_OBJEKTE
  6
CONTINUOUS
 10
10224.742351185719599
 20
1826.6854921182159615
 30
0.0
 42
0.4142118495486861
  0
VERTEX
  5
6073B97
  8
1_OBJEKTE
  6
CONTINUOUS
 10
10189.7423511863107706
 20
1861.6852874398969107
 30
0.0
  0
VERTEX
  5
6073B98
  8
1_OBJEKTE
  6
CONTINUOUS
 10
2941.0941465066857745
 20
1861.6852874398969107
 30
0.0
 42
0.4142135623730951
  0
VERTEX
  5
6073B99
  8
1_OBJEKTE
  6
CONTINUOUS
 10
2906.0941465066857745
 20
1826.6852874398969107
 30
0.0
  0
VERTEX
  5
6073B9A
  8
1_OBJEKTE
  6
CONTINUOUS
 10
2906.0941465066857745
 20
1690.6862874399009797
 30
0.0
 42
-1.1828883818203859
  0
VERTEX
  5
6073B9B
  8
1_OBJEKTE
  6
CONTINUOUS
 10
2573.5634812838547987
 20
1746.8008505466930274
 30
0.0
 42
0.5159000781614841
  0
VERTEX
  5
6073B9C
  8
1_OBJEKTE
  6
CONTINUOUS
 10
2540.501649220706895
 20
1793.2862874398920212
 30
0.0
  0
VERTEX
  5
6073B9D
  8
1_OBJEKTE
  6
CONTINUOUS
 10
819.7441465051959995
 20
1793.2862874398920212
 30
0.0
  0
VERTEX
  5
6073B9E
  8
1_OBJEKTE
  6
CONTINUOUS
 10
819.7441465051959995
 20
861.0392874398966114
 30
0.0
  0
VERTEX
  5
6073B9F
  8
1_OBJEKTE
  6
CONTINUOUS
 10
2529.0941465066857745
 20
861.0392874398966114
 30
0.0
 42
0.4142135623730951
  0
VERTEX
  5
6073BA0
  8
1_OBJEKTE
  6
CONTINUOUS
 10
2564.0941465066871388
 20
896.0392874398968388
 30
0.0
  0
VERTEX
  5
6073BA1
  8
1_OBJEKTE
  6
CONTINUOUS
 10
2564.0941465066871388
 20
1006.6862874399009797
 30
0.0
 42
-1.0
  0
VERTEX
  5
6073BA2
  8
1_OBJEKTE
  6
CONTINUOUS
 10
2906.0941465066857745
 20
1006.6862874399009797
 30
0.0
  0
VERTEX
  5
6073BA3
  8
1_OBJEKTE
  6
CONTINUOUS
 10
2906.0941465066857745
 20
896.0397680582608473
 30
0.0
 42
0.4142175843471672
  0
VERTEX
  5
6073BA4
  8
1_OBJEKTE
  6
CONTINUOUS
 10
2941.0946271217549111
 20
861.0397680615568561
 30
0.0
  0
VERTEX
  5
6073BA5
  8
1_OBJEKTE
  6
CONTINUOUS
 10
10189.7441451359190978
 20
861.139305493947063
 30
0.0
 42
0.4142135623731003
  0
VERTEX
  5
6073BA6
  8
1_OBJEKTE
  6
CONTINUOUS
 10
10224.7436645175603189
 20
896.1397861057120053
 30
0.0
  0
VERTEX
  5
6073BA7
  8
1_OBJEKTE
  6
CONTINUOUS
 10
10224.7421465085899399
 20
1006.6862874399009797
 30
0.0
 42
-1.0000137319532001
  0
VERTEX
  5
6073BA8
  8
1_OBJEKTE
  6
CONTINUOUS
 10
10566.7431465031695552
 20
1006.6862874399009797
 30
0.0
  0
VERTEX
  5
6073BA9
  8
1_OBJEKTE
  6
CONTINUOUS
 10
10566.7431465031695552
 20
896.0392874398968388
 30
0.0
 42
0.4142135623730951
  0
VERTEX
  5
6073BAA
  8
1_OBJEKTE
  6
CONTINUOUS
 10
10601.7431465031695552
 20
861.0392874398966114
 30
0.0
  0
VERTEX
  5
6073BAB
  8
1_OBJEKTE
  6
CONTINUOUS
 10
12276.7441465051906562
 20
861.0392874398966114
 30
0.0
  0
SEQEND
  5
6073BAC
  8
1_OBJEKTE
  6
CONTINUOUS
  0
POLYLINE
  5
607329C
  8
2_HILFSLIN
  6
CONTINUOUS
 66
     1
 10
0.0
 20
0.0
 30
0.0
 70
     1
  0
VERTEX
  5
6073BAD
  8
2_HILFSLIN
  6
CONTINUOUS
 10
6784.1527426197426394
 20
1490.4210401969680788
 30
0.0
  0
VERTEX
  5
6073BAE
  8
2_HILFSLIN
  6
CONTINUOUS
 10
7204.3687936794303823
 20
1490.4210401969680788
 30
0.0
  0
VERTEX
  5
6073BAF
  8
2_HILFSLIN
  6
CONTINUOUS
 10
7204.3687936794303823
 20
1445.8522997200921054
 30
0.0
  0
VERTEX
  5
6073BB0
  8
2_HILFSLIN
  6
CONTINUOUS
 10
6881.5857147899223492
 20
1204.3534062912729041
 30
0.0
  0
VERTEX
  5
6073BB1
  8
2_HILFSLIN
  6
CONTINUOUS
 10
7204.3687936794303823
 20
1204.3534062912729041
 30
0.0
  0
VERTEX
  5
6073BB2
  8
2_HILFSLIN
  6
CONTINUOUS
 10
7204.3687936794303823
 20
1153.3641850392739343
 30
0.0
  0
VERTEX
  5
6073BB3
  8
2_HILFSLIN
  6
CONTINUOUS
 10
6784.1527426197426394
 20
1153.3641850392739343
 30
0.0
  0
VERTEX
  5
6073BB4
  8
2_HILFSLIN
  6
CONTINUOUS
 10
6784.1527426197426394
 20
1207.0581229954771061
 30
0.0
  0
VERTEX
  5
6073BB5
  8
2_HILFSLIN
  6
CONTINUOUS
 10
7094.739139443874592
 20
1439.431818944969109
 30
0.0
  0
VERTEX
  5
6073BB6
  8
2_HILFSLIN
  6
CONTINUOUS
 10
6784.1527426197426394
 20
1439.431818944969109
 30
0.0
  0
VERTEX
  5
6073BB7
  8
2_HILFSLIN
  6
CONTINUOUS
 10
6784.1527426197426394
 20
1490.4210401969680788
 30
0.0
  0
SEQEND
  5
6073BB8
  8
2_HILFSLIN
  6
CONTINUOUS
  0
POLYLINE
  5
607329D
  8
2_HILFSLIN
  6
CONTINUOUS
 66
     1
 10
0.0
 20
0.0
 30
0.0
 70
     1
  0
VERTEX
  5
6073BB9
  8
2_HILFSLIN
  6
CONTINUOUS
 10
6622.0205960500461515
 20
1490.4210401969680788
 30
0.0
  0
VERTEX
  5
6073BBA
  8
2_HILFSLIN
  6
CONTINUOUS
 10
6702.94712782726765
 20
1490.4210401969680788
 30
0.0
  0
VERTEX
  5
6073BBB
  8
2_HILFSLIN
  6
CONTINUOUS
 10
6702.94712782726765
 20
1153.3641850392739343
 30
0.0
  0
VERTEX
  5
6073BBC
  8
2_HILFSLIN
  6
CONTINUOUS
 10
6622.0205960500461515
 20
1153.3641850392739343
 30
0.0
  0
VERTEX
  5
6073BBD
  8
2_HILFSLIN
  6
CONTINUOUS
 10
6622.0205960500461515
 20
1490.4210401969680788
 30
0.0
  0
SEQEND
  5
6073BBE
  8
2_HILFSLIN
  6
CONTINUOUS
  0
POLYLINE
  5
607329E
  8
2_HILFSLIN
  6
CONTINUOUS
 66
     1
 10
0.0
 20
0.0
 30
0.0
 70
     1
  0
VERTEX
  5
6073BBF
  8
2_HILFSLIN
  6
CONTINUOUS
 10
7285.5819512569278231
 20
1490.4210401969680788
 30
0.0
  0
VERTEX
  5
6073BC0
  8
2_HILFSLIN
  6
CONTINUOUS
 10
7668.0991668411588762
 20
1490.4210401969680788
 30
0.0
  0
VERTEX
  5
6073BC1
  8
2_HILFSLIN
  6
CONTINUOUS
 10
7668.0991668411588762
 20
1442.7581867811379652
 30
0.0
  0
VERTEX
  5
6073BC2
  8
2_HILFSLIN
  6
CONTINUOUS
 10
7362.0733259192793412
 20
1442.7581867811379652
 30
0.0
  0
VERTEX
  5
6073BC3
  8
2_HILFSLIN
  6
CONTINUOUS
 10
7362.0733259192793412
 20
1341.843276850645907
 30
0.0
  0
VERTEX
  5
6073BC4
  8
2_HILFSLIN
  6
CONTINUOUS
 10
7647.0321705459800796
 20
1341.843276850645907
 30
0.0
  0
VERTEX
  5
6073BC5
  8
2_HILFSLIN
  6
CONTINUOUS
 10
7647.0321705459800796
 20
1304.159526943039964
 30
0.0
  0
VERTEX
  5
6073BC6
  8
2_HILFSLIN
  6
CONTINUOUS
 10
7362.0733259192793412
 20
1304.159526943039964
 30
0.0
  0
VERTEX
  5
6073BC7
  8
2_HILFSLIN
  6
CONTINUOUS
 10
7362.0733259192793412
 20
1199.918249176386098
 30
0.0
  0
VERTEX
  5
6073BC8
  8
2_HILFSLIN
  6
CONTINUOUS
 10
7668.0991668411588762
 20
1199.918249176386098
 30
0.0
  0
VERTEX
  5
6073BC9
  8
2_HILFSLIN
  6
CONTINUOUS
 10
7668.0991668411588762
 20
1153.3641850392739343
 30
0.0
  0
VERTEX
  5
6073BCA
  8
2_HILFSLIN
  6
CONTINUOUS
 10
7285.5819512569278231
 20
1153.3641850392739343
 30
0.0
  0
VERTEX
  5
6073BCB
  8
2_HILFSLIN
  6
CONTINUOUS
 10
7285.5819512569278231
 20
1490.4210401969680788
 30
0.0
  0
SEQEND
  5
6073BCC
  8
2_HILFSLIN
  6
CONTINUOUS
  0
POLYLINE
  5
607329F
  8
2_HILFSLIN
  6
CONTINUOUS
 66
     1
 10
0.0
 20
0.0
 30
0.0
 70
     1
  0
VERTEX
  5
6073BCD
  8
2_HILFSLIN
  6
CONTINUOUS
 10
8134.0622041286851527
 20
1294.1804234345540863
 30
0.0
 42
0.6614357134812086
  0
VERTEX
  5
6073BCE
  8
2_HILFSLIN
  6
CONTINUOUS
 10
8122.9972539767322814
 20
1490.4210401969680788
 30
0.0
  0
VERTEX
  5
6073BCF
  8
2_HILFSLIN
  6
CONTINUOUS
 10
7749.3198672025755513
 20
1490.4210401969680788
 30
0.0
  0
VERTEX
  5
6073BD0
  8
2_HILFSLIN
  6
CONTINUOUS
 10
7749.3198672025755513
 20
1153.3641850392739343
 30
0.0
  0
VERTEX
  5
6073BD1
  8
2_HILFSLIN
  6
CONTINUOUS
 10
7829.1376097005559132
 20
1153.3641850392739343
 30
0.0
  0
VERTEX
  5
6073BD2
  8
2_HILFSLIN
  6
CONTINUOUS
 10
7829.1376097005559132
 20
1247.6112737290241057
 30
0.0
  0
VERTEX
  5
6073BD3
  8
2_HILFSLIN
  6
CONTINUOUS
 10
8103.0236471089883707
 20
1247.6112737290241057
 30
0.0
  0
VERTEX
  5
6073BD4
  8
2_HILFSLIN
  6
CONTINUOUS
 10
8103.0236471089883707
 20
1153.3641850392739343
 30
0.0
  0
VERTEX
  5
6073BD5
  8
2_HILFSLIN
  6
CONTINUOUS
 10
8181.7326003287453204
 20
1153.3641850392739343
 30
0.0
  0
VERTEX
  5
6073BD6
  8
2_HILFSLIN
  6
CONTINUOUS
 10
8181.7326003287453204
 20
1214.3400525836989345
 30
0.0
 42
0.1814178157489955
  0
SEQEND
  5
6073BD7
  8
2_HILFSLIN
  6
CONTINUOUS
  0
POLYLINE
  5
60732A0
  8
1_OBJEKTE
 66
     1
 10
0.0
 20
0.0
 30
0.0
 70
     1
  0
VERTEX
  5
6073BD8
  8
1_OBJEKTE
 10
8056.4469546198079115
 20
1303.035652095910109
 30
0.0
  0
VERTEX
  5
6073BD9
  8
1_OBJEKTE
 10
7829.1376097005559132
 20
1303.035652095910109
 30
0.0
  0
VERTEX
  5
6073BDA
  8
1_OBJEKTE
 10
7829.1376097005559132
 20
1434.9966618300820755
 30
0.0
  0
VERTEX
  5
6073BDB
  8
1_OBJEKTE
 10
8056.4469546198079115
 20
1434.9966618300820755
 30
0.0
 42
-0.8117644349006891
  0
SEQEND
  5
6073BDC
  8
1_OBJEKTE
  0
POLYLINE
  5
60732A1
  8
2_HILFSLIN
  6
CONTINUOUS
 66
     1
 10
0.0
 20
0.0
 30
0.0
 70
     1
  0
VERTEX
  5
6073BDD
  8
2_HILFSLIN
  6
CONTINUOUS
 10
9196.8857558628951665
 20
1490.4210401966920472
 30
0.0
  0
VERTEX
  5
6073BDE
  8
2_HILFSLIN
  6
CONTINUOUS
 10
8843.1819759571517352
 20
1490.4210401968159658
 30
0.0
 42
0.4142129137652239
  0
VERTEX
  5
6073BDF
  8
2_HILFSLIN
  6
CONTINUOUS
 10
8789.9676333639363293
 20
1437.2066976033240735
 30
0.0
  0
VERTEX
  5
6073BE0
  8
2_HILFSLIN
  6
CONTINUOUS
 10
8789.9676333639363293
 20
1153.3641850392739343
 30
0.0
  0
VERTEX
  5
6073BE1
  8
2_HILFSLIN
  6
CONTINUOUS
 10
8872.0029544193548645
 20
1153.3641850392739343
 30
0.0
  0
VERTEX
  5
6073BE2
  8
2_HILFSLIN
  6
CONTINUOUS
 10
8872.0029544193548645
 20
1234.3058023846310789
 30
0.0
  0
VERTEX
  5
6073BE3
  8
2_HILFSLIN
  6
CONTINUOUS
 10
9168.0647774022363592
 20
1234.3058023846310789
 30
0.0
  0
VERTEX
  5
6073BE4
  8
2_HILFSLIN
  6
CONTINUOUS
 10
9168.0647774022363592
 20
1153.3641850392739343
 30
0.0
  0
VERTEX
  5
6073BE5
  8
2_HILFSLIN
  6
CONTINUOUS
 10
9250.1004127405176405
 20
1153.3641850392739343
 30
0.0
  0
VERTEX
  5
6073BE6
  8
2_HILFSLIN
  6
CONTINUOUS
 10
9250.1000984576239716
 20
1437.2066976033240735
 30
0.0
 42
0.4142129137652312
  0
SEQEND
  5
6073BE7
  8
2_HILFSLIN
  6
CONTINUOUS
  0
POLYLINE
  5
60732A2
  8
1_OBJEKTE
 66
     1
 10
0.0
 20
0.0
 30
0.0
 70
     1
  0
VERTEX
  5
6073BE8
  8
1_OBJEKTE
 10
9168.0647774022363592
 20
1387.3111800616391065
 30
0.0
  0
VERTEX
  5
6073BE9
  8
1_OBJEKTE
 10
9168.0647774022363592
 20
1294.1653378661360421
 30
0.0
  0
VERTEX
  5
6073BEA
  8
1_OBJEKTE
 10
8872.0029544193548645
 20
1294.1653378661360421
 30
0.0
  0
VERTEX
  5
6073BEB
  8
1_OBJEKTE
 10
8872.0029544193548645
 20
1387.3111800616391065
 30
0.0
 42
-0.4142135623730917
  0
VERTEX
  5
6073BEC
  8
1_OBJEKTE
 10
8918.579646909609437
 20
1433.8878725513570771
 30
0.0
  0
VERTEX
  5
6073BED
  8
1_OBJEKTE
 10
9121.4880849119508639
 20
1433.8878725513570771
 30
0.0
 42
-0.4142135623731053
  0
SEQEND
  5
6073BEE
  8
1_OBJEKTE
  0
POLYLINE
  5
60732A3
  8
2_HILFSLIN
  6
CONTINUOUS
 66
     1
 10
0.0
 20
0.0
 30
0.0
 70
     1
  0
VERTEX
  5
6073BEF
  8
2_HILFSLIN
  6
CONTINUOUS
 10
6480.9554457759659272
 20
1324.1101911754160483
 30
0.0
 42
0.6970512666771346
  0
VERTEX
  5
6073BF0
  8
2_HILFSLIN
  6
CONTINUOUS
 10
6464.3462349480541889
 20
1490.4210401968080077
 30
0.0
  0
VERTEX
  5
6073BF1
  8
2_HILFSLIN
  6
CONTINUOUS
 10
6095.1043195706743063
 20
1490.4210401969680788
 30
0.0
  0
VERTEX
  5
6073BF2
  8
2_HILFSLIN
  6
CONTINUOUS
 10
6095.1043195706743063
 20
1153.3641850392739343
 30
0.0
  0
VERTEX
  5
6073BF3
  8
2_HILFSLIN
  6
CONTINUOUS
 10
6476.5498312327554231
 20
1153.3641850392739343
 30
0.0
 42
0.7975912022447933
  0
SEQEND
  5
6073BF4
  8
2_HILFSLIN
  6
CONTINUOUS
  0
POLYLINE
  5
60732A4
  8
1_OBJEKTE
 66
     1
 10
0.0
 20
0.0
 30
0.0
 70
     1
  0
VERTEX
  5
6073BF5
  8
1_OBJEKTE
 10
6409.9926176554872654
 20
1201.0270384551040479
 30
0.0
  0
VERTEX
  5
6073BF6
  8
1_OBJEKTE
 10
6168.2693263962873971
 20
1201.0270384551040479
 30
0.0
  0
VERTEX
  5
6073BF7
  8
1_OBJEKTE
 10
6168.2693263962873971
 20
1305.2683162217649624
 30
0.0
  0
VERTEX
  5
6073BF8
  8
1_OBJEKTE
 10
6409.9926176554872654
 20
1305.2683162217649624
 30
0.0
 42
-1.0000060735582821
  0
SEQEND
  5
6073BF9
  8
1_OBJEKTE
  0
POLYLINE
  5
60732A5
  8
1_OBJEKTE
 66
     1
 10
0.0
 20
0.0
 30
0.0
 70
     1
  0
VERTEX
  5
6073BFA
  8
1_OBJEKTE
 10
6401.1223034257118343
 20
1446.0845546170310172
 30
0.0
  0
VERTEX
  5
6073BFB
  8
1_OBJEKTE
 10
6168.2693263962873971
 20
1446.0845546170310172
 30
0.0
  0
VERTEX
  5
6073BFC
  8
1_OBJEKTE
 10
6168.2693263962873971
 20
1342.9520661293720423
 30
0.0
  0
VERTEX
  5
6073BFD
  8
1_OBJEKTE
 10
6401.1226177086064126
 20
1342.9520661293720423
 30
0.0
 42
0.9079133858063181
  0
SEQEND
  5
6073BFE
  8
1_OBJEKTE
  0
POLYLINE
  5
60732A6
  8
1_OBJEKTE
 66
     1
 10
0.0
 20
0.0
 30
0.0
 70
     1
  0
VERTEX
  5
6073BFF
  8
1_OBJEKTE
 10
8577.8943982636264991
 20
1201.0270384551040479
 30
0.0
  0
VERTEX
  5
6073C00
  8
1_OBJEKTE
 10
8336.1711070044257212
 20
1201.0270384551040479
 30
0.0
  0
VERTEX
  5
6073C01
  8
1_OBJEKTE
 10
8336.1711070044257212
 20
1305.2683162217649624
 30
0.0
  0
VERTEX
  5
6073C02
  8
1_OBJEKTE
 10
8577.8943982636264991
 20
1305.2683162217649624
 30
0.0
 42
-1.0000060735582821
  0
SEQEND
  5
6073C03
  8
1_OBJEKTE
  0
POLYLINE
  5
60732A7
  8
1_OBJEKTE
 66
     1
 10
0.0
 20
0.0
 30
0.0
 70
     1
  0
VERTEX
  5
6073C04
  8
1_OBJEKTE
 10
8569.0240840338519774
 20
1446.0845546170310172
 30
0.0
  0
VERTEX
  5
6073C05
  8
1_OBJEKTE
 10
8336.1711070044257212
 20
1446.0845546170310172
 30
0.0
  0
VERTEX
  5
6073C06
  8
1_OBJEKTE
 10
8336.1711070044257212
 20
1342.9520661293720423
 30
0.0
  0
VERTEX
  5
6073C07
  8
1_OBJEKTE
 10
8569.0243983167474653
 20
1342.9520661293720423
 30
0.0
 42
0.9079133858063181
  0
SEQEND
  5
6073C08
  8
1_OBJEKTE
  0
POLYLINE
  5
60732A8
  8
2_HILFSLIN
  6
CONTINUOUS
 66
     1
 10
0.0
 20
0.0
 30
0.0
 70
     1
  0
VERTEX
  5
6073C09
  8
2_HILFSLIN
  6
CONTINUOUS
 10
8648.8572263841051608
 20
1324.1101911754160483
 30
0.0
 42
0.6970512666771346
  0
VERTEX
  5
6073C0A
  8
2_HILFSLIN
  6
CONTINUOUS
 10
8632.2480155561934225
 20
1490.4210401968080077
 30
0.0
  0
VERTEX
  5
6073C0B
  8
2_HILFSLIN
  6
CONTINUOUS
 10
8263.0061001787835266
 20
1490.4210401969680788
 30
0.0
  0
VERTEX
  5
6073C0C
  8
2_HILFSLIN
  6
CONTINUOUS
 10
8263.0061001787835266
 20
1153.3641850392739343
 30
0.0
  0
VERTEX
  5
6073C0D
  8
2_HILFSLIN
  6
CONTINUOUS
 10
8644.4516118408937473
 20
1153.3641850392739343
 30
0.0
 42
0.7975912022447933
  0
SEQEND
  5
6073C0E
  8
2_HILFSLIN
  6
CONTINUOUS
  0
POLYLINE
  5
60732A9
  8
2_HILFSLIN
  6
CONTINUOUS
 66
     1
 10
0.0
 20
0.0
 30
0.0
 70
     1
  0
VERTEX
  5
6073C0F
  8
2_HILFSLIN
  6
CONTINUOUS
 10
10140.7937538744608901
 20
1219.7755476073580212
 30
0.0
  0
VERTEX
  5
6073C10
  8
2_HILFSLIN
  6
CONTINUOUS
 10
9945.0026986773009412
 20
1138.8983541473930927
 30
0.0
 42
-0.937549632982577
  0
VERTEX
  5
6073C11
  8
2_HILFSLIN
  6
CONTINUOUS
 10
9525.5194395986618474
 20
1203.1586748013139641
 30
0.0
 42
-0.1155010583747305
  0
VERTEX
  5
6073C12
  8
2_HILFSLIN
  6
CONTINUOUS
 10
9500.8640817826089915
 20
1213.2487886983799399
 30
0.0
  0
VERTEX
  5
6073C13
  8
2_HILFSLIN
  6
CONTINUOUS
 10
9430.9768207139859442
 20
1213.4824435240659568
 30
0.0
  0
VERTEX
  5
6073C14
  8
2_HILFSLIN
  6
CONTINUOUS
 10
9478.9449891262338497
 20
1243.5054040533789248
 30
0.0
 42
-1.7926899445273019
  0
VERTEX
  5
6073C15
  8
2_HILFSLIN
  6
CONTINUOUS
 10
9575.2497838100534864
 20
1218.748469470308919
 30
0.0
 42
0.4037713183345303
  0
VERTEX
  5
6073C16
  8
2_HILFSLIN
  6
CONTINUOUS
 10
10086.3318116445097985
 20
1312.2876426609070677
 30
0.0
  0
SEQEND
  5
6073C17
  8
2_HILFSLIN
  6
CONTINUOUS
  0
POLYLINE
  5
60732AA
  8
2_HILFSLIN
  6
CONTINUOUS
 66
     1
 10
0.0
 20
0.0
 30
0.0
 70
     1
  0
VERTEX
  5
6073C18
  8
2_HILFSLIN
  6
CONTINUOUS
 10
9598.6225592036935268
 20
1390.4515867836230427
 30
0.0
  0
VERTEX
  5
6073C19
  8
2_HILFSLIN
  6
CONTINUOUS
 10
9664.3707032074871677
 20
1679.2094827850739875
 30
0.0
  0
VERTEX
  5
6073C1A
  8
2_HILFSLIN
  6
CONTINUOUS
 10
9510.0230552038719907
 20
1679.2162027824599591
 30
0.0
  0
VERTEX
  5
6073C1B
  8
2_HILFSLIN
  6
CONTINUOUS
 10
9510.0230552038719907
 20
1726.4665387850179741
 30
0.0
  0
VERTEX
  5
6073C1C
  8
2_HILFSLIN
  6
CONTINUOUS
 10
9718.699383206825587
 20
1726.4665387850179741
 30
0.0
  0
VERTEX
  5
6073C1D
  8
2_HILFSLIN
  6
CONTINUOUS
 10
9718.6852712069376139
 20
1679.2005787808370769
 30
0.0
  0
VERTEX
  5
6073C1E
  8
2_HILFSLIN
  6
CONTINUOUS
 10
9652.9376312069816777
 20
1390.4505787808370769
 30
0.0
  0
VERTEX
  5
6073C1F
  8
2_HILFSLIN
  6
CONTINUOUS
 10
9598.6391912032104301
 20
1390.4662027824599591
 30
0.0
  0
SEQEND
  5
6073C20
  8
2_HILFSLIN
  6
CONTINUOUS
  0
POLYLINE
  5
60732AB
  8
2_HILFSLIN
  6
CONTINUOUS
 66
     1
 10
0.0
 20
0.0
 30
0.0
 70
     1
  0
VERTEX
  5
6073C21
  8
2_HILFSLIN
  6
CONTINUOUS
 10
9768.0018390919158264
 20
1558.4505787808370769
 30
0.0
  0
VERTEX
  5
6073C22
  8
2_HILFSLIN
  6
CONTINUOUS
 10
9768.0018390919158264
 20
1726.4509147833960014
 30
0.0
  0
VERTEX
  5
6073C23
  8
2_HILFSLIN
  6
CONTINUOUS
 10
9976.6783350912446622
 20
1726.4509147833960014
 30
0.0
  0
VERTEX
  5
6073C24
  8
2_HILFSLIN
  6
CONTINUOUS
 10
9976.6783350912446622
 20
1679.2005787808370769
 30
0.0
  0
VERTEX
  5
6073C25
  8
2_HILFSLIN
  6
CONTINUOUS
 10
9819.4565430925285909
 20
1679.2005787808370769
 30
0.0
  0
VERTEX
  5
6073C26
  8
2_HILFSLIN
  6
CONTINUOUS
 10
9819.4565430925285909
 20
1608.3259147833960014
 30
0.0
  0
VERTEX
  5
6073C27
  8
2_HILFSLIN
  6
CONTINUOUS
 10
9873.7695990902448102
 20
1608.3259147833960014
 30
0.0
 42
-0.397380566311407
  0
VERTEX
  5
6073C28
  8
2_HILFSLIN
  6
CONTINUOUS
 10
9976.6783350912446622
 20
1511.2009147833960014
 30
0.0
 42
-0.0289244780860528
  0
VERTEX
  5
6073C29
  8
2_HILFSLIN
  6
CONTINUOUS
 10
9976.677831092296401
 20
1487.5752427831680507
 30
0.0
 42
-0.33410359968643
  0
VERTEX
  5
6073C2A
  8
2_HILFSLIN
  6
CONTINUOUS
 10
9896.6382630908919964
 20
1393.0759147833960014
 30
0.0
 42
-0.1120492397508117
  0
VERTEX
  5
6073C2B
  8
2_HILFSLIN
  6
CONTINUOUS
 10
9850.9007670932060137
 20
1393.0759147833960014
 30
0.0
 42
-0.2081452439587186
  0
VERTEX
  5
6073C2C
  8
2_HILFSLIN
  6
CONTINUOUS
 10
9779.4362550928781275
 20
1445.576586778734054
 30
0.0
  0
VERTEX
  5
6073C2D
  8
2_HILFSLIN
  6
CONTINUOUS
 10
9767.9973030916025891
 20
1487.5740667791030774
 30
0.0
  0
VERTEX
  5
6073C2E
  8
2_HILFSLIN
  6
CONTINUOUS
 10
9819.4501590928121004
 20
1487.5752427831680507
 30
0.0
  0
VERTEX
  5
6073C2F
  8
2_HILFSLIN
  6
CONTINUOUS
 10
9828.0255510915594641
 20
1463.9483947788760361
 30
0.0
 42
0.6987879139942219
  0
VERTEX
  5
6073C30
  8
2_HILFSLIN
  6
CONTINUOUS
 10
9925.2083430915663484
 20
1487.5673467817180153
 30
0.0
  0
VERTEX
  5
6073C31
  8
2_HILFSLIN
  6
CONTINUOUS
 10
9925.2236310906318977
 20
1511.2009147833960014
 30
0.0
 42
0.4431999529592908
  0
VERTEX
  5
6073C32
  8
2_HILFSLIN
  6
CONTINUOUS
 10
9873.7675830895605031
 20
1558.4483947788760361
 30
0.0
  0
VERTEX
  5
6073C33
  8
2_HILFSLIN
  6
CONTINUOUS
 10
9768.0018390919158264
 20
1558.4505787808370769
 30
0.0
  0
SEQEND
  5
6073C34
  8
2_HILFSLIN
  6
CONTINUOUS
  0
POLYLINE
  5
60732AC
  8
2_HILFSLIN
  6
CONTINUOUS
 66
     1
 10
0.0
 20
0.0
 30
0.0
 70
     1
  0
VERTEX
  5
6073C35
  8
2_HILFSLIN
  6
CONTINUOUS
 10
3375.1047653713321779
 20
1322.4207041944100638
 30
0.0
  0
VERTEX
  5
6073C36
  8
2_HILFSLIN
  6
CONTINUOUS
 10
3375.1047653713321779
 20
1490.4210401969680788
 30
0.0
  0
VERTEX
  5
6073C37
  8
2_HILFSLIN
  6
CONTINUOUS
 10
3583.7812613706628326
 20
1490.4210401969680788
 30
0.0
  0
VERTEX
  5
6073C38
  8
2_HILFSLIN
  6
CONTINUOUS
 10
3583.7812613706628326
 20
1443.1707041944100638
 30
0.0
  0
VERTEX
  5
6073C39
  8
2_HILFSLIN
  6
CONTINUOUS
 10
3426.5594693719472161
 20
1443.1707041944100638
 30
0.0
  0
VERTEX
  5
6073C3A
  8
2_HILFSLIN
  6
CONTINUOUS
 10
3426.5594693719472161
 20
1372.2960401969689883
 30
0.0
  0
VERTEX
  5
6073C3B
  8
2_HILFSLIN
  6
CONTINUOUS
 10
3480.8725253696620712
 20
1372.2960401969689883
 30
0.0
 42
-0.397380566311407
  0
VERTEX
  5
6073C3C
  8
2_HILFSLIN
  6
CONTINUOUS
 10
3583.7812613706628326
 20
1275.1710401969680788
 30
0.0
 42
-0.0289244780860528
  0
VERTEX
  5
6073C3D
  8
2_HILFSLIN
  6
CONTINUOUS
 10
3583.7807573717150262
 20
1251.5453681967410375
 30
0.0
 42
-0.33410359968643
  0
VERTEX
  5
6073C3E
  8
2_HILFSLIN
  6
CONTINUOUS
 10
3503.7411893703101669
 20
1157.0460401969680788
 30
0.0
 42
-0.1120492397508117
  0
VERTEX
  5
6073C3F
  8
2_HILFSLIN
  6
CONTINUOUS
 10
3458.0036933726228199
 20
1157.0460401969680788
 30
0.0
 42
-0.2081452439587186
  0
VERTEX
  5
6073C40
  8
2_HILFSLIN
  6
CONTINUOUS
 10
3386.5391813722972074
 20
1209.546712192305904
 30
0.0
  0
VERTEX
  5
6073C41
  8
2_HILFSLIN
  6
CONTINUOUS
 10
3375.1002293710189406
 20
1251.5441921926760642
 30
0.0
  0
VERTEX
  5
6073C42
  8
2_HILFSLIN
  6
CONTINUOUS
 10
3426.5530853722298161
 20
1251.5453681967410375
 30
0.0
  0
VERTEX
  5
6073C43
  8
2_HILFSLIN
  6
CONTINUOUS
 10
3435.1284773709780893
 20
1227.9185201924481134
 30
0.0
 42
0.6987879139942219
  0
VERTEX
  5
6073C44
  8
2_HILFSLIN
  6
CONTINUOUS
 10
3532.3112693709849736
 20
1251.5374721952900927
 30
0.0
  0
VERTEX
  5
6073C45
  8
2_HILFSLIN
  6
CONTINUOUS
 10
3532.3265573700477944
 20
1275.1710401969680788
 30
0.0
 42
0.4431999529592908
  0
VERTEX
  5
6073C46
  8
2_HILFSLIN
  6
CONTINUOUS
 10
3480.8705093689791283
 20
1322.4185201924481134
 30
0.0
  0
VERTEX
  5
6073C47
  8
2_HILFSLIN
  6
CONTINUOUS
 10
3375.1047653713321779
 20
1322.4207041944100638
 30
0.0
  0
SEQEND
  5
6073C48
  8
2_HILFSLIN
  6
CONTINUOUS
  0
POLYLINE
  5
60732AD
  8
1_OBJEKTE
  6
CONTINUOUS
 66
     1
 10
0.0
 20
0.0
 30
0.0
 70
     1
  0
VERTEX
  5
6073C49
  8
1_OBJEKTE
  6
CONTINUOUS
 10
3264.6440874435361366
 20
1269.9207041944100638
 30
0.0
  0
VERTEX
  5
6073C4A
  8
1_OBJEKTE
  6
CONTINUOUS
 10
3264.6440874435361366
 20
1256.7957041944100638
 30
0.0
 42
-1.0289031201532219
  0
VERTEX
  5
6073C4B
  8
1_OBJEKTE
  6
CONTINUOUS
 10
3158.8769994454200969
 20
1256.7957041944100638
 30
0.0
  0
VERTEX
  5
6073C4C
  8
1_OBJEKTE
  6
CONTINUOUS
 10
3158.8769994454200969
 20
1269.9207041944100638
 30
0.0
 42
-1.0289031201532211
  0
SEQEND
  5
6073C4D
  8
1_OBJEKTE
  6
CONTINUOUS
  0
POLYLINE
  5
60732AE
  8
2_HILFSLIN
  6
CONTINUOUS
 66
     1
 10
0.0
 20
0.0
 30
0.0
 70
     1
  0
VERTEX
  5
6073C4E
  8
2_HILFSLIN
  6
CONTINUOUS
 10
3115.9983594437799184
 20
1406.4198641929031055
 30
0.0
 42
-0.3437138467616223
  0
VERTEX
  5
6073C4F
  8
2_HILFSLIN
  6
CONTINUOUS
 10
3204.610799444301847
 20
1490.418856195007038
 30
0.0
  0
VERTEX
  5
6073C50
  8
2_HILFSLIN
  6
CONTINUOUS
 10
3261.785903442812014
 20
1490.4210401969680788
 30
0.0
  0
VERTEX
  5
6073C51
  8
2_HILFSLIN
  6
CONTINUOUS
 10
3261.785231447473052
 20
1443.1707041944100638
 30
0.0
  0
VERTEX
  5
6073C52
  8
2_HILFSLIN
  6
CONTINUOUS
 10
3213.1893834429070012
 20
1440.5457041944100638
 30
0.0
 42
0.3352055581937608
  0
VERTEX
  5
6073C53
  8
2_HILFSLIN
  6
CONTINUOUS
 10
3167.4518874452191994
 20
1395.9207041944100638
 30
0.0
  0
VERTEX
  5
6073C54
  8
2_HILFSLIN
  6
CONTINUOUS
 10
3161.7353514474089025
 20
1364.4207041944100638
 30
0.0
  0
VERTEX
  5
6073C55
  8
2_HILFSLIN
  6
CONTINUOUS
 10
3161.7333354467268691
 20
1359.170032194182113
 30
0.0
 42
-0.2893787102330583
  0
VERTEX
  5
6073C56
  8
2_HILFSLIN
  6
CONTINUOUS
 10
3284.6481834437431644
 20
1343.4198641929031055
 30
0.0
 42
-0.1931296645985425
  0
VERTEX
  5
6073C57
  8
2_HILFSLIN
  6
CONTINUOUS
 10
3311.7970674455141307
 20
1293.5372201958159621
 30
0.0
 42
-0.3731486260989427
  0
VERTEX
  5
6073C58
  8
2_HILFSLIN
  6
CONTINUOUS
 10
3250.3462794461961494
 20
1162.2921761968821102
 30
0.0
 42
-0.2532738643713228
  0
VERTEX
  5
6073C59
  8
2_HILFSLIN
  6
CONTINUOUS
 10
3136.0024554440019529
 20
1183.2941921926760642
 30
0.0
 42
-0.1575543303248986
  0
VERTEX
  5
6073C5A
  8
2_HILFSLIN
  6
CONTINUOUS
 10
3107.4236394452600507
 20
1251.5445281952340792
 30
0.0
  0
VERTEX
  5
6073C5B
  8
2_HILFSLIN
  6
CONTINUOUS
 10
3107.4229674450330094
 20
1327.6713761946371051
 30
0.0
 42
-0.0432186013474407
  0
VERTEX
  5
6073C5C
  8
2_HILFSLIN
  6
CONTINUOUS
 10
3115.9983594437799184
 20
1406.4210401969680788
 30
0.0
 42
-10.2317896153486796
  0
SEQEND
  5
6073C5D
  8
2_HILFSLIN
  6
CONTINUOUS
  0
POLYLINE
  5
60732AF
  8
2_HILFSLIN
  6
CONTINUOUS
 66
     1
 10
0.0
 20
0.0
 30
0.0
 70
     1
  0
VERTEX
  5
6073C5E
  8
2_HILFSLIN
  6
CONTINUOUS
 10
4075.1919657744288088
 20
1327.0978987937269267
 30
0.0
 42
2.5105675421725131
  0
VERTEX
  5
6073C5F
  8
2_HILFSLIN
  6
CONTINUOUS
 10
3942.640114813999844
 20
1327.1088185136250104
 30
0.0
 42
2.6903326150156759
  0
SEQEND
  5
6073C60
  8
2_HILFSLIN
  6
CONTINUOUS
  0
POLYLINE
  5
60732B0
  8
1_OBJEKTE
 66
     1
 10
0.0
 20
0.0
 30
0.0
 70
     1
  0
VERTEX
  5
6073C61
  8
1_OBJEKTE
 10
3972.7980752068838228
 20
1286.3802743080959772
 30
0.0
 42
-0.4142135623730074
  0
VERTEX
  5
6073C62
  8
1_OBJEKTE
 10
4045.0213459790102206
 20
1286.3802743081100743
 30
0.0
 42
-0.4142135623732737
  0
VERTEX
  5
6073C63
  8
1_OBJEKTE
 10
4045.0213459790102206
 20
1214.1570035359759459
 30
0.0
 42
-0.4142135623727585
  0
VERTEX
  5
6073C64
  8
1_OBJEKTE
 10
3972.7980752068838228
 20
1214.1570035359620761
 30
0.0
 42
-0.4142135623734725
  0
VERTEX
  5
6073C65
  8
1_OBJEKTE
 10
3972.7980752068838228
 20
1286.3802743080959772
 30
0.0
  0
SEQEND
  5
6073C66
  8
1_OBJEKTE
  0
POLYLINE
  5
60732B1
  8
1_OBJEKTE
 66
     1
 10
0.0
 20
0.0
 30
0.0
 70
     1
  0
VERTEX
  5
6073C67
  8
1_OBJEKTE
 10
3972.8101712061038597
 20
1433.2106966613569057
 30
0.0
 42
-0.4142135623730074
  0
VERTEX
  5
6073C68
  8
1_OBJEKTE
 10
4045.0334419782298028
 20
1433.2106966613569057
 30
0.0
 42
-0.4142135623732737
  0
VERTEX
  5
6073C69
  8
1_OBJEKTE
 10
4045.0334419782147961
 20
1360.9874258892300531
 30
0.0
 42
-0.4142135623727585
  0
VERTEX
  5
6073C6A
  8
1_OBJEKTE
 10
3972.8101712061038597
 20
1360.987425889215956
 30
0.0
 42
-0.4142135623734725
  0
VERTEX
  5
6073C6B
  8
1_OBJEKTE
 10
3972.8101712061038597
 20
1433.2106966613430359
 30
0.0
  0
SEQEND
  5
6073C6C
  8
1_OBJEKTE
  0
POLYLINE
  5
60732B2
  8
1_OBJEKTE
  6
CONTINUOUS
 66
     1
 10
0.0
 20
0.0
 30
0.0
 70
     1
  0
VERTEX
  5
6073C6D
  8
1_OBJEKTE
  6
CONTINUOUS
 10
3806.0402844331688357
 20
1269.9207041944100638
 30
0.0
  0
VERTEX
  5
6073C6E
  8
1_OBJEKTE
  6
CONTINUOUS
 10
3806.0402844331688357
 20
1256.7957041944100638
 30
0.0
 42
-1.0289031201532219
  0
VERTEX
  5
6073C6F
  8
1_OBJEKTE
  6
CONTINUOUS
 10
3700.2731964350678027
 20
1256.7957041944100638
 30
0.0
  0
VERTEX
  5
6073C70
  8
1_OBJEKTE
  6
CONTINUOUS
 10
3700.2731964350678027
 20
1269.9207041944100638
 30
0.0
 42
-1.0289031201532211
  0
SEQEND
  5
6073C71
  8
1_OBJEKTE
  6
CONTINUOUS
  0
POLYLINE
  5
60732B3
  8
2_HILFSLIN
  6
CONTINUOUS
 66
     1
 10
0.0
 20
0.0
 30
0.0
 70
     1
  0
VERTEX
  5
6073C72
  8
2_HILFSLIN
  6
CONTINUOUS
 10
3657.3945564334280789
 20
1406.4198641929031055
 30
0.0
 42
-0.3437138467616223
  0
VERTEX
  5
6073C73
  8
2_HILFSLIN
  6
CONTINUOUS
 10
3746.006996433949098
 20
1490.418856195007038
 30
0.0
  0
VERTEX
  5
6073C74
  8
2_HILFSLIN
  6
CONTINUOUS
 10
3803.1821004324588102
 20
1490.4210401969680788
 30
0.0
  0
VERTEX
  5
6073C75
  8
2_HILFSLIN
  6
CONTINUOUS
 10
3803.181428437122122
 20
1443.1707041944100638
 30
0.0
  0
VERTEX
  5
6073C76
  8
2_HILFSLIN
  6
CONTINUOUS
 10
3754.5855804325551617
 20
1440.5457041944100638
 30
0.0
 42
0.3352055581937608
  0
VERTEX
  5
6073C77
  8
2_HILFSLIN
  6
CONTINUOUS
 10
3708.8480844348678147
 20
1395.9207041944100638
 30
0.0
  0
VERTEX
  5
6073C78
  8
2_HILFSLIN
  6
CONTINUOUS
 10
3703.131548437057063
 20
1364.4207041944100638
 30
0.0
  0
VERTEX
  5
6073C79
  8
2_HILFSLIN
  6
CONTINUOUS
 10
3703.1295324363750296
 20
1359.170032194182113
 30
0.0
 42
-0.2893787102330583
  0
VERTEX
  5
6073C7A
  8
2_HILFSLIN
  6
CONTINUOUS
 10
3826.0443804333917797
 20
1343.4198641929031055
 30
0.0
 42
-0.1931296645985425
  0
VERTEX
  5
6073C7B
  8
2_HILFSLIN
  6
CONTINUOUS
 10
3853.1932644351618364
 20
1293.5372201958159621
 30
0.0
 42
-0.3731486260989427
  0
VERTEX
  5
6073C7C
  8
2_HILFSLIN
  6
CONTINUOUS
 10
3791.7424764358438551
 20
1162.2921761968821102
 30
0.0
 42
-0.2532738643713228
  0
VERTEX
  5
6073C7D
  8
2_HILFSLIN
  6
CONTINUOUS
 10
3677.3986524336510229
 20
1183.2941921926760642
 30
0.0
 42
-0.1575543303248986
  0
VERTEX
  5
6073C7E
  8
2_HILFSLIN
  6
CONTINUOUS
 10
3648.8198364349082112
 20
1251.5445281952340792
 30
0.0
  0
VERTEX
  5
6073C7F
  8
2_HILFSLIN
  6
CONTINUOUS
 10
3648.81916443468117
 20
1327.6713761946371051
 30
0.0
 42
-0.0432186013474407
  0
VERTEX
  5
6073C80
  8
2_HILFSLIN
  6
CONTINUOUS
 10
3657.3945564334280789
 20
1406.4210401969680788
 30
0.0
 42
-10.2317896153486796
  0
SEQEND
  5
6073C81
  8
2_HILFSLIN
  6
CONTINUOUS
  0
POLYLINE
  5
60732B4
  8
1_OBJEKTE
 66
     1
 10
0.0
 20
0.0
 30
0.0
 70
     1
  0
VERTEX
  5
6073C82
  8
1_OBJEKTE
 10
4331.9631520452958284
 20
1269.9207041944100638
 30
0.0
  0
VERTEX
  5
6073C83
  8
1_OBJEKTE
 10
4331.9631520452958284
 20
1256.7957041944100638
 30
0.0
 42
-1.0289031201532219
  0
VERTEX
  5
6073C84
  8
1_OBJEKTE
 10
4226.1960640471952502
 20
1256.7957041944100638
 30
0.0
  0
VERTEX
  5
6073C85
  8
1_OBJEKTE
 10
4226.1960640471952502
 20
1269.9207041944100638
 30
0.0
 42
-1.0289031201532211
  0
SEQEND
  5
6073C86
  8
1_OBJEKTE
  0
POLYLINE
  5
60732B5
  8
2_HILFSLIN
  6
CONTINUOUS
 66
     1
 10
0.0
 20
0.0
 30
0.0
 70
     1
  0
VERTEX
  5
6073C87
  8
2_HILFSLIN
  6
CONTINUOUS
 10
4183.3174240455546169
 20
1406.4198641929031055
 30
0.0
 42
-0.3437138467616223
  0
VERTEX
  5
6073C88
  8
2_HILFSLIN
  6
CONTINUOUS
 10
4271.929864046075636
 20
1490.418856195007038
 30
0.0
  0
VERTEX
  5
6073C89
  8
2_HILFSLIN
  6
CONTINUOUS
 10
4329.104968044585803
 20
1490.4210401969680788
 30
0.0
  0
VERTEX
  5
6073C8A
  8
2_HILFSLIN
  6
CONTINUOUS
 10
4329.10429604924866
 20
1443.1707041944100638
 30
0.0
  0
VERTEX
  5
6073C8B
  8
2_HILFSLIN
  6
CONTINUOUS
 10
4280.5084480446821544
 20
1440.5457041944100638
 30
0.0
 42
0.3352055581937608
  0
VERTEX
  5
6073C8C
  8
2_HILFSLIN
  6
CONTINUOUS
 10
4234.7709520469943527
 20
1395.9207041944100638
 30
0.0
  0
VERTEX
  5
6073C8D
  8
2_HILFSLIN
  6
CONTINUOUS
 10
4229.054416049183601
 20
1364.4207041944100638
 30
0.0
  0
VERTEX
  5
6073C8E
  8
2_HILFSLIN
  6
CONTINUOUS
 10
4229.0524000485020224
 20
1359.170032194182113
 30
0.0
 42
-0.2893787102330583
  0
VERTEX
  5
6073C8F
  8
2_HILFSLIN
  6
CONTINUOUS
 10
4351.9672480455192272
 20
1343.4198641929031055
 30
0.0
 42
-0.1931296645985425
  0
VERTEX
  5
6073C90
  8
2_HILFSLIN
  6
CONTINUOUS
 10
4379.1161320472892839
 20
1293.5372201958159621
 30
0.0
 42
-0.3731486260989427
  0
VERTEX
  5
6073C91
  8
2_HILFSLIN
  6
CONTINUOUS
 10
4317.6653440479713026
 20
1162.2921761968821102
 30
0.0
 42
-0.2532738643713228
  0
VERTEX
  5
6073C92
  8
2_HILFSLIN
  6
CONTINUOUS
 10
4203.3215200457780156
 20
1183.2941921926760642
 30
0.0
 42
-0.1575543303248986
  0
VERTEX
  5
6073C93
  8
2_HILFSLIN
  6
CONTINUOUS
 10
4174.7427040470347492
 20
1251.5445281952340792
 30
0.0
  0
VERTEX
  5
6073C94
  8
2_HILFSLIN
  6
CONTINUOUS
 10
4174.7420320468081627
 20
1327.6713761946371051
 30
0.0
 42
-0.0432186013474407
  0
VERTEX
  5
6073C95
  8
2_HILFSLIN
  6
CONTINUOUS
 10
4183.3174240455546169
 20
1406.4210401969680788
 30
0.0
 42
-10.2317896153486796
  0
SEQEND
  5
6073C96
  8
2_HILFSLIN
  6
CONTINUOUS
  0
POLYLINE
  5
60732B6
  8
2_HILFSLIN
  6
CONTINUOUS
 66
     1
 10
0.0
 20
0.0
 30
0.0
 70
     1
  0
VERTEX
  5
6073C97
  8
2_HILFSLIN
  6
CONTINUOUS
 10
5046.5245418584527215
 20
1154.4207041944100638
 30
0.0
  0
VERTEX
  5
6073C98
  8
2_HILFSLIN
  6
CONTINUOUS
 10
5046.5245418584527215
 20
1406.4172818474251017
 30
0.0
  0
VERTEX
  5
6073C99
  8
2_HILFSLIN
  6
CONTINUOUS
 10
5009.363781855077832
 20
1346.0460401969680788
 30
0.0
  0
VERTEX
  5
6073C9A
  8
2_HILFSLIN
  6
CONTINUOUS
 10
4949.3335178593260935
 20
1346.0460401969680788
 30
0.0
  0
VERTEX
  5
6073C9B
  8
2_HILFSLIN
  6
CONTINUOUS
 10
5037.9484778545884183
 20
1490.4191921926760642
 30
0.0
  0
VERTEX
  5
6073C9C
  8
2_HILFSLIN
  6
CONTINUOUS
 10
5097.9799178592938915
 20
1490.4210401969680788
 30
0.0
  0
VERTEX
  5
6073C9D
  8
2_HILFSLIN
  6
CONTINUOUS
 10
5097.9799178592938915
 20
1154.4207041944100638
 30
0.0
  0
VERTEX
  5
6073C9E
  8
2_HILFSLIN
  6
CONTINUOUS
 10
5046.5245418584527215
 20
1154.4207041944100638
 30
0.0
  0
SEQEND
  5
6073C9F
  8
2_HILFSLIN
  6
CONTINUOUS
  0
POLYLINE
  5
60732B7
  8
2_HILFSLIN
  6
CONTINUOUS
 66
     1
 10
0.0
 20
0.0
 30
0.0
 70
     1
  0
VERTEX
  5
6073CA0
  8
2_HILFSLIN
  6
CONTINUOUS
 10
4735.1909273026385563
 20
1154.4207041944100638
 30
0.0
  0
VERTEX
  5
6073CA1
  8
2_HILFSLIN
  6
CONTINUOUS
 10
4735.1909273026385563
 20
1204.2957041944100638
 30
0.0
  0
VERTEX
  5
6073CA2
  8
2_HILFSLIN
  6
CONTINUOUS
 10
4786.6451273043057881
 20
1204.2957041944100638
 30
0.0
 42
0.4237732744990064
  0
VERTEX
  5
6073CA3
  8
2_HILFSLIN
  6
CONTINUOUS
 10
4832.3829593045529691
 20
1251.5460401969680788
 30
0.0
  0
VERTEX
  5
6073CA4
  8
2_HILFSLIN
  6
CONTINUOUS
 10
4838.0988233021353153
 20
1288.2945281952340792
 30
0.0
 42
-0.5430659833222132
  0
VERTEX
  5
6073CA5
  8
2_HILFSLIN
  6
CONTINUOUS
 10
4683.7217753044669735
 20
1372.2851201969390331
 30
0.0
 42
-0.2065605395252954
  0
VERTEX
  5
6073CA6
  8
2_HILFSLIN
  6
CONTINUOUS
 10
4715.1811193029279821
 20
1464.1678481971100609
 30
0.0
 42
-0.1430281202497298
  0
VERTEX
  5
6073CA7
  8
2_HILFSLIN
  6
CONTINUOUS
 10
4749.4813433023518883
 20
1485.1691921926760642
 30
0.0
 42
-0.1334165868703657
  0
VERTEX
  5
6073CA8
  8
2_HILFSLIN
  6
CONTINUOUS
 10
4829.5195673033013009
 20
1485.1695281952340792
 30
0.0
 42
-0.360310964734821
  0
VERTEX
  5
6073CA9
  8
2_HILFSLIN
  6
CONTINUOUS
 10
4892.4130553039140068
 20
1395.9207041944100638
 30
0.0
  0
VERTEX
  5
6073CAA
  8
2_HILFSLIN
  6
CONTINUOUS
 10
4892.4130553039140068
 20
1319.7960401969680788
 30
0.0
  0
VERTEX
  5
6073CAB
  8
2_HILFSLIN
  6
CONTINUOUS
 10
4889.5538633004180156
 20
1275.1710401969680788
 30
0.0
 42
-0.2741385620576149
  0
VERTEX
  5
6073CAC
  8
2_HILFSLIN
  6
CONTINUOUS
 10
4820.9440073032747023
 20
1162.2899921949210693
 30
0.0
  0
VERTEX
  5
6073CAD
  8
2_HILFSLIN
  6
CONTINUOUS
 10
4795.2208553007221781
 20
1157.0453681967410375
 30
0.0
  0
VERTEX
  5
6073CAE
  8
2_HILFSLIN
  6
CONTINUOUS
 10
4735.1899193047429435
 20
1154.4210401969680788
 30
0.0
  0
SEQEND
  5
6073CAF
  8
2_HILFSLIN
  6
CONTINUOUS
  0
POLYLINE
  5
60732B8
  8
1_OBJEKTE
 66
     1
 10
0.0
 20
0.0
 30
0.0
 70
     1
  0
VERTEX
  5
6073CB0
  8
1_OBJEKTE
 10
4839.1349968304557478
 20
1378.4305492008129477
 30
0.0
  0
VERTEX
  5
6073CB1
  8
1_OBJEKTE
 10
4839.1233330240802388
 20
1398.1904800675040406
 30
0.0
 42
0.9784638971002518
  0
VERTEX
  5
6073CB2
  8
1_OBJEKTE
 10
4737.0084138748061378
 20
1398.2310017431809683
 30
0.0
  0
VERTEX
  5
6073CB3
  8
1_OBJEKTE
 10
4736.9958677855611313
 20
1378.4305492008129477
 30
0.0
 42
1.0002951814127661
  0
VERTEX
  5
6073CB4
  8
1_OBJEKTE
 10
4839.1350057274103165
 20
1378.4004040795550736
 30
0.0
 42
0.0001475688487958
  0
SEQEND
  5
6073CB5
  8
1_OBJEKTE
  0
POLYLINE
  5
60732B9
  8
1_OBJEKTE
 66
     1
 10
0.0
 20
0.0
 30
0.0
 70
     1
  0
VERTEX
  5
6073CB6
  8
1_OBJEKTE
 10
5610.8817085982009303
 20
1256.7957041944100638
 30
0.0
  0
VERTEX
  5
6073CB7
  8
1_OBJEKTE
 10
5610.8817085982009303
 20
1390.6707041944100638
 30
0.0
 42
0.9999999999999998
  0
VERTEX
  5
6073CB8
  8
1_OBJEKTE
 10
5505.8637325961472015
 20
1390.6707041944100638
 30
0.0
  0
VERTEX
  5
6073CB9
  8
1_OBJEKTE
 10
5505.8637325961472015
 20
1256.7957041944100638
 30
0.0
 42
1.0000000000001159
  0
VERTEX
  5
6073CBA
  8
1_OBJEKTE
 10
5610.8817085982009303
 20
1256.7957041944318917
 30
0.0
  0
SEQEND
  5
6073CBB
  8
1_OBJEKTE
  0
POLYLINE
  5
60732BA
  8
2_HILFSLIN
  6
CONTINUOUS
 66
     1
 10
0.0
 20
0.0
 30
0.0
 70
     1
  0
VERTEX
  5
6073CBC
  8
2_HILFSLIN
  6
CONTINUOUS
 10
5661.2817085981951095
 20
1256.7957041944100638
 30
0.0
  0
VERTEX
  5
6073CBD
  8
2_HILFSLIN
  6
CONTINUOUS
 10
5661.2817085981951095
 20
1390.6707041944100638
 30
0.0
 42
1.0
  0
VERTEX
  5
6073CBE
  8
2_HILFSLIN
  6
CONTINUOUS
 10
5455.4637325961375609
 20
1390.6707041944100638
 30
0.0
  0
VERTEX
  5
6073CBF
  8
2_HILFSLIN
  6
CONTINUOUS
 10
5455.4637325961375609
 20
1256.7957041944030152
 30
0.0
 42
1.0
  0
SEQEND
  5
6073CC0
  8
2_HILFSLIN
  6
CONTINUOUS
  0
POLYLINE
  5
60732BB
  8
2_HILFSLIN
  6
CONTINUOUS
 66
     1
 10
0.0
 20
0.0
 30
0.0
 70
     1
  0
VERTEX
  5
6073CC1
  8
2_HILFSLIN
  6
CONTINUOUS
 10
4546.6705771481210832
 20
1346.7006290036440532
 30
0.0
 42
0.2826092924167972
  0
VERTEX
  5
6073CC2
  8
2_HILFSLIN
  6
CONTINUOUS
 10
4581.7316297324723564
 20
1393.0461123350319212
 30
0.0
 42
0.2262515605280944
  0
VERTEX
  5
6073CC3
  8
2_HILFSLIN
  6
CONTINUOUS
 10
4570.8100376401271205
 20
1423.1333733472049516
 30
0.0
 42
0.4822450420893297
  0
VERTEX
  5
6073CC4
  8
2_HILFSLIN
  6
CONTINUOUS
 10
4479.3011337112975525
 20
1411.9965169221759425
 30
0.0
  0
VERTEX
  5
6073CC5
  8
2_HILFSLIN
  6
CONTINUOUS
 10
4474.9620549097162439
 20
1393.4154685784669709
 30
0.0
  0
VERTEX
  5
6073CC6
  8
2_HILFSLIN
  6
CONTINUOUS
 10
4423.2042147532920353
 20
1393.4074850023969248
 30
0.0
  0
VERTEX
  5
6073CC7
  8
2_HILFSLIN
  6
CONTINUOUS
 10
4431.7900227531208657
 20
1430.1741170019161018
 30
0.0
 42
-0.5090220105141549
  0
VERTEX
  5
6073CC8
  8
2_HILFSLIN
  6
CONTINUOUS
 10
4606.1684787500998937
 20
1459.0491170019161018
 30
0.0
 42
-0.2262515605280437
  0
VERTEX
  5
6073CC9
  8
2_HILFSLIN
  6
CONTINUOUS
 10
4631.895662754017394
 20
1388.1747890021429157
 30
0.0
 42
-0.1865772188139146
  0
VERTEX
  5
6073CCA
  8
2_HILFSLIN
  6
CONTINUOUS
 10
4597.593758751580026
 20
1319.9244530044738895
 30
0.0
 42
-0.5861840356616379
  0
VERTEX
  5
6073CCB
  8
2_HILFSLIN
  6
CONTINUOUS
 10
4571.8640547529212199
 20
1162.4231090040188974
 30
0.0
 42
-0.159724902798268
  0
VERTEX
  5
6073CCC
  8
2_HILFSLIN
  6
CONTINUOUS
 10
4488.9555507520562969
 20
1159.7945810016030919
 30
0.0
 42
-0.2329317135287109
  0
VERTEX
  5
6073CCD
  8
2_HILFSLIN
  6
CONTINUOUS
 10
4431.7784307528636418
 20
1212.2949170041611069
 30
0.0
  0
VERTEX
  5
6073CCE
  8
2_HILFSLIN
  6
CONTINUOUS
 10
4423.206734752921875
 20
1249.037861004216893
 30
0.0
  0
VERTEX
  5
6073CCF
  8
2_HILFSLIN
  6
CONTINUOUS
 10
4474.6757187498151325
 20
1249.0506290036501014
 30
0.0
  0
VERTEX
  5
6073CD0
  8
2_HILFSLIN
  6
CONTINUOUS
 10
4486.1055987504660152
 20
1222.7984450016879237
 30
0.0
 42
0.3970445257678548
  0
VERTEX
  5
6073CD1
  8
2_HILFSLIN
  6
CONTINUOUS
 10
4566.1475187502219342
 20
1214.9252930059810751
 30
0.0
 42
0.1865927449889371
  0
VERTEX
  5
6073CD2
  8
2_HILFSLIN
  6
CONTINUOUS
 10
4580.4382707524928264
 20
1238.5516370015470784
 30
0.0
 42
0.3120229656110145
  0
VERTEX
  5
6073CD3
  8
2_HILFSLIN
  6
CONTINUOUS
 10
4557.5739747508769142
 20
1288.4252930059810751
 30
0.0
 42
0.1344754597339868
  0
VERTEX
  5
6073CD4
  8
2_HILFSLIN
  6
CONTINUOUS
 10
4528.9847427510540001
 20
1296.2974370037920835
 30
0.0
  0
VERTEX
  5
6073CD5
  8
2_HILFSLIN
  6
CONTINUOUS
 10
4474.6757187498151325
 20
1296.3006290036501014
 30
0.0
  0
VERTEX
  5
6073CD6
  8
2_HILFSLIN
  6
CONTINUOUS
 10
4474.6757187498151325
 20
1343.5514690051570597
 30
0.0
  0
VERTEX
  5
6073CD7
  8
2_HILFSLIN
  6
CONTINUOUS
 10
4533.4582966414745897
 20
1343.5514690051570597
 30
0.0
 42
0.1331753153481339
  0
SEQEND
  5
6073CD8
  8
2_HILFSLIN
  6
CONTINUOUS
  0
POLYLINE
  5
60732BC
  8
2_HILFSLIN
  6
CONTINUOUS
 66
     1
 10
0.0
 20
0.0
 30
0.0
 70
     1
  0
VERTEX
  5
6073CD9
  8
2_HILFSLIN
  6
CONTINUOUS
 10
5174.4548727504734416
 20
1322.4207041944100638
 30
0.0
  0
VERTEX
  5
6073CDA
  8
2_HILFSLIN
  6
CONTINUOUS
 10
5174.4548727504734416
 20
1490.4210401969680788
 30
0.0
  0
VERTEX
  5
6073CDB
  8
2_HILFSLIN
  6
CONTINUOUS
 10
5383.1313687498040963
 20
1490.4210401969680788
 30
0.0
  0
VERTEX
  5
6073CDC
  8
2_HILFSLIN
  6
CONTINUOUS
 10
5383.1313687498040963
 20
1443.1707041944100638
 30
0.0
  0
VERTEX
  5
6073CDD
  8
2_HILFSLIN
  6
CONTINUOUS
 10
5225.909576751088025
 20
1443.1707041944100638
 30
0.0
  0
VERTEX
  5
6073CDE
  8
2_HILFSLIN
  6
CONTINUOUS
 10
5225.909576751088025
 20
1372.2960401969689883
 30
0.0
  0
VERTEX
  5
6073CDF
  8
2_HILFSLIN
  6
CONTINUOUS
 10
5280.2226327488024253
 20
1372.2960401969689883
 30
0.0
 42
-0.397380566311407
  0
VERTEX
  5
6073CE0
  8
2_HILFSLIN
  6
CONTINUOUS
 10
5383.1313687498040963
 20
1275.1710401969680788
 30
0.0
 42
-0.0289244780860528
  0
VERTEX
  5
6073CE1
  8
2_HILFSLIN
  6
CONTINUOUS
 10
5383.1308647508558352
 20
1251.5453681967410375
 30
0.0
 42
-0.33410359968643
  0
VERTEX
  5
6073CE2
  8
2_HILFSLIN
  6
CONTINUOUS
 10
5303.0912967494514305
 20
1157.0460401969680788
 30
0.0
 42
-0.1120492397508117
  0
VERTEX
  5
6073CE3
  8
2_HILFSLIN
  6
CONTINUOUS
 10
5257.3538007517636288
 20
1157.0460401969680788
 30
0.0
 42
-0.2081452439587186
  0
VERTEX
  5
6073CE4
  8
2_HILFSLIN
  6
CONTINUOUS
 10
5185.8892887514375616
 20
1209.546712192305904
 30
0.0
  0
VERTEX
  5
6073CE5
  8
2_HILFSLIN
  6
CONTINUOUS
 10
5174.4503367501602042
 20
1251.5441921926760642
 30
0.0
  0
VERTEX
  5
6073CE6
  8
2_HILFSLIN
  6
CONTINUOUS
 10
5225.903192751370625
 20
1251.5453681967410375
 30
0.0
  0
VERTEX
  5
6073CE7
  8
2_HILFSLIN
  6
CONTINUOUS
 10
5234.4785847501188982
 20
1227.9185201924481134
 30
0.0
 42
0.6987879139942219
  0
VERTEX
  5
6073CE8
  8
2_HILFSLIN
  6
CONTINUOUS
 10
5331.6613767501257826
 20
1251.5374721952900927
 30
0.0
  0
VERTEX
  5
6073CE9
  8
2_HILFSLIN
  6
CONTINUOUS
 10
5331.6766647491886033
 20
1275.1710401969680788
 30
0.0
 42
0.4431999529592908
  0
VERTEX
  5
6073CEA
  8
2_HILFSLIN
  6
CONTINUOUS
 10
5280.2206167481199373
 20
1322.4185201924481134
 30
0.0
  0
VERTEX
  5
6073CEB
  8
2_HILFSLIN
  6
CONTINUOUS
 10
5174.4548727504734416
 20
1322.4207041944100638
 30
0.0
  0
SEQEND
  5
6073CEC
  8
2_HILFSLIN
  6
CONTINUOUS
  0
POLYLINE
  5
60732BD
  8
2_HILFSLIN
  6
CONTINUOUS
 66
     1
 10
0.0
 20
0.0
 30
0.0
 70
     1
  0
VERTEX
  5
6073CED
  8
2_HILFSLIN
  6
CONTINUOUS
 10
5717.1962102790557765
 20
1251.5310542553629602
 30
0.0
  0
VERTEX
  5
6073CEE
  8
2_HILFSLIN
  6
CONTINUOUS
 10
5774.3798400395171484
 20
1490.4069726898810586
 30
0.0
  0
VERTEX
  5
6073CEF
  8
2_HILFSLIN
  6
CONTINUOUS
 10
5825.8291978920897236
 20
1490.4057967350529452
 30
0.0
  0
VERTEX
  5
6073CF0
  8
2_HILFSLIN
  6
CONTINUOUS
 10
5782.934377866228715
 20
1298.780083969854104
 30
0.0
  0
VERTEX
  5
6073CF1
  8
2_HILFSLIN
  6
CONTINUOUS
 10
5831.2270257518393919
 20
1298.7896595685010652
 30
0.0
  0
VERTEX
  5
6073CF2
  8
2_HILFSLIN
  6
CONTINUOUS
 10
5831.2270257518393919
 20
1346.0380173157830086
 30
0.0
  0
VERTEX
  5
6073CF3
  8
2_HILFSLIN
  6
CONTINUOUS
 10
5880.1424998299626168
 20
1346.0380173157830086
 30
0.0
  0
VERTEX
  5
6073CF4
  8
2_HILFSLIN
  6
CONTINUOUS
 10
5880.1424998299626168
 20
1298.7896595685010652
 30
0.0
  0
VERTEX
  5
6073CF5
  8
2_HILFSLIN
  6
CONTINUOUS
 10
5931.5943775766791077
 20
1298.7896595685010652
 30
0.0
  0
VERTEX
  5
6073CF6
  8
2_HILFSLIN
  6
CONTINUOUS
 10
5931.5943775766791077
 20
1251.5416378097070265
 30
0.0
  0
VERTEX
  5
6073CF7
  8
2_HILFSLIN
  6
CONTINUOUS
 10
5880.1424998299626168
 20
1251.5416378097070265
 30
0.0
  0
VERTEX
  5
6073CF8
  8
2_HILFSLIN
  6
CONTINUOUS
 10
5880.1424998299626168
 20
1154.4207041944100638
 30
0.0
  0
VERTEX
  5
6073CF9
  8
2_HILFSLIN
  6
CONTINUOUS
 10
5831.2270257518393919
 20
1154.4207041944100638
 30
0.0
  0
VERTEX
  5
6073CFA
  8
2_HILFSLIN
  6
CONTINUOUS
 10
5831.2270257518393919
 20
1251.5416378097070265
 30
0.0
  0
VERTEX
  5
6073CFB
  8
2_HILFSLIN
  6
CONTINUOUS
 10
5717.1962102790557765
 20
1251.5310542553629602
 30
0.0
  0
SEQEND
  5
6073CFC
  8
2_HILFSLIN
  6
CONTINUOUS
  0
POLYLINE
  5
60732BE
  8
1_OBJEKTE
 66
     1
 10
0.0
 20
0.0
 30
0.0
 70
     1
  0
VERTEX
  5
6073CFD
  8
1_OBJEKTE
 10
10047.9942720227700192
 20
3729.6353577652039348
 30
0.0
  0
VERTEX
  5
6073CFE
  8
1_OBJEKTE
 10
10047.9942720227700192
 20
3809.9603577651869273
 30
0.0
 42
0.9999999999999998
  0
VERTEX
  5
6073CFF
  8
1_OBJEKTE
 10
9984.9834864215390553
 20
3809.9603577651869273
 30
0.0
  0
VERTEX
  5
6073D00
  8
1_OBJEKTE
 10
9984.9834864215390553
 20
3729.6353577652039348
 30
0.0
 42
1.0000000000001159
  0
VERTEX
  5
6073D01
  8
1_OBJEKTE
 10
10047.9942720227700192
 20
3729.6353577652039348
 30
0.0
  0
SEQEND
  5
6073D02
  8
1_OBJEKTE
  0
POLYLINE
  5
60732BF
  8
2_HILFSLIN
  6
CONTINUOUS
 66
     1
 10
0.0
 20
0.0
 30
0.0
 70
     1
  0
VERTEX
  5
6073D03
  8
2_HILFSLIN
  6
CONTINUOUS
 10
10078.234272022760706
 20
3729.6353577652039348
 30
0.0
  0
VERTEX
  5
6073D04
  8
2_HILFSLIN
  6
CONTINUOUS
 10
10078.234272022760706
 20
3809.9603577651869273
 30
0.0
 42
1.0
  0
VERTEX
  5
6073D05
  8
2_HILFSLIN
  6
CONTINUOUS
 10
9954.7434864215319976
 20
3809.9603577651869273
 30
0.0
  0
VERTEX
  5
6073D06
  8
2_HILFSLIN
  6
CONTINUOUS
 10
9954.7434864215319976
 20
3729.6353577652039348
 30
0.0
 42
1.0
  0
SEQEND
  5
6073D07
  8
2_HILFSLIN
  6
CONTINUOUS
  0
POLYLINE
  5
60732C0
  8
2_HILFSLIN
  6
CONTINUOUS
 66
     1
 10
0.0
 20
0.0
 30
0.0
 70
     1
  0
VERTEX
  5
6073D08
  8
2_HILFSLIN
  6
CONTINUOUS
 10
10165.7230911523201939
 20
3667.8899649645759382
 30
0.0
  0
VERTEX
  5
6073D09
  8
2_HILFSLIN
  6
CONTINUOUS
 10
10165.7230911523201939
 20
3819.0879115563730011
 30
0.0
  0
VERTEX
  5
6073D0A
  8
2_HILFSLIN
  6
CONTINUOUS
 10
10143.4266351502792531
 20
3782.8651665661168408
 30
0.0
  0
VERTEX
  5
6073D0B
  8
2_HILFSLIN
  6
CONTINUOUS
 10
10107.4084767528402153
 20
3782.8651665661168408
 30
0.0
  0
VERTEX
  5
6073D0C
  8
2_HILFSLIN
  6
CONTINUOUS
 10
10160.577452749999793
 20
3869.4890577635528643
 30
0.0
  0
VERTEX
  5
6073D0D
  8
2_HILFSLIN
  6
CONTINUOUS
 10
10196.5963167528207123
 20
3869.4901665661159313
 30
0.0
  0
VERTEX
  5
6073D0E
  8
2_HILFSLIN
  6
CONTINUOUS
 10
10196.5963167528207123
 20
3667.8899649645759382
 30
0.0
  0
VERTEX
  5
6073D0F
  8
2_HILFSLIN
  6
CONTINUOUS
 10
10165.7230911523201939
 20
3667.8899649645759382
 30
0.0
  0
SEQEND
  5
6073D10
  8
2_HILFSLIN
  6
CONTINUOUS
  0
ENDBLK
  5
60732C1
  8
0
  0
BLOCK
  8
0
  2
1
 70
     0
 10
0.0
 20
0.0
 30
0.0
  3
1
  1

  0
INSERT
  5
60732E3
  8
2_HILFSLIN
  2
65686391504
 10
3378.6965303311008029
 20
80520.6129965523432475
 30
0.0
  0
INSERT
  5
60732E4
  8
2_HILFSLIN
  2
65686391504
 10
3378.6965303311008029
 20
73820.6129716562427348
 30
0.0
  0
INSERT
  5
60732E5
  8
2_HILFSLIN
  2
65686391504
 10
3378.6965303311008029
 20
67120.6129467601713259
 30
0.0
  0
INSERT
  5
60732E6
  8
2_HILFSLIN
  2
65686391504
 10
3378.6965303311008029
 20
60420.6129218640708132
 30
0.0
  0
INSERT
  5
60732E7
  8
2_HILFSLIN
  2
65686391504
 10
3378.6965303311008029
 20
53720.6128969679775764
 30
0.0
  0
INSERT
  5
60732E8
  8
2_HILFSLIN
  2
65686391504
 10
3378.6965303311008029
 20
47020.6128720718916156
 30
0.0
  0
INSERT
  5
60732E9
  8
2_HILFSLIN
  2
65686391504
 10
3378.6965303311008029
 20
40320.6128471757911029
 30
0.0
  0
INSERT
  5
60732EA
  8
2_HILFSLIN
  2
65686391504
 10
3378.6965303311008029
 20
33620.6128222796978662
 30
0.0
  0
INSERT
  5
60732EB
  8
2_HILFSLIN
  2
65686391504
 10
3378.6965303311008029
 20
26920.6127973836082674
 30
0.0
  0
INSERT
  5
60732EC
  8
2_HILFSLIN
  2
65686391504
 10
3378.6965303311008029
 20
20220.6127724875186686
 30
0.0
  0
INSERT
  5
60732ED
  8
2_HILFSLIN
  2
65686391504
 10
3378.6965303311008029
 20
13520.6127475914199749
 30
0.0
  0
INSERT
  5
60732EE
  8
2_HILFSLIN
  2
65686391504
 10
3378.6965303311008029
 20
6820.6127226953331046
 30
0.0
  0
INSERT
  5
60732EF
  8
2_HILFSLIN
  2
65686391504
 10
3378.6965303311008029
 20
120.6126977992389016
 30
0.0
  0
ENDBLK
  5
60732E2
  8
0
  0
BLOCK
  8
0
  2
*U6
 70
     1
 10
0.0
 20
0.0
 30
0.0
  3
*U6
  1

  0
TEXT
  5
6073D12
  8
3_PRUEFMASSE
 10
9431.1941670167361735
 20
78855.489997465556371
 30
0.0
 40
1000.0
  1
135,001
  0
ENDBLK
  5
6073D14
  8
0
  0
BLOCK
  8
0
  2
*U7
 70
     1
 10
0.0
 20
0.0
 30
0.0
  3
*U7
  1

  0
TEXT
  5
6073D16
  8
3_PRUEFMASSE
 10
-76102.8634297636017436
 20
-9313.9918395681561378
 30
0.0
 40
1000.0
  1
90,000
 50
90.0
  0
ENDBLK
  5
6073D18
  8
0
  0
BLOCK
  8
0
  2
*U8
 70
     1
 10
0.0
 20
0.0
 30
0.0
  3
*U8
  1

  0
TEXT
  5
6073D1A
  8
3_PRUEFMASSE
 10
6421.8130065756877229
 20
-60516.3804987632320262
 30
0.0
 40
1000.0
  1
132,570
  0
ENDBLK
  5
6073D1C
  8
0
  0
BLOCK
  8
0
  2
*U9
 70
     1
 10
0.0
 20
0.0
 30
0.0
  3
*U9
  1

  0
TEXT
  5
6073D1E
  8
3_PRUEFMASSE
 10
94443.8504997349227779
 20
-9315.0150319283202407
 30
0.0
 40
1000.0
  1
85,103
 50
90.0
  0
ENDBLK
  5
6073D20
  8
0
  0
ENDSEC
  0
SECTION
  2
ENTITIES
  0
INSERT
  5
607357B
  8
2_HILFSLIN
  2
65686391504
 10
-57596.1867418337569688
 20
30665.7400863821603707
 30
0.0
 41
0.001
 42
0.001
 43
0.001
  0
ENDSEC
  0
EOF
