  0
SECTION
  2
HEADER
  9
$ACADVER
  1
AC1018
  9
$ACADMAINTVER
 70
     0
  9
$DWGCODEPAGE
  3
ANSI_1252
  9
$INSBASE
 10
0.0
 20
0.0
 30
0.0
  9
$EXTMIN
 10
-0.5
 20
-0.5
 30
-0.5
  9
$EXTMAX
 10
5.0
 20
5.0
 30
5.0
  9
$LIMMIN
 10
-0.5
 20
-0.5
  9
$LIMMAX
 10
5.0
 20
5.0
  9
$ORTHOMODE
 70
     0
  9
$REGENMODE
 70
     1
  9
$FILLMODE
 70
     1
  9
$QTEXTMODE
 70
     0
  9
$MIRRTEXT
 70
     1
  9
$LTSCALE
 40
1.0
  9
$ATTMODE
 70
     1
  9
$TEXTSIZE
 40
0.2
  9
$TRACEWID
 40
0.05
  9
$TEXTSTYLE
  7
Standard
  9
$CLAYER
  8
0
  9
$CELTYPE
  6
ByLayer
  9
$CECOLOR
 62
   256
  9
$CELTSCALE
 40
1.0
  9
$DISPSILH
 70
     0
  9
$DIMSCALE
 40
1.0
  9
$DIMASZ
 40
0.18
  9
$DIMEXO
 40
0.0625
  9
$DIMDLI
 40
0.38
  9
$DIMRND
 40
0.0
  9
$DIMDLE
 40
0.0
  9
$DIMEXE
 40
0.18
  9
$DIMTP
 40
0.0
  9
$DIMTM
 40
0.0
  9
$DIMTXT
 40
0.18
  9
$DIMCEN
 40
0.09
  9
$DIMTSZ
 40
0.0
  9
$DIMTOL
 70
     0
  9
$DIMLIM
 70
     0
  9
$DIMTIH
 70
     1
  9
$DIMTOH
 70
     1
  9
$DIMSE1
 70
     0
  9
$DIMSE2
 70
     0
  9
$DIMTAD
 70
     0
  9
$DIMZIN
 70
     0
  9
$DIMBLK
  1

  9
$DIMASO
 70
     1
  9
$DIMSHO
 70
     1
  9
$DIMPOST
  1

  9
$DIMAPOST
  1

  9
$DIMALT
 70
     0
  9
$DIMALTD
 70
     2
  9
$DIMALTF
 40
25.4
  9
$DIMLFAC
 40
1.0
  9
$DIMTOFL
 70
     0
  9
$DIMTVP
 40
0.0
  9
$DIMTIX
 70
     0
  9
$DIMSOXD
 70
     0
  9
$DIMSAH
 70
     0
  9
$DIMBLK1
  1

  9
$DIMBLK2
  1

  9
$DIMSTYLE
  2
Standard
  9
$DIMCLRD
 70
     0
  9
$DIMCLRE
 70
     0
  9
$DIMCLRT
 70
     0
  9
$DIMTFAC
 40
1.0
  9
$DIMGAP
 40
0.09
  9
$DIMJUST
 70
     0
  9
$DIMSD1
 70
     0
  9
$DIMSD2
 70
     0
  9
$DIMTOLJ
 70
     1
  9
$DIMTZIN
 70
     0
  9
$DIMALTZ
 70
     0
  9
$DIMALTTZ
 70
     0
  9
$DIMUPT
 70
     0
  9
$DIMDEC
 70
     4
  9
$DIMTDEC
 70
     4
  9
$DIMALTU
 70
     2
  9
$DIMALTTD
 70
     2
  9
$DIMTXSTY
  7
Standard
  9
$DIMAUNIT
 70
     0
  9
$DIMADEC
 70
     0
  9
$DIMALTRND
 40
0.0
  9
$DIMAZIN
 70
     0
  9
$DIMDSEP
 70
    46
  9
$DIMATFIT
 70
     3
  9
$DIMFRAC
 70
     0
  9
$DIMLDRBLK
  1

  9
$DIMLUNIT
 70
     2
  9
$DIMLWD
 70
    -2
  9
$DIMLWE
 70
    -2
  9
$DIMTMOVE
 70
     0
  9
$LUNITS
 70
     2
  9
$LUPREC
 70
     4
  9
$SKETCHINC
 40
0.1
  9
$FILLETRAD
 40
0.5
  9
$AUNITS
 70
     0
  9
$AUPREC
 70
     0
  9
$MENU
  1
.
  9
$ELEVATION
 40
0.0
  9
$PELEVATION
 40
0.0
  9
$THICKNESS
 40
0.0
  9
$LIMCHECK
 70
     0
  9
$CHAMFERA
 40
0.0
  9
$CHAMFERB
 40
0.0
  9
$CHAMFERC
 40
0.0
  9
$CHAMFERD
 40
0.0
  9
$SKPOLY
 70
     0
  9
$TDCREATE
 40
2459905.562315463
  9
$TDUCREATE
 40
2459905.520648796
  9
$TDUPDATE
 40
2459905.562316343
  9
$TDUUPDATE
 40
2459905.520649676
  9
$TDINDWG
 40
0.0000000116
  9
$TDUSRTIMER
 40
0.0000000116
  9
$USRTIMER
 70
     1
  9
$ANGBASE
 50
0.0
  9
$ANGDIR
 70
     0
  9
$PDMODE
 70
     0
  9
$PDSIZE
 40
0.0
  9
$PLINEWID
 40
0.0
  9
$SPLFRAME
 70
     0
  9
$SPLINETYPE
 70
     6
  9
$SPLINESEGS
 70
     8
  9
$HANDSEED
  5
34C
  9
$SURFTAB1
 70
     6
  9
$SURFTAB2
 70
     6
  9
$SURFTYPE
 70
     6
  9
$SURFU
 70
     6
  9
$SURFV
 70
     6
  9
$UCSBASE
  2

  9
$UCSNAME
  2

  9
$UCSORG
 10
0.0
 20
0.0
 30
0.0
  9
$UCSXDIR
 10
1.0
 20
0.0
 30
0.0
  9
$UCSYDIR
 10
0.0
 20
1.0
 30
0.0
  9
$UCSORTHOREF
  2

  9
$UCSORTHOVIEW
 70
     0
  9
$UCSORGTOP
 10
0.0
 20
0.0
 30
0.0
  9
$UCSORGBOTTOM
 10
0.0
 20
0.0
 30
0.0
  9
$UCSORGLEFT
 10
0.0
 20
0.0
 30
0.0
  9
$UCSORGRIGHT
 10
0.0
 20
0.0
 30
0.0
  9
$UCSORGFRONT
 10
0.0
 20
0.0
 30
0.0
  9
$UCSORGBACK
 10
0.0
 20
0.0
 30
0.0
  9
$PUCSBASE
  2

  9
$PUCSNAME
  2

  9
$PUCSORG
 10
0.0
 20
0.0
 30
0.0
  9
$PUCSXDIR
 10
1.0
 20
0.0
 30
0.0
  9
$PUCSYDIR
 10
0.0
 20
1.0
 30
0.0
  9
$PUCSORTHOREF
  2

  9
$PUCSORTHOVIEW
 70
     0
  9
$PUCSORGTOP
 10
0.0
 20
0.0
 30
0.0
  9
$PUCSORGBOTTOM
 10
0.0
 20
0.0
 30
0.0
  9
$PUCSORGLEFT
 10
0.0
 20
0.0
 30
0.0
  9
$PUCSORGRIGHT
 10
0.0
 20
0.0
 30
0.0
  9
$PUCSORGFRONT
 10
0.0
 20
0.0
 30
0.0
  9
$PUCSORGBACK
 10
0.0
 20
0.0
 30
0.0
  9
$USERI1
 70
     0
  9
$USERI2
 70
     0
  9
$USERI3
 70
     0
  9
$USERI4
 70
     0
  9
$USERI5
 70
     0
  9
$USERR1
 40
0.0
  9
$USERR2
 40
0.0
  9
$USERR3
 40
0.0
  9
$USERR4
 40
0.0
  9
$USERR5
 40
0.0
  9
$WORLDVIEW
 70
     1
  9
$SHADEDGE
 70
     3
  9
$SHADEDIF
 70
    70
  9
$TILEMODE
 70
     1
  9
$MAXACTVP
 70
    64
  9
$PINSBASE
 10
0.0
 20
0.0
 30
0.0
  9
$PLIMCHECK
 70
     0
  9
$PEXTMIN
 10
-0.5
 20
-0.5
 30
-0.5
  9
$PEXTMAX
 10
5.0
 20
5.0
 30
5.0
  9
$PLIMMIN
 10
-0.5
 20
-0.5
  9
$PLIMMAX
 10
5.0
 20
5.0
  9
$UNITMODE
 70
     0
  9
$VISRETAIN
 70
     1
  9
$PLINEGEN
 70
     0
  9
$PSLTSCALE
 70
     1
  9
$TREEDEPTH
 70
  3020
  9
$CMLSTYLE
  2
Standard
  9
$CMLJUST
 70
     0
  9
$CMLSCALE
 40
1.0
  9
$PROXYGRAPHICS
 70
     1
  9
$MEASUREMENT
 70
     1
  9
$CELWEIGHT
370
    13
  9
$ENDCAPS
280
     0
  9
$JOINSTYLE
280
     0
  9
$LWDISPLAY
290
     1
  9
$INSUNITS
 70
     4
  9
$HYPERLINKBASE
  1

  9
$STYLESHEET
  1

  9
$XEDIT
290
     1
  9
$CEPSNTYPE
380
     0
  9
$PSTYLEMODE
290
     1
  9
$FINGERPRINTGUID
  2
{5fb9c984-ca14-466b-9896-74a765629544}
  9
$VERSIONGUID
  2
{FAEB1C32-E019-11D5-929B-00C0DF256EC4}
  9
$EXTNAMES
290
     1
  9
$PSVPSCALE
 40
0.0
  9
$OLESTARTUP
290
     0
  9
$SORTENTS
280
   127
  9
$INDEXCTL
280
     0
  9
$HIDETEXT
280
     1
  9
$XCLIPFRAME
290
     0
  9
$HALOGAP
280
     0
  9
$OBSCOLOR
 70
   257
  9
$OBSLTYPE
280
     0
  9
$INTERSECTIONDISPLAY
280
     0
  9
$INTERSECTIONCOLOR
 70
   257
  9
$DIMASSOC
280
     2
  9
$PROJECTNAME
  1

  0
ENDSEC
  0
SECTION
  2
CLASSES
  0
CLASS
  1
ACDBDICTIONARYWDFLT
  2
AcDbDictionaryWithDefault
  3
ObjectDBX Classes
 90
        0
 91
        3
280
     0
281
     0
  0
CLASS
  1
VISUALSTYLE
  2
AcDbVisualStyle
  3
ObjectDBX Classes
 90
     4095
 91
        3
280
     0
281
     0
  0
CLASS
  1
MATERIAL
  2
AcDbMaterial
  3
ObjectDBX Classes
 90
     1153
 91
        3
280
     0
281
     0
  0
CLASS
  1
SCALE
  2
AcDbScale
  3
ObjectDBX Classes
 90
     1153
 91
        3
280
     0
281
     0
  0
CLASS
  1
TABLESTYLE
  2
AcDbTableStyle
  3
ObjectDBX Classes
 90
     4095
 91
        3
280
     0
281
     0
  0
CLASS
  1
MLEADERSTYLE
  2
AcDbMLeaderStyle
  3
ACDB_MLEADERSTYLE_CLASS
 90
     4095
 91
        3
280
     0
281
     0
  0
CLASS
  1
SUN
  2
AcDbSun
  3
SCENEOE
 90
     1153
 91
        3
280
     0
281
     0
  0
CLASS
  1
DICTIONARYVAR
  2
AcDbDictionaryVar
  3
ObjectDBX Classes
 90
        0
 91
        3
280
     0
281
     0
  0
CLASS
  1
CELLSTYLEMAP
  2
AcDbCellStyleMap
  3
ObjectDBX Classes
 90
     1152
 91
        3
280
     0
281
     0
  0
ENDSEC
  0
SECTION
  2
TABLES
  0
TABLE
  2
VPORT
  5
8
102
{ACAD_XDICTIONARY
360
305
102
}
330
0
100
AcDbSymbolTable
 70
    16
  0
VPORT
  5
29
330
8
100
AcDbSymbolTableRecord
100
AcDbViewportTableRecord
  2
*Active
 70
     0
 10
0.0
 20
0.0
 11
1.0
 21
1.0
 12
0.0
 22
0.0
 13
0.0
 23
0.0
 14
0.5
 24
0.5
 15
0.5
 25
0.5
 16
0.7188730927569433
 26
-0.5850486126764433
 36
0.3754192287502549
 17
0.0
 27
0.0
 37
0.0
 40
1521.763907
 41
0.011669
 42
50.0
 43
752.624902
 44
-752.624902
 50
0.0
 51
0.0
 71
     0
 72
   100
 73
     1
 74
     3
 75
     0
 76
     0
 77
     0
 78
     0
281
     0
 65
     1
110
0.0
120
0.0
130
0.0
111
1.0
121
0.0
131
0.0
112
0.0
122
1.0
132
0.0
 79
     0
146
0.0
  0
VPORT
  5
2F6
330
8
100
AcDbSymbolTableRecord
100
AcDbViewportTableRecord
  2
L1
 70
     0
 10
0.0
 20
0.0
 11
1.0
 21
1.0
 12
0.0
 22
0.0
 13
0.0
 23
0.0
 14
0.5
 24
0.5
 15
0.5
 25
0.5
 16
0.7188730927569433
 26
-0.5850486126764433
 36
0.3754192287502549
 17
0.0
 27
0.0
 37
0.0
 40
1521.763907
 41
0.011669
 42
50.0
 43
752.624902
 44
-752.624902
 50
0.0
 51
0.0
 71
     0
 72
   100
 73
     1
 74
     3
 75
     0
 76
     0
 77
     0
 78
     0
281
     0
 65
     1
110
0.0
120
0.0
130
0.0
111
1.0
121
0.0
131
0.0
112
0.0
122
1.0
132
0.0
 79
     0
146
0.0
  0
VPORT
  5
2F7
330
8
100
AcDbSymbolTableRecord
100
AcDbViewportTableRecord
  2
L2
 70
     0
 10
0.0
 20
0.0
 11
0.5
 21
1.0
 12
0.0
 22
0.0
 13
0.0
 23
0.0
 14
0.5
 24
0.5
 15
0.5
 25
0.5
 16
0.0
 26
-1.0
 36
0.0
 17
0.0
 27
0.0
 37
0.0
 40
1468.536394
 41
0.012091
 42
50.0
 43
756.273519
 44
-756.273519
 50
0.0
 51
0.0
 71
     0
 72
   100
 73
     1
 74
     3
 75
     0
 76
     0
 77
     0
 78
     0
281
     0
 65
     1
110
0.0
120
0.0
130
0.0
111
1.0
121
0.0
131
0.0
112
0.0
122
1.0
132
0.0
 79
     0
146
0.0
  0
VPORT
  5
2F8
330
8
100
AcDbSymbolTableRecord
100
AcDbViewportTableRecord
  2
L2
 70
     0
 10
0.5
 20
0.0
 11
1.0
 21
1.0
 12
0.0
 22
0.0
 13
0.0
 23
0.0
 14
0.5
 24
0.5
 15
0.5
 25
0.5
 16
1.0
 26
0.0
 36
0.0
 17
0.0
 27
0.0
 37
0.0
 40
1468.536394
 41
0.012091
 42
50.0
 43
743.439725
 44
-743.439725
 50
0.0
 51
0.0
 71
     0
 72
   100
 73
     1
 74
     3
 75
     0
 76
     0
 77
     0
 78
     0
281
     0
 65
     1
110
0.0
120
0.0
130
0.0
111
1.0
121
0.0
131
0.0
112
0.0
122
1.0
132
0.0
 79
     0
146
0.0
  0
VPORT
  5
2F9
330
8
100
AcDbSymbolTableRecord
100
AcDbViewportTableRecord
  2
L3
 70
     0
 10
0.0
 20
0.5
 11
1.0
 21
1.0
 12
0.0
 22
0.0
 13
0.0
 23
0.0
 14
0.5
 24
0.5
 15
0.5
 25
0.5
 16
0.0
 26
0.0
 36
1.0
 17
0.0
 27
0.0
 37
0.0
 40
232.833333
 41
0.076264
 42
50.0
 43
734.268197
 44
-734.268197
 50
0.0
 51
0.0
 71
     0
 72
   100
 73
     1
 74
     3
 75
     0
 76
     0
 77
     0
 78
     0
281
     0
 65
     1
110
0.0
120
0.0
130
0.0
111
1.0
121
0.0
131
0.0
112
0.0
122
1.0
132
0.0
 79
     0
146
0.0
  0
VPORT
  5
2FA
330
8
100
AcDbSymbolTableRecord
100
AcDbViewportTableRecord
  2
L3
 70
     0
 10
0.0
 20
0.0
 11
1.0
 21
0.5
 12
0.0
 22
0.0
 13
0.0
 23
0.0
 14
0.5
 24
0.5
 15
0.5
 25
0.5
 16
0.0
 26
-1.0
 36
0.0
 17
0.0
 27
0.0
 37
0.0
 40
1468.536394
 41
0.012091
 42
50.0
 43
756.273519
 44
-756.273519
 50
0.0
 51
0.0
 71
     0
 72
   100
 73
     1
 74
     3
 75
     0
 76
     0
 77
     0
 78
     0
281
     0
 65
     1
110
0.0
120
0.0
130
0.0
111
1.0
121
0.0
131
0.0
112
0.0
122
1.0
132
0.0
 79
     0
146
0.0
  0
VPORT
  5
2FB
330
8
100
AcDbSymbolTableRecord
100
AcDbViewportTableRecord
  2
L4
 70
     0
 10
0.0
 20
0.5
 11
0.5
 21
1.0
 12
0.0
 22
0.0
 13
0.0
 23
0.0
 14
0.5
 24
0.5
 15
0.5
 25
0.5
 16
0.0
 26
0.0
 36
1.0
 17
0.0
 27
0.0
 37
0.0
 40
232.833333
 41
0.076264
 42
50.0
 43
734.268197
 44
-734.268197
 50
0.0
 51
0.0
 71
     0
 72
   100
 73
     1
 74
     3
 75
     0
 76
     0
 77
     0
 78
     0
281
     0
 65
     1
110
0.0
120
0.0
130
0.0
111
1.0
121
0.0
131
0.0
112
0.0
122
1.0
132
0.0
 79
     0
146
0.0
  0
VPORT
  5
2FC
330
8
100
AcDbSymbolTableRecord
100
AcDbViewportTableRecord
  2
L4
 70
     0
 10
0.0
 20
0.0
 11
0.5
 21
0.5
 12
0.0
 22
0.0
 13
0.0
 23
0.0
 14
0.5
 24
0.5
 15
0.5
 25
0.5
 16
0.0
 26
-1.0
 36
0.0
 17
0.0
 27
0.0
 37
0.0
 40
1468.536394
 41
0.012091
 42
50.0
 43
756.273519
 44
-756.273519
 50
0.0
 51
0.0
 71
     0
 72
   100
 73
     1
 74
     3
 75
     0
 76
     0
 77
     0
 78
     0
281
     0
 65
     1
110
0.0
120
0.0
130
0.0
111
1.0
121
0.0
131
0.0
112
0.0
122
1.0
132
0.0
 79
     0
146
0.0
  0
VPORT
  5
2FD
330
8
100
AcDbSymbolTableRecord
100
AcDbViewportTableRecord
  2
L4
 70
     0
 10
0.5
 20
0.0
 11
1.0
 21
0.5
 12
0.0
 22
0.0
 13
0.0
 23
0.0
 14
0.5
 24
0.5
 15
0.5
 25
0.5
 16
1.0
 26
0.0
 36
0.0
 17
0.0
 27
0.0
 37
0.0
 40
1468.536394
 41
0.012091
 42
50.0
 43
743.439725
 44
-743.439725
 50
0.0
 51
0.0
 71
     0
 72
   100
 73
     1
 74
     3
 75
     0
 76
     0
 77
     0
 78
     0
281
     0
 65
     1
110
0.0
120
0.0
130
0.0
111
1.0
121
0.0
131
0.0
112
0.0
122
1.0
132
0.0
 79
     0
146
0.0
  0
VPORT
  5
2FE
330
8
100
AcDbSymbolTableRecord
100
AcDbViewportTableRecord
  2
L4
 70
     0
 10
0.5
 20
0.5
 11
1.0
 21
1.0
 12
0.0
 22
0.0
 13
0.0
 23
0.0
 14
0.5
 24
0.5
 15
0.5
 25
0.5
 16
0.5773502691896258
 26
-0.5773502691896258
 36
0.5773502691896258
 17
0.0
 27
0.0
 37
0.0
 40
1441.982239
 41
0.012314
 42
50.0
 43
751.058218
 44
-751.058218
 50
0.0
 51
0.0
 71
     0
 72
   100
 73
     1
 74
     3
 75
     0
 76
     0
 77
     0
 78
     0
281
     0
 65
     1
110
0.0
120
0.0
130
0.0
111
1.0
121
0.0
131
0.0
112
0.0
122
1.0
132
0.0
 79
     0
146
0.0
  0
VPORT
  5
2FF
330
8
100
AcDbSymbolTableRecord
100
AcDbViewportTableRecord
  2
L6
 70
     0
 10
0.0
 20
0.5
 11
0.333333
 21
1.0
 12
0.0
 22
0.0
 13
0.0
 23
0.0
 14
0.5
 24
0.5
 15
0.5
 25
0.5
 16
0.7188730927569433
 26
-0.5850486126764433
 36
0.3754192287502549
 17
0.0
 27
0.0
 37
0.0
 40
1521.763907
 41
0.011669
 42
50.0
 43
752.624902
 44
-752.624902
 50
0.0
 51
0.0
 71
     0
 72
   100
 73
     1
 74
     3
 75
     0
 76
     0
 77
     0
 78
     0
281
     0
 65
     1
110
0.0
120
0.0
130
0.0
111
1.0
121
0.0
131
0.0
112
0.0
122
1.0
132
0.0
 79
     0
146
0.0
  0
VPORT
  5
300
330
8
100
AcDbSymbolTableRecord
100
AcDbViewportTableRecord
  2
L6
 70
     0
 10
0.0
 20
0.0
 11
0.333333
 21
0.5
 12
0.0
 22
0.0
 13
0.0
 23
0.0
 14
0.5
 24
0.5
 15
0.5
 25
0.5
 16
-1.0
 26
0.0
 36
0.0
 17
0.0
 27
0.0
 37
0.0
 40
1468.536394
 41
0.012091
 42
50.0
 43
743.439725
 44
-743.439725
 50
0.0
 51
0.0
 71
     0
 72
   100
 73
     1
 74
     3
 75
     0
 76
     0
 77
     0
 78
     0
281
     0
 65
     1
110
0.0
120
0.0
130
0.0
111
1.0
121
0.0
131
0.0
112
0.0
122
1.0
132
0.0
 79
     0
146
0.0
  0
VPORT
  5
301
330
8
100
AcDbSymbolTableRecord
100
AcDbViewportTableRecord
  2
L6
 70
     0
 10
0.333333
 20
0.5
 11
0.666667
 21
1.0
 12
0.0
 22
0.0
 13
0.0
 23
0.0
 14
0.5
 24
0.5
 15
0.5
 25
0.5
 16
0.0
 26
0.0
 36
1.0
 17
0.0
 27
0.0
 37
0.0
 40
232.833333
 41
0.076264
 42
50.0
 43
734.268197
 44
-734.268197
 50
0.0
 51
0.0
 71
     0
 72
   100
 73
     1
 74
     3
 75
     0
 76
     0
 77
     0
 78
     0
281
     0
 65
     1
110
0.0
120
0.0
130
0.0
111
1.0
121
0.0
131
0.0
112
0.0
122
1.0
132
0.0
 79
     0
146
0.0
  0
VPORT
  5
302
330
8
100
AcDbSymbolTableRecord
100
AcDbViewportTableRecord
  2
L6
 70
     0
 10
0.333333
 20
0.0
 11
0.666667
 21
0.5
 12
0.0
 22
0.0
 13
0.0
 23
0.0
 14
0.5
 24
0.5
 15
0.5
 25
0.5
 16
0.0
 26
-1.0
 36
0.0
 17
0.0
 27
0.0
 37
0.0
 40
1468.536394
 41
0.012091
 42
50.0
 43
756.273519
 44
-756.273519
 50
0.0
 51
0.0
 71
     0
 72
   100
 73
     1
 74
     3
 75
     0
 76
     0
 77
     0
 78
     0
281
     0
 65
     1
110
0.0
120
0.0
130
0.0
111
1.0
121
0.0
131
0.0
112
0.0
122
1.0
132
0.0
 79
     0
146
0.0
  0
VPORT
  5
303
330
8
100
AcDbSymbolTableRecord
100
AcDbViewportTableRecord
  2
L6
 70
     0
 10
0.666667
 20
0.5
 11
1.0
 21
1.0
 12
0.0
 22
0.0
 13
0.0
 23
0.0
 14
0.5
 24
0.5
 15
0.5
 25
0.5
 16
0.5773502691896258
 26
-0.5773502691896258
 36
0.5773502691896258
 17
0.0
 27
0.0
 37
0.0
 40
1441.982239
 41
0.012314
 42
50.0
 43
751.058218
 44
-751.058218
 50
0.0
 51
0.0
 71
     0
 72
   100
 73
     1
 74
     3
 75
     0
 76
     0
 77
     0
 78
     0
281
     0
 65
     1
110
0.0
120
0.0
130
0.0
111
1.0
121
0.0
131
0.0
112
0.0
122
1.0
132
0.0
 79
     0
146
0.0
  0
VPORT
  5
304
330
8
100
AcDbSymbolTableRecord
100
AcDbViewportTableRecord
  2
L6
 70
     0
 10
0.666667
 20
0.0
 11
1.0
 21
0.5
 12
0.0
 22
0.0
 13
0.0
 23
0.0
 14
0.5
 24
0.5
 15
0.5
 25
0.5
 16
1.0
 26
0.0
 36
0.0
 17
0.0
 27
0.0
 37
0.0
 40
1468.536394
 41
0.012091
 42
50.0
 43
743.439725
 44
-743.439725
 50
0.0
 51
0.0
 71
     0
 72
   100
 73
     1
 74
     3
 75
     0
 76
     0
 77
     0
 78
     0
281
     0
 65
     1
110
0.0
120
0.0
130
0.0
111
1.0
121
0.0
131
0.0
112
0.0
122
1.0
132
0.0
 79
     0
146
0.0
  0
ENDTAB
  0
TABLE
  2
LTYPE
  5
5
330
0
100
AcDbSymbolTable
 70
     6
  0
LTYPE
  5
14
330
5
100
AcDbSymbolTableRecord
100
AcDbLinetypeTableRecord
  2
ByBlock
 70
     0
  3

 72
    65
 73
     0
 40
0.0
  0
LTYPE
  5
15
330
5
100
AcDbSymbolTableRecord
100
AcDbLinetypeTableRecord
  2
ByLayer
 70
     0
  3

 72
    65
 73
     0
 40
0.0
  0
LTYPE
  5
16
330
5
100
AcDbSymbolTableRecord
100
AcDbLinetypeTableRecord
  2
Continuous
 70
     0
  3
Solid line
 72
    65
 73
     0
 40
0.0
  0
LTYPE
  5
6E
330
5
100
AcDbSymbolTableRecord
100
AcDbLinetypeTableRecord
  2
CENTER
 70
     0
  3
____ _ ____ _ ____ _ ____
 72
    65
 73
     4
 40
47.4
 49
22.0
 74
     4
 75
     0
340
0
 46
0.0
 50
0.0
 44
0.0
 45
0.0
 49
-8.5
 74
     4
 75
     0
340
0
 46
0.0
 50
0.0
 44
0.0
 45
0.0
 49
8.5
 74
     4
 75
     0
340
0
 46
0.0
 50
0.0
 44
0.0
 45
0.0
 49
-8.5
 74
     4
 75
     0
340
0
 46
0.0
 50
0.0
 44
0.0
 45
0.0
  0
LTYPE
  5
6F
330
5
100
AcDbSymbolTableRecord
100
AcDbLinetypeTableRecord
  2
DASHDOT
 70
     0
  3
_._._._._._._._._._._._._._._._.
 72
    65
 73
     4
 40
70.0
 49
31.0
 74
     4
 75
     0
340
0
 46
0.0
 50
0.0
 44
0.0
 45
0.0
 49
-13.0
 74
     4
 75
     0
340
0
 46
0.0
 50
0.0
 44
0.0
 45
0.0
 49
13.0
 74
     4
 75
     0
340
0
 46
0.0
 50
0.0
 44
0.0
 45
0.0
 49
-13.0
 74
     4
 75
     0
340
0
 46
0.0
 50
0.0
 44
0.0
 45
0.0
  0
LTYPE
  5
70
330
5
100
AcDbSymbolTableRecord
100
AcDbLinetypeTableRecord
  2
DASHED
 70
     0
  3
__ __ __ __ __ __ __ __ __
 72
    65
 73
     2
 40
25.72
 49
12.86
 74
     4
 75
     0
340
0
 46
0.0
 50
0.0
 44
0.0
 45
0.0
 49
-12.86
 74
     4
 75
     0
340
0
 46
0.0
 50
0.0
 44
0.0
 45
0.0
  0
LTYPE
  5
71
330
5
100
AcDbSymbolTableRecord
100
AcDbLinetypeTableRecord
  2
DOT
 70
     0
  3
.........................
 72
    65
 73
     2
 40
10.0
 49
0.0
 74
     4
 75
     0
340
0
 46
0.0
 50
0.0
 44
0.0
 45
0.0
 49
-10.0
 74
     4
 75
     0
340
0
 46
0.0
 50
0.0
 44
0.0
 45
0.0
  0
LTYPE
  5
72
330
5
100
AcDbSymbolTableRecord
100
AcDbLinetypeTableRecord
  2
PHANTOM
 70
     0
  3
____ _ _ ____ _ _ _____ _ _ ____
 72
    65
 73
     6
 40
50.5
 49
18.0
 74
     4
 75
     0
340
0
 46
0.0
 50
0.0
 44
0.0
 45
0.0
 49
-6.5
 74
     4
 75
     0
340
0
 46
0.0
 50
0.0
 44
0.0
 45
0.0
 49
6.5
 74
     4
 75
     0
340
0
 46
0.0
 50
0.0
 44
0.0
 45
0.0
 49
-6.5
 74
     4
 75
     0
340
0
 46
0.0
 50
0.0
 44
0.0
 45
0.0
 49
6.5
 74
     4
 75
     0
340
0
 46
0.0
 50
0.0
 44
0.0
 45
0.0
 49
-6.5
 74
     4
 75
     0
340
0
 46
0.0
 50
0.0
 44
0.0
 45
0.0
  0
ENDTAB
  0
TABLE
  2
LAYER
  5
2
330
0
100
AcDbSymbolTable
 70
     2
  0
LAYER
  5
10
330
2
100
AcDbSymbolTableRecord
100
AcDbLayerTableRecord
  2
0
 70
     0
 62
     7
  6
Continuous
370
    -3
390
F
  0
LAYER
  5
75
330
2
100
AcDbSymbolTableRecord
100
AcDbLayerTableRecord
  2
1
 70
     0
 62
     7
420
 16777215
  6
Continuous
370
    -3
390
F
  0
ENDTAB
  0
TABLE
  2
STYLE
  5
3
330
0
100
AcDbSymbolTable
 70
     1
  0
STYLE
  5
11
330
3
100
AcDbSymbolTableRecord
100
AcDbTextStyleTableRecord
  2
Standard
 70
     0
 40
0.0
 41
1.0
 50
0.0
 71
     0
 42
0.2
  3
txt
  4

  0
ENDTAB
  0
TABLE
  2
VIEW
  5
6
330
0
100
AcDbSymbolTable
 70
    24
  0
VIEW
  5
2DE
330
6
100
AcDbSymbolTableRecord
100
AcDbViewTableRecord
  2
Top
 70
     0
 40
232.833333
 10
0.0
 20
0.0
 41
362.214583
 11
0.0
 21
0.0
 31
1.0
 12
0.0
 22
0.0
 32
0.0
 42
50.0
 43
734.268197
 44
-734.268197
 50
0.0
 71
     0
281
     0
 72
     0
  0
VIEW
  5
2DF
330
6
100
AcDbSymbolTableRecord
100
AcDbViewTableRecord
  2
Front
 70
     0
 40
1468.536394
 10
0.0
 20
0.0
 41
362.214583
 11
0.0
 21
-1.0
 31
0.0
 12
0.0
 22
0.0
 32
0.0
 42
50.0
 43
756.273519
 44
-756.273519
 50
0.0
 71
     0
281
     0
 72
     0
  0
VIEW
  5
2E0
330
6
100
AcDbSymbolTableRecord
100
AcDbViewTableRecord
  2
Right
 70
     0
 40
1468.536394
 10
0.0
 20
0.0
 41
232.833333
 11
1.0
 21
0.0
 31
0.0
 12
0.0
 22
0.0
 32
0.0
 42
50.0
 43
743.439725
 44
-743.439725
 50
0.0
 71
     0
281
     0
 72
     0
  0
VIEW
  5
2E1
330
6
100
AcDbSymbolTableRecord
100
AcDbViewTableRecord
  2
Back
 70
     0
 40
1468.536394
 10
0.0
 20
0.0
 41
362.214583
 11
0.0
 21
1.0
 31
0.0
 12
0.0
 22
0.0
 32
0.0
 42
50.0
 43
756.273519
 44
-756.273519
 50
0.0
 71
     0
281
     0
 72
     0
  0
VIEW
  5
2E2
330
6
100
AcDbSymbolTableRecord
100
AcDbViewTableRecord
  2
Bottom
 70
     0
 40
232.833333
 10
0.0
 20
0.0
 41
362.214583
 11
0.0
 21
0.0
 31
-1.0
 12
0.0
 22
0.0
 32
0.0
 42
50.0
 43
734.268197
 44
-734.268197
 50
180.0
 71
     0
281
     0
 72
     0
  0
VIEW
  5
2E3
330
6
100
AcDbSymbolTableRecord
100
AcDbViewTableRecord
  2
Left
 70
     0
 40
1468.536394
 10
0.0
 20
0.0
 41
232.833333
 11
-1.0
 21
0.0
 31
0.0
 12
0.0
 22
0.0
 32
0.0
 42
50.0
 43
743.439725
 44
-743.439725
 50
0.0
 71
     0
281
     0
 72
     0
  0
VIEW
  5
2E4
330
6
100
AcDbSymbolTableRecord
100
AcDbViewTableRecord
  2
Isometric
 70
     0
 40
1441.982239
 10
0.0
 20
0.0
 41
420.762417
 11
0.5773502691896258
 21
-0.5773502691896258
 31
0.5773502691896258
 12
0.0
 22
0.0
 32
0.0
 42
50.0
 43
751.058218
 44
-751.058218
 50
0.0
 71
     0
281
     0
 72
     0
  0
VIEW
  5
2E5
330
6
100
AcDbSymbolTableRecord
100
AcDbViewTableRecord
  2
Trimetric
 70
     0
 40
1521.763907
 10
0.0
 20
0.0
 41
409.223353
 11
0.7188730927569433
 21
-0.5850486126764433
 31
0.3754192287502549
 12
0.0
 22
0.0
 32
0.0
 42
50.0
 43
752.624902
 44
-752.624902
 50
0.0
 71
     0
281
     0
 72
     0
  0
VIEW
  5
2E6
330
6
100
AcDbSymbolTableRecord
100
AcDbViewTableRecord
  2
Dimetric_View_B1
 70
     0
 40
1529.816258
 10
0.0
 20
0.0
 41
382.746873
 11
-0.8365163037378073
 21
-0.4829629131445347
 31
0.2588190451025218
 12
0.0
 22
0.0
 32
0.0
 42
50.0
 43
788.484773
 44
-788.484773
 50
0.0
 71
     0
281
     0
 72
     0
  0
VIEW
  5
2E7
330
6
100
AcDbSymbolTableRecord
100
AcDbViewTableRecord
  2
Dimetric_View_B2
 70
     0
 40
1529.816258
 10
0.0
 20
0.0
 41
382.746873
 11
-0.8365163037378084
 21
0.4829629131445327
 31
0.2588190451025218
 12
0.0
 22
0.0
 32
0.0
 42
50.0
 43
788.484773
 44
-788.484773
 50
0.0
 71
     0
281
     0
 72
     0
  0
VIEW
  5
2E8
330
6
100
AcDbSymbolTableRecord
100
AcDbViewTableRecord
  2
Dimetric_View_B5
 70
     0
 40
1529.816258
 10
0.0
 20
0.0
 41
382.746873
 11
0.8365163037378073
 21
-0.4829629131445347
 31
0.2588190451025218
 12
0.0
 22
0.0
 32
0.0
 42
50.0
 43
788.484773
 44
-788.484773
 50
0.0
 71
     0
281
     0
 72
     0
  0
VIEW
  5
2E9
330
6
100
AcDbSymbolTableRecord
100
AcDbViewTableRecord
  2
Dimetric_View_B6
 70
     0
 40
1529.816258
 10
0.0
 20
0.0
 41
382.746873
 11
0.8365163037378084
 21
0.4829629131445327
 31
0.2588190451025218
 12
0.0
 22
0.0
 32
0.0
 42
50.0
 43
788.484773
 44
-788.484773
 50
0.0
 71
     0
281
     0
 72
     0
  0
VIEW
  5
2EA
330
6
100
AcDbSymbolTableRecord
100
AcDbViewTableRecord
  2
Dimetric_View_C1
 70
     0
 40
1517.55941
 10
0.0
 20
0.0
 41
430.103697
 11
-0.4829629131445337
 21
-0.8365163037378078
 31
0.2588190451025218
 12
0.0
 22
0.0
 32
0.0
 42
50.0
 43
788.665923
 44
-788.665923
 50
0.0
 71
     0
281
     0
 72
     0
  0
VIEW
  5
2EB
330
6
100
AcDbSymbolTableRecord
100
AcDbViewTableRecord
  2
Dimetric_View_C2
 70
     0
 40
1517.55941
 10
0.0
 20
0.0
 41
430.103697
 11
-0.4829629131445359
 21
0.8365163037378067
 31
0.2588190451025218
 12
0.0
 22
0.0
 32
0.0
 42
50.0
 43
788.665923
 44
-788.665923
 50
0.0
 71
     0
281
     0
 72
     0
  0
VIEW
  5
2EC
330
6
100
AcDbSymbolTableRecord
100
AcDbViewTableRecord
  2
Dimetric_View_C5
 70
     0
 40
1517.55941
 10
0.0
 20
0.0
 41
430.103697
 11
0.4829629131445337
 21
-0.8365163037378078
 31
0.2588190451025218
 12
0.0
 22
0.0
 32
0.0
 42
50.0
 43
788.665923
 44
-788.665923
 50
0.0
 71
     0
281
     0
 72
     0
  0
VIEW
  5
2ED
330
6
100
AcDbSymbolTableRecord
100
AcDbViewTableRecord
  2
Dimetric_View_C6
 70
     0
 40
1517.55941
 10
0.0
 20
0.0
 41
430.103697
 11
0.4829629131445359
 21
0.8365163037378067
 31
0.2588190451025218
 12
0.0
 22
0.0
 32
0.0
 42
50.0
 43
788.665923
 44
-788.665923
 50
0.0
 71
     0
281
     0
 72
     0
  0
VIEW
  5
2EE
330
6
100
AcDbSymbolTableRecord
100
AcDbViewTableRecord
  2
Dimetric_View_D1
 70
     0
 40
1508.76785
 10
0.0
 20
0.0
 41
420.762417
 11
-0.640856382055788
 21
-0.6408563820557887
 31
0.4226182617407003
 12
0.0
 22
0.0
 32
0.0
 42
50.0
 43
783.170071
 44
-783.170071
 50
0.0
 71
     0
281
     0
 72
     0
  0
VIEW
  5
2EF
330
6
100
AcDbSymbolTableRecord
100
AcDbViewTableRecord
  2
Dimetric_View_D2
 70
     0
 40
1508.76785
 10
0.0
 20
0.0
 41
420.762417
 11
-0.6408563820557895
 21
0.6408563820557872
 31
0.4226182617407003
 12
0.0
 22
0.0
 32
0.0
 42
50.0
 43
783.170071
 44
-783.170071
 50
0.0
 71
     0
281
     0
 72
     0
  0
VIEW
  5
2F0
330
6
100
AcDbSymbolTableRecord
100
AcDbViewTableRecord
  2
Dimetric_View_D5
 70
     0
 40
1508.76785
 10
0.0
 20
0.0
 41
420.762417
 11
0.640856382055788
 21
-0.6408563820557887
 31
0.4226182617407003
 12
0.0
 22
0.0
 32
0.0
 42
50.0
 43
783.170071
 44
-783.170071
 50
0.0
 71
     0
281
     0
 72
     0
  0
VIEW
  5
2F1
330
6
100
AcDbSymbolTableRecord
100
AcDbViewTableRecord
  2
Dimetric_View_D6
 70
     0
 40
1508.76785
 10
0.0
 20
0.0
 41
420.762417
 11
0.6408563820557895
 21
0.6408563820557872
 31
0.4226182617407003
 12
0.0
 22
0.0
 32
0.0
 42
50.0
 43
783.170071
 44
-783.170071
 50
0.0
 71
     0
281
     0
 72
     0
  0
VIEW
  5
2F2
330
6
100
AcDbSymbolTableRecord
100
AcDbViewTableRecord
  2
Dimetric_View_D3
 70
     0
 40
1508.76785
 10
0.0
 20
0.0
 41
420.762417
 11
-0.6408563820557888
 21
-0.6408563820557894
 31
-0.4226182617406982
 12
0.0
 22
0.0
 32
0.0
 42
50.0
 43
783.170071
 44
-783.170071
 50
0.0
 71
     0
281
     0
 72
     0
  0
VIEW
  5
2F3
330
6
100
AcDbSymbolTableRecord
100
AcDbViewTableRecord
  2
Dimetric_View_D4
 70
     0
 40
1508.76785
 10
0.0
 20
0.0
 41
420.762417
 11
-0.6408563820557902
 21
0.6408563820557879
 31
-0.4226182617406982
 12
0.0
 22
0.0
 32
0.0
 42
50.0
 43
783.170071
 44
-783.170071
 50
0.0
 71
     0
281
     0
 72
     0
  0
VIEW
  5
2F4
330
6
100
AcDbSymbolTableRecord
100
AcDbViewTableRecord
  2
Dimetric_View_D7
 70
     0
 40
1508.76785
 10
0.0
 20
0.0
 41
420.762417
 11
0.6408563820557888
 21
-0.6408563820557894
 31
-0.4226182617406982
 12
0.0
 22
0.0
 32
0.0
 42
50.0
 43
783.170071
 44
-783.170071
 50
0.0
 71
     0
281
     0
 72
     0
  0
VIEW
  5
2F5
330
6
100
AcDbSymbolTableRecord
100
AcDbViewTableRecord
  2
Dimetric_View_D8
 70
     0
 40
1508.76785
 10
0.0
 20
0.0
 41
420.762417
 11
0.6408563820557902
 21
0.6408563820557879
 31
-0.4226182617406982
 12
0.0
 22
0.0
 32
0.0
 42
50.0
 43
783.170071
 44
-783.170071
 50
0.0
 71
     0
281
     0
 72
     0
  0
ENDTAB
  0
TABLE
  2
UCS
  5
7
330
0
100
AcDbSymbolTable
 70
     0
  0
ENDTAB
  0
TABLE
  2
APPID
  5
9
330
0
100
AcDbSymbolTable
 70
     2
  0
APPID
  5
12
330
9
100
AcDbSymbolTableRecord
100
AcDbRegAppTableRecord
  2
ACAD
 70
     0
  0
APPID
  5
344
330
9
100
AcDbSymbolTableRecord
100
AcDbRegAppTableRecord
  2
ACAD_MLEADERVER
 70
     0
  0
ENDTAB
  0
TABLE
  2
DIMSTYLE
  5
A
330
0
100
AcDbSymbolTable
 70
     1
100
AcDbDimStyleTable
  0
DIMSTYLE
105
27
330
A
100
AcDbSymbolTableRecord
100
AcDbDimStyleTableRecord
  2
Standard
 70
     0
178
     0
340
11
  0
ENDTAB
  0
TABLE
  2
BLOCK_RECORD
  5
1
330
0
100
AcDbSymbolTable
 70
    46
  0
BLOCK_RECORD
  5
1F
330
1
100
AcDbSymbolTableRecord
100
AcDbBlockTableRecord
  2
*Model_Space
340
22
  0
BLOCK_RECORD
  5
1B
330
1
100
AcDbSymbolTableRecord
100
AcDbBlockTableRecord
  2
*Paper_Space
340
1E
  0
BLOCK_RECORD
  5
23
330
1
100
AcDbSymbolTableRecord
100
AcDbBlockTableRecord
  2
*Paper_Space0
340
26
  0
BLOCK_RECORD
  5
73
330
1
100
AcDbSymbolTableRecord
100
AcDbBlockTableRecord
  2
UG_SURFACE_001
340
0
102
{BLKREFS
331
74
102
}
  0
BLOCK_RECORD
  5
79
330
1
100
AcDbSymbolTableRecord
100
AcDbBlockTableRecord
  2
UG_SURFACE_002
340
0
102
{BLKREFS
331
7A
102
}
  0
BLOCK_RECORD
  5
7E
330
1
100
AcDbSymbolTableRecord
100
AcDbBlockTableRecord
  2
UG_SURFACE_003
340
0
102
{BLKREFS
331
7F
102
}
  0
BLOCK_RECORD
  5
86
330
1
100
AcDbSymbolTableRecord
100
AcDbBlockTableRecord
  2
UG_SURFACE_004
340
0
102
{BLKREFS
331
87
102
}
  0
BLOCK_RECORD
  5
8E
330
1
100
AcDbSymbolTableRecord
100
AcDbBlockTableRecord
  2
UG_SURFACE_005
340
0
102
{BLKREFS
331
8F
102
}
  0
BLOCK_RECORD
  5
96
330
1
100
AcDbSymbolTableRecord
100
AcDbBlockTableRecord
  2
UG_SURFACE_006
340
0
102
{BLKREFS
331
97
102
}
  0
BLOCK_RECORD
  5
9E
330
1
100
AcDbSymbolTableRecord
100
AcDbBlockTableRecord
  2
UG_SURFACE_007
340
0
102
{BLKREFS
331
9F
102
}
  0
BLOCK_RECORD
  5
A3
330
1
100
AcDbSymbolTableRecord
100
AcDbBlockTableRecord
  2
UG_SURFACE_008
340
0
102
{BLKREFS
331
A4
102
}
  0
BLOCK_RECORD
  5
A8
330
1
100
AcDbSymbolTableRecord
100
AcDbBlockTableRecord
  2
UG_SURFACE_009
340
0
102
{BLKREFS
331
A9
102
}
  0
BLOCK_RECORD
  5
B0
330
1
100
AcDbSymbolTableRecord
100
AcDbBlockTableRecord
  2
UG_SURFACE_010
340
0
102
{BLKREFS
331
B1
102
}
  0
BLOCK_RECORD
  5
B8
330
1
100
AcDbSymbolTableRecord
100
AcDbBlockTableRecord
  2
UG_SURFACE_011
340
0
102
{BLKREFS
331
B9
102
}
  0
BLOCK_RECORD
  5
C0
330
1
100
AcDbSymbolTableRecord
100
AcDbBlockTableRecord
  2
UG_SURFACE_012
340
0
102
{BLKREFS
331
C1
102
}
  0
BLOCK_RECORD
  5
C8
330
1
100
AcDbSymbolTableRecord
100
AcDbBlockTableRecord
  2
UG_SURFACE_013
340
0
102
{BLKREFS
331
C9
102
}
  0
BLOCK_RECORD
  5
CD
330
1
100
AcDbSymbolTableRecord
100
AcDbBlockTableRecord
  2
UG_SURFACE_014
340
0
102
{BLKREFS
331
CE
102
}
  0
BLOCK_RECORD
  5
D2
330
1
100
AcDbSymbolTableRecord
100
AcDbBlockTableRecord
  2
UG_SURFACE_015
340
0
102
{BLKREFS
331
D3
102
}
  0
BLOCK_RECORD
  5
D8
330
1
100
AcDbSymbolTableRecord
100
AcDbBlockTableRecord
  2
UG_SURFACE_016
340
0
102
{BLKREFS
331
D9
102
}
  0
BLOCK_RECORD
  5
DD
330
1
100
AcDbSymbolTableRecord
100
AcDbBlockTableRecord
  2
UG_SURFACE_017
340
0
102
{BLKREFS
331
DE
102
}
  0
BLOCK_RECORD
  5
EB
330
1
100
AcDbSymbolTableRecord
100
AcDbBlockTableRecord
  2
UG_SURFACE_018
340
0
102
{BLKREFS
331
EC
102
}
  0
BLOCK_RECORD
  5
10C
330
1
100
AcDbSymbolTableRecord
100
AcDbBlockTableRecord
  2
UG_SURFACE_019
340
0
102
{BLKREFS
331
10D
102
}
  0
BLOCK_RECORD
  5
125
330
1
100
AcDbSymbolTableRecord
100
AcDbBlockTableRecord
  2
UG_SURFACE_020
340
0
102
{BLKREFS
331
126
102
}
  0
BLOCK_RECORD
  5
144
330
1
100
AcDbSymbolTableRecord
100
AcDbBlockTableRecord
  2
UG_SURFACE_021
340
0
102
{BLKREFS
331
145
102
}
  0
BLOCK_RECORD
  5
154
330
1
100
AcDbSymbolTableRecord
100
AcDbBlockTableRecord
  2
UG_SURFACE_022
340
0
102
{BLKREFS
331
155
102
}
  0
BLOCK_RECORD
  5
159
330
1
100
AcDbSymbolTableRecord
100
AcDbBlockTableRecord
  2
UG_SURFACE_023
340
0
102
{BLKREFS
331
15A
102
}
  0
BLOCK_RECORD
  5
15E
330
1
100
AcDbSymbolTableRecord
100
AcDbBlockTableRecord
  2
UG_SURFACE_024
340
0
102
{BLKREFS
331
15F
102
}
  0
BLOCK_RECORD
  5
163
330
1
100
AcDbSymbolTableRecord
100
AcDbBlockTableRecord
  2
UG_SURFACE_025
340
0
102
{BLKREFS
331
164
102
}
  0
BLOCK_RECORD
  5
168
330
1
100
AcDbSymbolTableRecord
100
AcDbBlockTableRecord
  2
UG_SURFACE_026
340
0
102
{BLKREFS
331
169
102
}
  0
BLOCK_RECORD
  5
16E
330
1
100
AcDbSymbolTableRecord
100
AcDbBlockTableRecord
  2
UG_SURFACE_027
340
0
102
{BLKREFS
331
16F
102
}
  0
BLOCK_RECORD
  5
174
330
1
100
AcDbSymbolTableRecord
100
AcDbBlockTableRecord
  2
UG_SURFACE_028
340
0
102
{BLKREFS
331
175
102
}
  0
BLOCK_RECORD
  5
17E
330
1
100
AcDbSymbolTableRecord
100
AcDbBlockTableRecord
  2
UG_SURFACE_029
340
0
102
{BLKREFS
331
17F
102
}
  0
BLOCK_RECORD
  5
184
330
1
100
AcDbSymbolTableRecord
100
AcDbBlockTableRecord
  2
UG_SURFACE_030
340
0
102
{BLKREFS
331
185
102
}
  0
BLOCK_RECORD
  5
18C
330
1
100
AcDbSymbolTableRecord
100
AcDbBlockTableRecord
  2
UG_SURFACE_031
340
0
102
{BLKREFS
331
18D
102
}
  0
BLOCK_RECORD
  5
191
330
1
100
AcDbSymbolTableRecord
100
AcDbBlockTableRecord
  2
UG_SURFACE_032
340
0
102
{BLKREFS
331
192
102
}
  0
BLOCK_RECORD
  5
196
330
1
100
AcDbSymbolTableRecord
100
AcDbBlockTableRecord
  2
UG_SURFACE_033
340
0
102
{BLKREFS
331
197
102
}
  0
BLOCK_RECORD
  5
19B
330
1
100
AcDbSymbolTableRecord
100
AcDbBlockTableRecord
  2
UG_SURFACE_034
340
0
102
{BLKREFS
331
19C
102
}
  0
BLOCK_RECORD
  5
1A3
330
1
100
AcDbSymbolTableRecord
100
AcDbBlockTableRecord
  2
UG_SURFACE_035
340
0
102
{BLKREFS
331
1A4
102
}
  0
BLOCK_RECORD
  5
1A9
330
1
100
AcDbSymbolTableRecord
100
AcDbBlockTableRecord
  2
UG_SURFACE_036
340
0
102
{BLKREFS
331
1AA
102
}
  0
BLOCK_RECORD
  5
1B1
330
1
100
AcDbSymbolTableRecord
100
AcDbBlockTableRecord
  2
UG_SURFACE_037
340
0
102
{BLKREFS
331
1B2
102
}
  0
BLOCK_RECORD
  5
1B7
330
1
100
AcDbSymbolTableRecord
100
AcDbBlockTableRecord
  2
UG_SURFACE_038
340
0
102
{BLKREFS
331
1B8
102
}
  0
BLOCK_RECORD
  5
1BC
330
1
100
AcDbSymbolTableRecord
100
AcDbBlockTableRecord
  2
UG_SURFACE_039
340
0
102
{BLKREFS
331
1BD
102
}
  0
BLOCK_RECORD
  5
1C1
330
1
100
AcDbSymbolTableRecord
100
AcDbBlockTableRecord
  2
UG_SURFACE_040
340
0
102
{BLKREFS
331
1C2
102
}
  0
BLOCK_RECORD
  5
1C9
330
1
100
AcDbSymbolTableRecord
100
AcDbBlockTableRecord
  2
UG_SURFACE_041
340
0
102
{BLKREFS
331
1CA
102
}
  0
BLOCK_RECORD
  5
1D1
330
1
100
AcDbSymbolTableRecord
100
AcDbBlockTableRecord
  2
UG_SURFACE_042
340
0
102
{BLKREFS
331
1D2
102
}
  0
BLOCK_RECORD
  5
1D9
330
1
100
AcDbSymbolTableRecord
100
AcDbBlockTableRecord
  2
UG_SURFACE_043
340
0
102
{BLKREFS
331
1DA
102
}
  0
BLOCK_RECORD
  5
1DE
330
1
100
AcDbSymbolTableRecord
100
AcDbBlockTableRecord
  2
UG_SURFACE_044
340
0
102
{BLKREFS
331
1DF
102
}
  0
BLOCK_RECORD
  5
1E4
330
1
100
AcDbSymbolTableRecord
100
AcDbBlockTableRecord
  2
UG_SURFACE_045
340
0
102
{BLKREFS
331
1E5
102
}
  0
ENDTAB
  0
ENDSEC
  0
SECTION
  2
BLOCKS
  0
BLOCK
  5
20
330
1F
100
AcDbEntity
  8
0
100
AcDbBlockBegin
  2
*Model_Space
 70
     0
 10
0.0
 20
0.0
 30
0.0
  3
*Model_Space
  1

  0
ENDBLK
  5
21
330
1F
100
AcDbEntity
  8
0
100
AcDbBlockEnd
  0
BLOCK
  5
1C
330
1B
100
AcDbEntity
 67
     1
  8
0
100
AcDbBlockBegin
  2
*Paper_Space
 70
     0
 10
0.0
 20
0.0
 30
0.0
  3
*Paper_Space
  1

  0
ENDBLK
  5
1D
330
1B
100
AcDbEntity
 67
     1
  8
0
100
AcDbBlockEnd
  0
BLOCK
  5
24
330
23
100
AcDbEntity
  8
0
100
AcDbBlockBegin
  2
*Paper_Space0
 70
     0
 10
0.0
 20
0.0
 30
0.0
  3
*Paper_Space0
  1

  0
ENDBLK
  5
25
330
23
100
AcDbEntity
  8
0
100
AcDbBlockEnd
  0
BLOCK
  5
76
330
73
100
AcDbEntity
  8
0
100
AcDbBlockBegin
  2
UG_SURFACE_001
 70
     0
 10
0.0
 20
0.0
 30
0.0
  3
UG_SURFACE_001
  1

  0
3DFACE
  5
78
330
73
100
AcDbEntity
  8
1
  6
Continuous
 62
   252
370
    35
100
AcDbFace
 10
-35.0
 20
-101.999998
 30
0.0
 11
-35.0
 21
-101.999998
 31
17.25
 12
-35.0
 22
101.999998
 32
17.25
 13
-35.0
 23
101.999998
 33
0.0
  0
ENDBLK
  5
77
330
73
100
AcDbEntity
  8
0
100
AcDbBlockEnd
  0
BLOCK
  5
7B
330
79
100
AcDbEntity
  8
0
100
AcDbBlockBegin
  2
UG_SURFACE_002
 70
     0
 10
0.0
 20
0.0
 30
0.0
  3
UG_SURFACE_002
  1

  0
3DFACE
  5
7D
330
79
100
AcDbEntity
  8
1
  6
Continuous
 62
   252
370
    35
100
AcDbFace
 10
-35.0
 20
101.999998
 30
17.25
 11
-35.0
 21
-101.999998
 31
17.25
 12
-31.96891
 22
-101.999998
 32
18.999999
 13
-31.96891
 23
101.999998
 33
18.999999
  0
ENDBLK
  5
7C
330
79
100
AcDbEntity
  8
0
100
AcDbBlockEnd
  0
BLOCK
  5
80
330
7E
100
AcDbEntity
  8
0
100
AcDbBlockBegin
  2
UG_SURFACE_003
 70
     0
 10
0.0
 20
0.0
 30
0.0
  3
UG_SURFACE_003
  1

  0
3DFACE
  5
82
330
7E
100
AcDbEntity
  8
1
  6
Continuous
 62
   252
370
    35
100
AcDbFace
 10
-34.581337
 20
-104.104757
 30
0.0
 11
-34.581337
 21
-104.104757
 31
17.25
 12
-35.0
 22
-101.999998
 32
17.25
 13
-35.0
 23
-101.999998
 33
0.0
  0
3DFACE
  5
83
330
7E
100
AcDbEntity
  8
1
  6
Continuous
 62
   252
370
    35
100
AcDbFace
 10
-33.389088
 20
-105.889089
 30
0.0
 11
-33.389088
 21
-105.889089
 31
17.25
 12
-34.581337
 22
-104.104757
 32
17.25
 13
-34.581337
 23
-104.104757
 33
0.0
  0
3DFACE
  5
84
330
7E
100
AcDbEntity
  8
1
  6
Continuous
 62
   252
370
    35
100
AcDbFace
 10
-31.604759
 20
-107.081339
 30
0.0
 11
-31.604759
 21
-107.081339
 31
17.25
 12
-33.389088
 22
-105.889089
 32
17.25
 13
-33.389088
 23
-105.889089
 33
0.0
  0
3DFACE
  5
85
330
7E
100
AcDbEntity
  8
1
  6
Continuous
 62
   252
370
    35
100
AcDbFace
 10
-29.5
 20
-107.500002
 30
0.0
 11
-29.5
 21
-107.500002
 31
17.25
 12
-31.604759
 22
-107.081339
 32
17.25
 13
-31.604759
 23
-107.081339
 33
0.0
  0
ENDBLK
  5
81
330
7E
100
AcDbEntity
  8
0
100
AcDbBlockEnd
  0
BLOCK
  5
88
330
86
100
AcDbEntity
  8
0
100
AcDbBlockBegin
  2
UG_SURFACE_004
 70
     0
 10
0.0
 20
0.0
 30
0.0
  3
UG_SURFACE_004
  1

  0
3DFACE
  5
8A
330
86
100
AcDbEntity
  8
1
  6
Continuous
 62
   252
370
    35
100
AcDbFace
 10
-35.0
 20
-101.999998
 30
17.25
 11
-34.581337
 21
-104.104757
 31
17.25
 12
-31.780977
 22
-102.944814
 32
18.999999
 13
-31.96891
 23
-101.999998
 33
18.999999
  0
3DFACE
  5
8B
330
86
100
AcDbEntity
  8
1
  6
Continuous
 62
   252
370
    35
100
AcDbFace
 10
-34.581337
 20
-104.104757
 30
17.25
 11
-33.389088
 21
-105.889089
 31
17.25
 12
-31.245783
 22
-103.745781
 32
18.999999
 13
-31.780977
 23
-102.944814
 33
18.999999
  0
3DFACE
  5
8C
330
86
100
AcDbEntity
  8
1
  6
Continuous
 62
   252
370
    35
100
AcDbFace
 10
-33.389088
 20
-105.889089
 30
17.25
 11
-31.604759
 21
-107.081339
 31
17.25
 12
-30.444812
 22
-104.280978
 32
18.999999
 13
-31.245783
 23
-103.745781
 33
18.999999
  0
3DFACE
  5
8D
330
86
100
AcDbEntity
  8
1
  6
Continuous
 62
   252
370
    35
100
AcDbFace
 10
-31.604759
 20
-107.081339
 30
17.25
 11
-29.5
 21
-107.500002
 31
17.25
 12
-29.5
 22
-104.468912
 32
18.999999
 13
-30.444812
 23
-104.280978
 33
18.999999
  0
ENDBLK
  5
89
330
86
100
AcDbEntity
  8
0
100
AcDbBlockEnd
  0
BLOCK
  5
90
330
8E
100
AcDbEntity
  8
0
100
AcDbBlockBegin
  2
UG_SURFACE_005
 70
     0
 10
0.0
 20
0.0
 30
0.0
  3
UG_SURFACE_005
  1

  0
3DFACE
  5
92
330
8E
100
AcDbEntity
  8
1
  6
Continuous
 62
   252
370
    35
100
AcDbFace
 10
-31.604759
 20
107.081339
 30
0.0
 11
-31.604759
 21
107.081339
 31
17.25
 12
-29.5
 22
107.500002
 32
17.25
 13
-29.5
 23
107.500002
 33
0.0
  0
3DFACE
  5
93
330
8E
100
AcDbEntity
  8
1
  6
Continuous
 62
   252
370
    35
100
AcDbFace
 10
-33.389088
 20
105.889089
 30
0.0
 11
-33.389088
 21
105.889089
 31
17.25
 12
-31.604759
 22
107.081339
 32
17.25
 13
-31.604759
 23
107.081339
 33
0.0
  0
3DFACE
  5
94
330
8E
100
AcDbEntity
  8
1
  6
Continuous
 62
   252
370
    35
100
AcDbFace
 10
-34.581337
 20
104.104757
 30
0.0
 11
-34.581337
 21
104.104757
 31
17.25
 12
-33.389088
 22
105.889089
 32
17.25
 13
-33.389088
 23
105.889089
 33
0.0
  0
3DFACE
  5
95
330
8E
100
AcDbEntity
  8
1
  6
Continuous
 62
   252
370
    35
100
AcDbFace
 10
-35.0
 20
101.999998
 30
0.0
 11
-35.0
 21
101.999998
 31
17.25
 12
-34.581337
 22
104.104757
 32
17.25
 13
-34.581337
 23
104.104757
 33
0.0
  0
ENDBLK
  5
91
330
8E
100
AcDbEntity
  8
0
100
AcDbBlockEnd
  0
BLOCK
  5
98
330
96
100
AcDbEntity
  8
0
100
AcDbBlockBegin
  2
UG_SURFACE_006
 70
     0
 10
0.0
 20
0.0
 30
0.0
  3
UG_SURFACE_006
  1

  0
3DFACE
  5
9A
330
96
100
AcDbEntity
  8
1
  6
Continuous
 62
   252
370
    35
100
AcDbFace
 10
-29.5
 20
107.500002
 30
17.25
 11
-31.604759
 21
107.081339
 31
17.25
 12
-30.444812
 22
104.280978
 32
18.999999
 13
-29.5
 23
104.468912
 33
18.999999
  0
3DFACE
  5
9B
330
96
100
AcDbEntity
  8
1
  6
Continuous
 62
   252
370
    35
100
AcDbFace
 10
-31.604759
 20
107.081339
 30
17.25
 11
-33.389088
 21
105.889089
 31
17.25
 12
-31.245783
 22
103.745781
 32
18.999999
 13
-30.444812
 23
104.280978
 33
18.999999
  0
3DFACE
  5
9C
330
96
100
AcDbEntity
  8
1
  6
Continuous
 62
   252
370
    35
100
AcDbFace
 10
-33.389088
 20
105.889089
 30
17.25
 11
-34.581337
 21
104.104757
 31
17.25
 12
-31.780977
 22
102.944814
 32
18.999999
 13
-31.245783
 23
103.745781
 33
18.999999
  0
3DFACE
  5
9D
330
96
100
AcDbEntity
  8
1
  6
Continuous
 62
   252
370
    35
100
AcDbFace
 10
-34.581337
 20
104.104757
 30
17.25
 11
-35.0
 21
101.999998
 31
17.25
 12
-31.96891
 22
101.999998
 32
18.999999
 13
-31.780977
 23
102.944814
 33
18.999999
  0
ENDBLK
  5
99
330
96
100
AcDbEntity
  8
0
100
AcDbBlockEnd
  0
BLOCK
  5
A0
330
9E
100
AcDbEntity
  8
0
100
AcDbBlockBegin
  2
UG_SURFACE_007
 70
     0
 10
0.0
 20
0.0
 30
0.0
  3
UG_SURFACE_007
  1

  0
3DFACE
  5
A2
330
9E
100
AcDbEntity
  8
1
  6
Continuous
 62
   252
370
    35
100
AcDbFace
 10
-30.5
 20
101.000004
 30
18.9
 11
-30.5
 21
101.000004
 31
18.999999
 12
-30.5
 22
-88.500001
 32
18.999999
 13
-30.5
 23
-88.500001
 33
18.9
  0
ENDBLK
  5
A1
330
9E
100
AcDbEntity
  8
0
100
AcDbBlockEnd
  0
BLOCK
  5
A5
330
A3
100
AcDbEntity
  8
0
100
AcDbBlockBegin
  2
UG_SURFACE_008
 70
     0
 10
0.0
 20
0.0
 30
0.0
  3
UG_SURFACE_008
  1

  0
3DFACE
  5
A7
330
A3
100
AcDbEntity
  8
1
  6
Continuous
 62
   252
370
    35
100
AcDbFace
 10
-30.25
 20
-88.45
 30
18.9
 11
-30.25
 21
-88.45
 31
18.999999
 12
-30.25
 22
100.950003
 32
18.999999
 13
-30.25
 23
100.950003
 33
18.9
  0
ENDBLK
  5
A6
330
A3
100
AcDbEntity
  8
0
100
AcDbBlockEnd
  0
BLOCK
  5
AA
330
A8
100
AcDbEntity
  8
0
100
AcDbBlockBegin
  2
UG_SURFACE_009
 70
     0
 10
0.0
 20
0.0
 30
0.0
  3
UG_SURFACE_009
  1

  0
3DFACE
  5
AC
330
A8
100
AcDbEntity
  8
1
  6
Continuous
 62
   252
370
    35
100
AcDbFace
 10
-29.265366
 20
-90.347759
 30
18.9
 11
-29.265366
 21
-90.347759
 31
18.999999
 12
-28.5
 22
-90.499997
 32
18.999999
 13
-28.5
 23
-90.499997
 33
18.9
  0
3DFACE
  5
AD
330
A8
100
AcDbEntity
  8
1
  6
Continuous
 62
   252
370
    35
100
AcDbFace
 10
-29.914213
 20
-89.91421
 30
18.9
 11
-29.914213
 21
-89.91421
 31
18.999999
 12
-29.265366
 22
-90.347759
 32
18.999999
 13
-29.265366
 23
-90.347759
 33
18.9
  0
3DFACE
  5
AE
330
A8
100
AcDbEntity
  8
1
  6
Continuous
 62
   252
370
    35
100
AcDbFace
 10
-30.347759
 20
-89.265369
 30
18.9
 11
-30.347759
 21
-89.265369
 31
18.999999
 12
-29.914213
 22
-89.91421
 32
18.999999
 13
-29.914213
 23
-89.91421
 33
18.9
  0
3DFACE
  5
AF
330
A8
100
AcDbEntity
  8
1
  6
Continuous
 62
   252
370
    35
100
AcDbFace
 10
-30.5
 20
-88.500001
 30
18.9
 11
-30.5
 21
-88.500001
 31
18.999999
 12
-30.347759
 22
-89.265369
 32
18.999999
 13
-30.347759
 23
-89.265369
 33
18.9
  0
ENDBLK
  5
AB
330
A8
100
AcDbEntity
  8
0
100
AcDbBlockEnd
  0
BLOCK
  5
B2
330
B0
100
AcDbEntity
  8
0
100
AcDbBlockBegin
  2
UG_SURFACE_010
 70
     0
 10
0.0
 20
0.0
 30
0.0
  3
UG_SURFACE_010
  1

  0
3DFACE
  5
B4
330
B0
100
AcDbEntity
  8
1
  6
Continuous
 62
   252
370
    35
100
AcDbFace
 10
-30.347759
 20
101.765364
 30
18.9
 11
-30.347759
 21
101.765364
 31
18.999999
 12
-30.5
 22
101.000004
 32
18.999999
 13
-30.5
 23
101.000004
 33
18.9
  0
3DFACE
  5
B5
330
B0
100
AcDbEntity
  8
1
  6
Continuous
 62
   252
370
    35
100
AcDbFace
 10
-29.914213
 20
102.414213
 30
18.9
 11
-29.914213
 21
102.414213
 31
18.999999
 12
-30.347759
 22
101.765364
 32
18.999999
 13
-30.347759
 23
101.765364
 33
18.9
  0
3DFACE
  5
B6
330
B0
100
AcDbEntity
  8
1
  6
Continuous
 62
   252
370
    35
100
AcDbFace
 10
-29.265366
 20
102.847762
 30
18.9
 11
-29.265366
 21
102.847762
 31
18.999999
 12
-29.914213
 22
102.414213
 32
18.999999
 13
-29.914213
 23
102.414213
 33
18.9
  0
3DFACE
  5
B7
330
B0
100
AcDbEntity
  8
1
  6
Continuous
 62
   252
370
    35
100
AcDbFace
 10
-28.5
 20
103.0
 30
18.9
 11
-28.5
 21
103.0
 31
18.999999
 12
-29.265366
 22
102.847762
 32
18.999999
 13
-29.265366
 23
102.847762
 33
18.9
  0
ENDBLK
  5
B3
330
B0
100
AcDbEntity
  8
0
100
AcDbBlockEnd
  0
BLOCK
  5
BA
330
B8
100
AcDbEntity
  8
0
100
AcDbBlockBegin
  2
UG_SURFACE_011
 70
     0
 10
0.0
 20
0.0
 30
0.0
  3
UG_SURFACE_011
  1

  0
3DFACE
  5
BC
330
B8
100
AcDbEntity
  8
1
  6
Continuous
 62
   252
370
    35
100
AcDbFace
 10
-30.112984
 20
-89.138828
 30
18.9
 11
-30.112984
 21
-89.138828
 31
18.999999
 12
-30.25
 22
-88.45
 32
18.999999
 13
-30.25
 23
-88.45
 33
18.9
  0
3DFACE
  5
BD
330
B8
100
AcDbEntity
  8
1
  6
Continuous
 62
   252
370
    35
100
AcDbFace
 10
-29.722793
 20
-89.72279
 30
18.9
 11
-29.722793
 21
-89.72279
 31
18.999999
 12
-30.112984
 22
-89.138828
 32
18.999999
 13
-30.112984
 23
-89.138828
 33
18.9
  0
3DFACE
  5
BE
330
B8
100
AcDbEntity
  8
1
  6
Continuous
 62
   252
370
    35
100
AcDbFace
 10
-29.13883
 20
-90.112984
 30
18.9
 11
-29.13883
 21
-90.112984
 31
18.999999
 12
-29.722793
 22
-89.72279
 32
18.999999
 13
-29.722793
 23
-89.72279
 33
18.9
  0
3DFACE
  5
BF
330
B8
100
AcDbEntity
  8
1
  6
Continuous
 62
   252
370
    35
100
AcDbFace
 10
-28.449999
 20
-90.25
 30
18.9
 11
-28.449999
 21
-90.25
 31
18.999999
 12
-29.13883
 22
-90.112984
 32
18.999999
 13
-29.13883
 23
-90.112984
 33
18.9
  0
ENDBLK
  5
BB
330
B8
100
AcDbEntity
  8
0
100
AcDbBlockEnd
  0
BLOCK
  5
C2
330
C0
100
AcDbEntity
  8
0
100
AcDbBlockBegin
  2
UG_SURFACE_012
 70
     0
 10
0.0
 20
0.0
 30
0.0
  3
UG_SURFACE_012
  1

  0
3DFACE
  5
C4
330
C0
100
AcDbEntity
  8
1
  6
Continuous
 62
   252
370
    35
100
AcDbFace
 10
-29.13883
 20
102.61298
 30
18.9
 11
-29.13883
 21
102.61298
 31
18.999999
 12
-28.449999
 22
102.750003
 32
18.999999
 13
-28.449999
 23
102.750003
 33
18.9
  0
3DFACE
  5
C5
330
C0
100
AcDbEntity
  8
1
  6
Continuous
 62
   252
370
    35
100
AcDbFace
 10
-29.722793
 20
102.222793
 30
18.9
 11
-29.722793
 21
102.222793
 31
18.999999
 12
-29.13883
 22
102.61298
 32
18.999999
 13
-29.13883
 23
102.61298
 33
18.9
  0
3DFACE
  5
C6
330
C0
100
AcDbEntity
  8
1
  6
Continuous
 62
   252
370
    35
100
AcDbFace
 10
-30.112984
 20
101.638831
 30
18.9
 11
-30.112984
 21
101.638831
 31
18.999999
 12
-29.722793
 22
102.222793
 32
18.999999
 13
-29.722793
 23
102.222793
 33
18.9
  0
3DFACE
  5
C7
330
C0
100
AcDbEntity
  8
1
  6
Continuous
 62
   252
370
    35
100
AcDbFace
 10
-30.25
 20
100.950003
 30
18.9
 11
-30.25
 21
100.950003
 31
18.999999
 12
-30.112984
 22
101.638831
 32
18.999999
 13
-30.112984
 23
101.638831
 33
18.9
  0
ENDBLK
  5
C3
330
C0
100
AcDbEntity
  8
0
100
AcDbBlockEnd
  0
BLOCK
  5
CA
330
C8
100
AcDbEntity
  8
0
100
AcDbBlockBegin
  2
UG_SURFACE_013
 70
     0
 10
0.0
 20
0.0
 30
0.0
  3
UG_SURFACE_013
  1

  0
3DFACE
  5
CC
330
C8
100
AcDbEntity
  8
1
  6
Continuous
 62
   252
370
    35
100
AcDbFace
 10
-28.5
 20
-90.499997
 30
18.9
 11
-28.5
 21
-90.499997
 31
18.999999
 12
17.550001
 22
-90.499997
 32
18.999999
 13
17.550001
 23
-90.499997
 33
18.9
  0
ENDBLK
  5
CB
330
C8
100
AcDbEntity
  8
0
100
AcDbBlockEnd
  0
BLOCK
  5
CF
330
CD
100
AcDbEntity
  8
0
100
AcDbBlockBegin
  2
UG_SURFACE_014
 70
     0
 10
0.0
 20
0.0
 30
0.0
  3
UG_SURFACE_014
  1

  0
3DFACE
  5
D1
330
CD
100
AcDbEntity
  8
1
  6
Continuous
 62
   252
370
    35
100
AcDbFace
 10
17.529184
 20
-90.25
 30
18.9
 11
17.529184
 21
-90.25
 31
18.999999
 12
-28.449999
 22
-90.25
 32
18.999999
 13
-28.449999
 23
-90.25
 33
18.9
  0
ENDBLK
  5
D0
330
CD
100
AcDbEntity
  8
0
100
AcDbBlockEnd
  0
BLOCK
  5
D4
330
D2
100
AcDbEntity
  8
0
100
AcDbBlockBegin
  2
UG_SURFACE_015
 70
     0
 10
0.0
 20
0.0
 30
0.0
  3
UG_SURFACE_015
  1

  0
3DFACE
  5
D6
330
D2
100
AcDbEntity
  8
1
  6
Continuous
 62
   252
370
    35
100
AcDbFace
 10
-29.5
 20
-107.500002
 30
17.25
 11
-29.5
 21
-107.500002
 31
0.0
 12
4.127446
 22
-107.500002
 32
0.0
 13
4.127446
 23
-107.500002
 33
0.0
  0
3DFACE
  5
D7
330
D2
100
AcDbEntity
  8
1
  6
Continuous
 62
   252
370
    35
100
AcDbFace
 10
4.127446
 20
-107.500002
 30
0.0
 11
18.686291
 21
-107.500002
 31
14.558846
 12
18.686291
 22
-107.500002
 32
17.25
 13
-29.5
 23
-107.500002
 33
17.25
  0
ENDBLK
  5
D5
330
D2
100
AcDbEntity
  8
0
100
AcDbBlockEnd
  0
BLOCK
  5
DA
330
D8
100
AcDbEntity
  8
0
100
AcDbBlockBegin
  2
UG_SURFACE_016
 70
     0
 10
0.0
 20
0.0
 30
0.0
  3
UG_SURFACE_016
  1

  0
3DFACE
  5
DC
330
D8
100
AcDbEntity
  8
1
  6
Continuous
 62
   252
370
    35
100
AcDbFace
 10
18.686291
 20
-104.468912
 30
18.999999
 11
-29.5
 21
-104.468912
 31
18.999999
 12
-29.5
 22
-107.500002
 32
17.25
 13
18.686291
 23
-107.500002
 33
17.25
  0
ENDBLK
  5
DB
330
D8
100
AcDbEntity
  8
0
100
AcDbBlockEnd
  0
BLOCK
  5
DF
330
DD
100
AcDbEntity
  8
0
100
AcDbBlockBegin
  2
UG_SURFACE_017
 70
     0
 10
0.0
 20
0.0
 30
0.0
  3
UG_SURFACE_017
  1

  0
3DFACE
  5
E1
330
DD
100
AcDbEntity
  8
1
  6
Continuous
 62
     6
370
    35
100
AcDbFace
 10
-29.5
 20
-107.500002
 30
0.0
 11
-31.604759
 21
-107.081339
 31
0.0
 12
-33.389088
 22
-105.889089
 32
0.0
 13
-33.389088
 23
-105.889089
 33
0.0
  0
3DFACE
  5
E2
330
DD
100
AcDbEntity
  8
1
  6
Continuous
 62
     6
370
    35
100
AcDbFace
 10
35.0
 20
101.999998
 30
0.0
 11
29.5
 21
107.500002
 31
0.0
 12
31.604759
 22
107.081339
 32
0.0
 13
31.604759
 23
107.081339
 33
0.0
  0
3DFACE
  5
E3
330
DD
100
AcDbEntity
  8
1
  6
Continuous
 62
     6
370
    35
100
AcDbFace
 10
-33.389088
 20
-105.889089
 30
0.0
 11
-34.581337
 21
-104.104757
 31
0.0
 12
-35.0
 22
-101.999998
 32
0.0
 13
-29.5
 23
-107.500002
 33
0.0
  0
3DFACE
  5
E4
330
DD
100
AcDbEntity
  8
1
  6
Continuous
 62
     6
370
    35
100
AcDbFace
 10
35.0
 20
101.999998
 30
0.0
 11
-29.5
 21
107.500002
 31
0.0
 12
29.5
 22
107.500002
 32
0.0
 13
29.5
 23
107.500002
 33
0.0
  0
3DFACE
  5
E5
330
DD
100
AcDbEntity
  8
1
  6
Continuous
 62
     6
370
    35
100
AcDbFace
 10
-29.5
 20
107.500002
 30
0.0
 11
-35.0
 21
101.999998
 31
0.0
 12
-34.581337
 22
104.104757
 32
0.0
 13
-33.389088
 23
105.889089
 33
0.0
  0
3DFACE
  5
E6
330
DD
100
AcDbEntity
  8
1
  6
Continuous
 62
     6
370
    35
100
AcDbFace
 10
-29.5
 20
107.500002
 30
0.0
 11
4.127446
 21
-107.500002
 31
0.0
 12
-29.5
 22
-107.500002
 32
0.0
 13
-29.5
 23
-107.500002
 33
0.0
  0
3DFACE
  5
E7
330
DD
100
AcDbEntity
  8
1
  6
Continuous
 62
     6
370
    35
100
AcDbFace
 10
31.604759
 20
107.081339
 30
0.0
 11
33.389088
 21
105.889089
 31
0.0
 12
34.581337
 22
104.104757
 32
0.0
 13
35.0
 23
101.999998
 33
0.0
  0
3DFACE
  5
E8
330
DD
100
AcDbEntity
  8
1
  6
Continuous
 62
     6
370
    35
100
AcDbFace
 10
-35.0
 20
-101.999998
 30
0.0
 11
-35.0
 21
101.999998
 31
0.0
 12
-29.5
 22
107.500002
 32
0.0
 13
-29.5
 23
-107.500002
 33
0.0
  0
3DFACE
  5
E9
330
DD
100
AcDbEntity
  8
1
  6
Continuous
 62
     6
370
    35
100
AcDbFace
 10
-33.389088
 20
105.889089
 30
0.0
 11
-31.604759
 21
107.081339
 31
0.0
 12
-29.5
 22
107.500002
 32
0.0
 13
-29.5
 23
107.500002
 33
0.0
  0
3DFACE
  5
EA
330
DD
100
AcDbEntity
  8
1
  6
Continuous
 62
     6
370
    35
100
AcDbFace
 10
35.0
 20
101.999998
 30
0.0
 11
35.0
 21
-76.627448
 31
0.0
 12
4.127446
 22
-107.500002
 32
0.0
 13
-29.5
 23
107.500002
 33
0.0
  0
ENDBLK
  5
E0
330
DD
100
AcDbEntity
  8
0
100
AcDbBlockEnd
  0
BLOCK
  5
ED
330
EB
100
AcDbEntity
  8
0
100
AcDbBlockBegin
  2
UG_SURFACE_018
 70
     0
 10
0.0
 20
0.0
 30
0.0
  3
UG_SURFACE_018
  1

  0
3DFACE
  5
EF
330
EB
100
AcDbEntity
  8
1
  6
Continuous
 62
   252
370
    35
100
AcDbFace
 10
29.914213
 20
102.414213
 30
18.999999
 11
30.347759
 21
101.765364
 31
18.999999
 12
31.96891
 22
101.999998
 32
18.999999
 13
31.780977
 23
102.944814
 33
18.999999
  0
3DFACE
  5
F0
330
EB
100
AcDbEntity
  8
1
  6
Continuous
 62
   252
370
    35
100
AcDbFace
 10
29.914213
 20
102.414213
 30
18.999999
 11
31.245783
 21
103.745781
 31
18.999999
 12
30.444812
 22
104.280978
 32
18.999999
 13
30.444812
 23
104.280978
 33
18.999999
  0
3DFACE
  5
F1
330
EB
100
AcDbEntity
  8
1
  6
Continuous
 62
   252
370
    35
100
AcDbFace
 10
-31.96891
 20
101.999998
 30
18.999999
 11
-31.96891
 21
-101.999998
 31
18.999999
 12
-30.5
 22
-88.500001
 32
18.999999
 13
-30.5
 23
101.000004
 33
18.999999
  0
3DFACE
  5
F2
330
EB
100
AcDbEntity
  8
1
  6
Continuous
 62
   252
370
    35
100
AcDbFace
 10
30.444812
 20
104.280978
 30
18.999999
 11
29.5
 21
104.468912
 31
18.999999
 12
29.265366
 22
102.847762
 32
18.999999
 13
29.914213
 23
102.414213
 33
18.999999
  0
3DFACE
  5
F3
330
EB
100
AcDbEntity
  8
1
  6
Continuous
 62
   252
370
    35
100
AcDbFace
 10
29.5
 20
104.468912
 30
18.999999
 11
-29.5
 21
104.468912
 31
18.999999
 12
-28.5
 22
103.0
 32
18.999999
 13
28.5
 23
103.0
 33
18.999999
  0
3DFACE
  5
F4
330
EB
100
AcDbEntity
  8
1
  6
Continuous
 62
   252
370
    35
100
AcDbFace
 10
-29.914213
 20
102.414213
 30
18.999999
 11
-29.265366
 21
102.847762
 31
18.999999
 12
-29.5
 22
104.468912
 32
18.999999
 13
-30.444812
 23
104.280978
 33
18.999999
  0
3DFACE
  5
F5
330
EB
100
AcDbEntity
  8
1
  6
Continuous
 62
   252
370
    35
100
AcDbFace
 10
-29.914213
 20
102.414213
 30
18.999999
 11
-31.245783
 21
103.745781
 31
18.999999
 12
-31.780977
 22
102.944814
 32
18.999999
 13
-31.780977
 23
102.944814
 33
18.999999
  0
3DFACE
  5
F6
330
EB
100
AcDbEntity
  8
1
  6
Continuous
 62
   252
370
    35
100
AcDbFace
 10
-31.96891
 20
-101.999998
 30
18.999999
 11
-30.347759
 21
-89.265369
 31
18.999999
 12
-30.5
 22
-88.500001
 32
18.999999
 13
-30.5
 23
-88.500001
 33
18.999999
  0
3DFACE
  5
F7
330
EB
100
AcDbEntity
  8
1
  6
Continuous
 62
   252
370
    35
100
AcDbFace
 10
-28.5
 20
-90.499997
 30
18.999999
 11
-31.780977
 21
-102.944814
 31
18.999999
 12
-31.245783
 22
-103.745781
 32
18.999999
 13
-31.245783
 23
-103.745781
 33
18.999999
  0
3DFACE
  5
F8
330
EB
100
AcDbEntity
  8
1
  6
Continuous
 62
   252
370
    35
100
AcDbFace
 10
17.550001
 20
-90.499997
 30
18.999999
 11
18.686291
 21
-104.468912
 31
18.999999
 12
20.587811
 22
-104.090676
 32
18.999999
 13
20.587811
 23
-104.090676
 33
18.999999
  0
3DFACE
  5
F9
330
EB
100
AcDbEntity
  8
1
  6
Continuous
 62
   252
370
    35
100
AcDbFace
 10
31.780977
 20
102.944814
 30
18.999999
 11
31.245783
 21
103.745781
 31
18.999999
 12
29.914213
 22
102.414213
 32
18.999999
 13
29.914213
 23
102.414213
 33
18.999999
  0
3DFACE
  5
FA
330
EB
100
AcDbEntity
  8
1
  6
Continuous
 62
   252
370
    35
100
AcDbFace
 10
-29.5
 20
104.468912
 30
18.999999
 11
-29.265366
 21
102.847762
 31
18.999999
 12
-28.5
 22
103.0
 32
18.999999
 13
-28.5
 23
103.0
 33
18.999999
  0
3DFACE
  5
FB
330
EB
100
AcDbEntity
  8
1
  6
Continuous
 62
   252
370
    35
100
AcDbFace
 10
-31.780977
 20
102.944814
 30
18.999999
 11
-31.96891
 21
101.999998
 31
18.999999
 12
-30.347759
 22
101.765364
 32
18.999999
 13
-29.914213
 23
102.414213
 33
18.999999
  0
3DFACE
  5
FC
330
EB
100
AcDbEntity
  8
1
  6
Continuous
 62
   252
370
    35
100
AcDbFace
 10
-31.96891
 20
-101.999998
 30
18.999999
 11
-29.914213
 21
-89.91421
 31
18.999999
 12
-30.347759
 22
-89.265369
 32
18.999999
 13
-30.347759
 23
-89.265369
 33
18.999999
  0
3DFACE
  5
FD
330
EB
100
AcDbEntity
  8
1
  6
Continuous
 62
   252
370
    35
100
AcDbFace
 10
-28.5
 20
-90.499997
 30
18.999999
 11
-29.265366
 21
-90.347759
 31
18.999999
 12
-31.96891
 22
-101.999998
 32
18.999999
 13
-31.780977
 23
-102.944814
 33
18.999999
  0
3DFACE
  5
FE
330
EB
100
AcDbEntity
  8
1
  6
Continuous
 62
   252
370
    35
100
AcDbFace
 10
20.587811
 20
-104.090676
 30
18.999999
 11
22.199843
 21
-103.013553
 31
18.999999
 12
19.654758
 22
-90.081334
 32
18.999999
 13
17.550001
 23
-90.499997
 33
18.999999
  0
3DFACE
  5
FF
330
EB
100
AcDbEntity
  8
1
  6
Continuous
 62
   252
370
    35
100
AcDbFace
 10
21.439087
 20
-88.889085
 30
18.999999
 11
30.513551
 21
-94.699845
 31
18.999999
 12
31.590674
 22
-93.087815
 32
18.999999
 13
31.590674
 23
-93.087815
 33
18.999999
  0
3DFACE
  5
100
330
EB
100
AcDbEntity
  8
1
  6
Continuous
 62
   252
370
    35
100
AcDbFace
 10
28.5
 20
103.0
 30
18.999999
 11
29.265366
 21
102.847762
 31
18.999999
 12
29.5
 22
104.468912
 32
18.999999
 13
29.5
 23
104.468912
 33
18.999999
  0
3DFACE
  5
101
330
EB
100
AcDbEntity
  8
1
  6
Continuous
 62
   252
370
    35
100
AcDbFace
 10
-30.5
 20
101.000004
 30
18.999999
 11
-30.347759
 21
101.765364
 31
18.999999
 12
-31.96891
 22
101.999998
 32
18.999999
 13
-31.96891
 23
101.999998
 33
18.999999
  0
3DFACE
  5
102
330
EB
100
AcDbEntity
  8
1
  6
Continuous
 62
   252
370
    35
100
AcDbFace
 10
17.550001
 20
-90.499997
 30
18.999999
 11
-28.5
 21
-90.499997
 31
18.999999
 12
-29.5
 22
-104.468912
 32
18.999999
 13
18.686291
 23
-104.468912
 33
18.999999
  0
3DFACE
  5
103
330
EB
100
AcDbEntity
  8
1
  6
Continuous
 62
   252
370
    35
100
AcDbFace
 10
31.590674
 20
-93.087815
 30
18.999999
 11
31.96891
 21
-91.186292
 31
18.999999
 12
28.889088
 22
-81.439085
 32
18.999999
 13
21.439087
 23
-88.889085
 33
18.999999
  0
3DFACE
  5
104
330
EB
100
AcDbEntity
  8
1
  6
Continuous
 62
   252
370
    35
100
AcDbFace
 10
-30.444812
 20
104.280978
 30
18.999999
 11
-31.245783
 21
103.745781
 31
18.999999
 12
-29.914213
 22
102.414213
 32
18.999999
 13
-29.914213
 23
102.414213
 33
18.999999
  0
3DFACE
  5
105
330
EB
100
AcDbEntity
  8
1
  6
Continuous
 62
   252
370
    35
100
AcDbFace
 10
-31.245783
 20
-103.745781
 30
18.999999
 11
-30.444812
 21
-104.280978
 31
18.999999
 12
-29.5
 22
-104.468912
 32
18.999999
 13
-28.5
 23
-90.499997
 33
18.999999
  0
3DFACE
  5
106
330
EB
100
AcDbEntity
  8
1
  6
Continuous
 62
   252
370
    35
100
AcDbFace
 10
31.96891
 20
-91.186292
 30
18.999999
 11
30.081337
 21
-79.654761
 31
18.999999
 12
28.889088
 22
-81.439085
 32
18.999999
 13
28.889088
 23
-81.439085
 33
18.999999
  0
3DFACE
  5
107
330
EB
100
AcDbEntity
  8
1
  6
Continuous
 62
   252
370
    35
100
AcDbFace
 10
31.96891
 20
-91.186292
 30
18.999999
 11
31.96891
 21
101.999998
 31
18.999999
 12
30.5
 22
101.000004
 32
18.999999
 13
30.5
 23
-77.550001
 33
18.999999
  0
3DFACE
  5
108
330
EB
100
AcDbEntity
  8
1
  6
Continuous
 62
   252
370
    35
100
AcDbFace
 10
-29.265366
 20
-90.347759
 30
18.999999
 11
-29.914213
 21
-89.91421
 31
18.999999
 12
-31.96891
 22
-101.999998
 32
18.999999
 13
-31.96891
 23
-101.999998
 33
18.999999
  0
3DFACE
  5
109
330
EB
100
AcDbEntity
  8
1
  6
Continuous
 62
   252
370
    35
100
AcDbFace
 10
30.5
 20
-77.550001
 30
18.999999
 11
30.081337
 21
-79.654761
 31
18.999999
 12
31.96891
 22
-91.186292
 32
18.999999
 13
31.96891
 23
-91.186292
 33
18.999999
  0
3DFACE
  5
10A
330
EB
100
AcDbEntity
  8
1
  6
Continuous
 62
   252
370
    35
100
AcDbFace
 10
21.439087
 20
-88.889085
 30
18.999999
 11
19.654758
 21
-90.081334
 31
18.999999
 12
22.199843
 22
-103.013553
 32
18.999999
 13
30.513551
 23
-94.699845
 33
18.999999
  0
3DFACE
  5
10B
330
EB
100
AcDbEntity
  8
1
  6
Continuous
 62
   252
370
    35
100
AcDbFace
 10
30.347759
 20
101.765364
 30
18.999999
 11
30.5
 21
101.000004
 31
18.999999
 12
31.96891
 22
101.999998
 32
18.999999
 13
31.96891
 23
101.999998
 33
18.999999
  0
ENDBLK
  5
EE
330
EB
100
AcDbEntity
  8
0
100
AcDbBlockEnd
  0
BLOCK
  5
10E
330
10C
100
AcDbEntity
  8
0
100
AcDbBlockBegin
  2
UG_SURFACE_019
 70
     0
 10
0.0
 20
0.0
 30
0.0
  3
UG_SURFACE_019
  1

  0
3DFACE
  5
110
330
10C
100
AcDbEntity
  8
1
  6
Continuous
 62
   252
370
    35
100
AcDbFace
 10
28.5
 20
103.0
 30
18.9
 11
-28.5
 21
103.0
 31
18.9
 12
-28.449999
 22
102.750003
 32
18.9
 13
28.449999
 23
102.750003
 33
18.9
  0
3DFACE
  5
111
330
10C
100
AcDbEntity
  8
1
  6
Continuous
 62
   252
370
    35
100
AcDbFace
 10
-30.5
 20
-88.500001
 30
18.9
 11
-30.347759
 21
-89.265369
 31
18.9
 12
-30.112984
 22
-89.138828
 32
18.9
 13
-30.25
 23
-88.45
 33
18.9
  0
3DFACE
  5
112
330
10C
100
AcDbEntity
  8
1
  6
Continuous
 62
   252
370
    35
100
AcDbFace
 10
30.347759
 20
101.765364
 30
18.9
 11
29.914213
 21
102.414213
 31
18.9
 12
29.722793
 22
102.222793
 32
18.9
 13
30.112984
 23
101.638831
 33
18.9
  0
3DFACE
  5
113
330
10C
100
AcDbEntity
  8
1
  6
Continuous
 62
   252
370
    35
100
AcDbFace
 10
-28.5
 20
103.0
 30
18.9
 11
-29.265366
 21
102.847762
 31
18.9
 12
-29.13883
 22
102.61298
 32
18.9
 13
-28.449999
 23
102.750003
 33
18.9
  0
3DFACE
  5
114
330
10C
100
AcDbEntity
  8
1
  6
Continuous
 62
   252
370
    35
100
AcDbFace
 10
-30.25
 20
-88.45
 30
18.9
 11
-30.25
 21
100.950003
 31
18.9
 12
-30.5
 22
101.000004
 32
18.9
 13
-30.5
 23
-88.500001
 33
18.9
  0
3DFACE
  5
115
330
10C
100
AcDbEntity
  8
1
  6
Continuous
 62
   252
370
    35
100
AcDbFace
 10
21.439087
 20
-88.889085
 30
18.9
 11
28.889088
 21
-81.439085
 31
18.9
 12
28.697666
 22
-81.276849
 32
18.9
 13
21.27685
 23
-88.697664
 33
18.9
  0
3DFACE
  5
116
330
10C
100
AcDbEntity
  8
1
  6
Continuous
 62
   252
370
    35
100
AcDbFace
 10
29.914213
 20
102.414213
 30
18.9
 11
29.265366
 21
102.847762
 31
18.9
 12
29.13883
 22
102.61298
 32
18.9
 13
29.722793
 23
102.222793
 33
18.9
  0
3DFACE
  5
117
330
10C
100
AcDbEntity
  8
1
  6
Continuous
 62
   252
370
    35
100
AcDbFace
 10
-29.265366
 20
102.847762
 30
18.9
 11
-29.914213
 21
102.414213
 31
18.9
 12
-29.722793
 22
102.222793
 32
18.9
 13
-29.13883
 23
102.61298
 33
18.9
  0
3DFACE
  5
118
330
10C
100
AcDbEntity
  8
1
  6
Continuous
 62
   252
370
    35
100
AcDbFace
 10
-30.25
 20
100.950003
 30
18.9
 11
-30.112984
 21
101.638831
 31
18.9
 12
-30.347759
 22
101.765364
 32
18.9
 13
-30.5
 23
101.000004
 33
18.9
  0
3DFACE
  5
119
330
10C
100
AcDbEntity
  8
1
  6
Continuous
 62
   252
370
    35
100
AcDbFace
 10
-29.914213
 20
-89.91421
 30
18.9
 11
-29.265366
 21
-90.347759
 31
18.9
 12
-29.13883
 22
-90.112984
 32
18.9
 13
-29.722793
 23
-89.72279
 33
18.9
  0
3DFACE
  5
11A
330
10C
100
AcDbEntity
  8
1
  6
Continuous
 62
   252
370
    35
100
AcDbFace
 10
-28.5
 20
-90.499997
 30
18.9
 11
17.550001
 21
-90.499997
 31
18.9
 12
17.529184
 22
-90.25
 32
18.9
 13
-28.449999
 23
-90.25
 33
18.9
  0
3DFACE
  5
11B
330
10C
100
AcDbEntity
  8
1
  6
Continuous
 62
   252
370
    35
100
AcDbFace
 10
28.889088
 20
-81.439085
 30
18.9
 11
30.081337
 21
-79.654761
 31
18.9
 12
29.846562
 22
-79.557404
 32
18.9
 13
28.697666
 23
-81.276849
 33
18.9
  0
3DFACE
  5
11C
330
10C
100
AcDbEntity
  8
1
  6
Continuous
 62
   252
370
    35
100
AcDbFace
 10
30.5
 20
-77.550001
 30
18.9
 11
30.5
 21
101.000004
 31
18.9
 12
30.25
 22
100.950003
 32
18.9
 13
30.25
 23
-77.529185
 33
18.9
  0
3DFACE
  5
11D
330
10C
100
AcDbEntity
  8
1
  6
Continuous
 62
   252
370
    35
100
AcDbFace
 10
28.449999
 20
102.750003
 30
18.9
 11
29.13883
 21
102.61298
 31
18.9
 12
29.265366
 22
102.847762
 32
18.9
 13
28.5
 23
103.0
 33
18.9
  0
3DFACE
  5
11E
330
10C
100
AcDbEntity
  8
1
  6
Continuous
 62
   252
370
    35
100
AcDbFace
 10
-29.722793
 20
-89.72279
 30
18.9
 11
-30.112984
 21
-89.138828
 31
18.9
 12
-30.347759
 22
-89.265369
 32
18.9
 13
-29.914213
 23
-89.91421
 33
18.9
  0
3DFACE
  5
11F
330
10C
100
AcDbEntity
  8
1
  6
Continuous
 62
   252
370
    35
100
AcDbFace
 10
17.550001
 20
-90.499997
 30
18.9
 11
19.654758
 21
-90.081334
 31
18.9
 12
19.557407
 22
-89.846559
 32
18.9
 13
17.529184
 23
-90.25
 33
18.9
  0
3DFACE
  5
120
330
10C
100
AcDbEntity
  8
1
  6
Continuous
 62
   252
370
    35
100
AcDbFace
 10
30.25
 20
-77.529185
 30
18.9
 11
29.846562
 21
-79.557404
 31
18.9
 12
30.081337
 22
-79.654761
 32
18.9
 13
30.5
 23
-77.550001
 33
18.9
  0
3DFACE
  5
121
330
10C
100
AcDbEntity
  8
1
  6
Continuous
 62
   252
370
    35
100
AcDbFace
 10
-30.112984
 20
101.638831
 30
18.9
 11
-29.722793
 21
102.222793
 31
18.9
 12
-29.914213
 22
102.414213
 32
18.9
 13
-30.347759
 23
101.765364
 33
18.9
  0
3DFACE
  5
122
330
10C
100
AcDbEntity
  8
1
  6
Continuous
 62
   252
370
    35
100
AcDbFace
 10
21.27685
 20
-88.697664
 30
18.9
 11
19.557407
 21
-89.846559
 31
18.9
 12
19.654758
 22
-90.081334
 32
18.9
 13
21.439087
 23
-88.889085
 33
18.9
  0
3DFACE
  5
123
330
10C
100
AcDbEntity
  8
1
  6
Continuous
 62
   252
370
    35
100
AcDbFace
 10
-28.449999
 20
-90.25
 30
18.9
 11
-29.13883
 21
-90.112984
 31
18.9
 12
-29.265366
 22
-90.347759
 32
18.9
 13
-28.5
 23
-90.499997
 33
18.9
  0
3DFACE
  5
124
330
10C
100
AcDbEntity
  8
1
  6
Continuous
 62
   252
370
    35
100
AcDbFace
 10
30.112984
 20
101.638831
 30
18.9
 11
30.25
 21
100.950003
 31
18.9
 12
30.5
 22
101.000004
 32
18.9
 13
30.347759
 23
101.765364
 33
18.9
  0
ENDBLK
  5
10F
330
10C
100
AcDbEntity
  8
0
100
AcDbBlockEnd
  0
BLOCK
  5
127
330
125
100
AcDbEntity
  8
0
100
AcDbBlockBegin
  2
UG_SURFACE_020
 70
     0
 10
0.0
 20
0.0
 30
0.0
  3
UG_SURFACE_020
  1

  0
3DFACE
  5
129
330
125
100
AcDbEntity
  8
1
  6
Continuous
 62
   252
370
    35
100
AcDbFace
 10
28.449999
 20
102.750003
 30
18.999999
 11
-28.449999
 21
102.750003
 31
18.999999
 12
-22.75
 22
95.749997
 32
18.999999
 13
22.75
 23
95.749997
 33
18.999999
  0
3DFACE
  5
12A
330
125
100
AcDbEntity
  8
1
  6
Continuous
 62
   252
370
    35
100
AcDbFace
 10
-23.103554
 20
-83.103552
 30
18.999999
 11
-23.211939
 21
-82.941338
 31
18.999999
 12
-30.25
 22
-88.45
 32
18.999999
 13
-30.112984
 23
-89.138828
 33
18.999999
  0
3DFACE
  5
12B
330
125
100
AcDbEntity
  8
1
  6
Continuous
 62
   252
370
    35
100
AcDbFace
 10
-23.103554
 20
-83.103552
 30
18.999999
 11
-29.722793
 21
-89.72279
 31
18.999999
 12
-29.13883
 22
-90.112984
 32
18.999999
 13
-29.13883
 23
-90.112984
 33
18.999999
  0
3DFACE
  5
12C
330
125
100
AcDbEntity
  8
1
  6
Continuous
 62
   252
370
    35
100
AcDbFace
 10
17.529184
 20
-90.25
 30
18.999999
 11
19.557407
 21
-89.846559
 31
18.999999
 12
16.761962
 22
-83.097756
 32
18.999999
 13
15.996594
 23
-83.250001
 33
18.999999
  0
3DFACE
  5
12D
330
125
100
AcDbEntity
  8
1
  6
Continuous
 62
   252
370
    35
100
AcDbFace
 10
-28.449999
 20
102.750003
 30
18.999999
 11
-22.941342
 21
95.711939
 31
18.999999
 12
-22.75
 22
95.749997
 32
18.999999
 13
-22.75
 23
95.749997
 33
18.999999
  0
3DFACE
  5
12E
330
125
100
AcDbEntity
  8
1
  6
Continuous
 62
   252
370
    35
100
AcDbFace
 10
-23.103554
 20
95.603555
 30
18.999999
 11
-22.941342
 21
95.711939
 31
18.999999
 12
-28.449999
 22
102.750003
 32
18.999999
 13
-29.13883
 23
102.61298
 33
18.999999
  0
3DFACE
  5
12F
330
125
100
AcDbEntity
  8
1
  6
Continuous
 62
   252
370
    35
100
AcDbFace
 10
-30.25
 20
100.950003
 30
18.999999
 11
-30.25
 21
-88.45
 31
18.999999
 12
-23.250001
 22
-82.75
 32
18.999999
 13
-23.250001
 23
95.250003
 33
18.999999
  0
3DFACE
  5
130
330
125
100
AcDbEntity
  8
1
  6
Continuous
 62
   252
370
    35
100
AcDbFace
 10
-29.13883
 20
-90.112984
 30
18.999999
 11
-28.449999
 21
-90.25
 31
18.999999
 12
-22.941342
 22
-83.211936
 32
18.999999
 13
-23.103554
 23
-83.103552
 33
18.999999
  0
3DFACE
  5
131
330
125
100
AcDbEntity
  8
1
  6
Continuous
 62
   252
370
    35
100
AcDbFace
 10
15.996594
 20
-83.250001
 30
18.999999
 11
-22.75
 21
-83.250001
 31
18.999999
 12
-28.449999
 22
-90.25
 32
18.999999
 13
17.529184
 23
-90.25
 33
18.999999
  0
3DFACE
  5
132
330
125
100
AcDbEntity
  8
1
  6
Continuous
 62
   252
370
    35
100
AcDbFace
 10
23.103554
 20
95.603555
 30
18.999999
 11
29.722793
 21
102.222793
 31
18.999999
 12
29.13883
 22
102.61298
 32
18.999999
 13
29.13883
 23
102.61298
 33
18.999999
  0
3DFACE
  5
133
330
125
100
AcDbEntity
  8
1
  6
Continuous
 62
   252
370
    35
100
AcDbFace
 10
-29.13883
 20
102.61298
 30
18.999999
 11
-29.722793
 21
102.222793
 31
18.999999
 12
-23.103554
 22
95.603555
 32
18.999999
 13
-23.103554
 23
95.603555
 33
18.999999
  0
3DFACE
  5
134
330
125
100
AcDbEntity
  8
1
  6
Continuous
 62
   252
370
    35
100
AcDbFace
 10
-30.25
 20
-88.45
 30
18.999999
 11
-23.211939
 21
-82.941338
 31
18.999999
 12
-23.250001
 22
-82.75
 32
18.999999
 13
-23.250001
 23
-82.75
 33
18.999999
  0
3DFACE
  5
135
330
125
100
AcDbEntity
  8
1
  6
Continuous
 62
   252
370
    35
100
AcDbFace
 10
-22.75
 20
-83.250001
 30
18.999999
 11
-22.941342
 21
-83.211936
 31
18.999999
 12
-28.449999
 22
-90.25
 32
18.999999
 13
-28.449999
 23
-90.25
 33
18.999999
  0
3DFACE
  5
136
330
125
100
AcDbEntity
  8
1
  6
Continuous
 62
   252
370
    35
100
AcDbFace
 10
23.103554
 20
95.603555
 30
18.999999
 11
23.211939
 21
95.441341
 31
18.999999
 12
30.25
 22
100.950003
 32
18.999999
 13
30.112984
 23
101.638831
 33
18.999999
  0
3DFACE
  5
137
330
125
100
AcDbEntity
  8
1
  6
Continuous
 62
   252
370
    35
100
AcDbFace
 10
22.75
 20
95.749997
 30
18.999999
 11
22.941342
 21
95.711939
 31
18.999999
 12
28.449999
 22
102.750003
 32
18.999999
 13
28.449999
 23
102.750003
 33
18.999999
  0
3DFACE
  5
138
330
125
100
AcDbEntity
  8
1
  6
Continuous
 62
   252
370
    35
100
AcDbFace
 10
-23.103554
 20
95.603555
 30
18.999999
 11
-29.722793
 21
102.222793
 31
18.999999
 12
-30.112984
 22
101.638831
 32
18.999999
 13
-30.112984
 23
101.638831
 33
18.999999
  0
3DFACE
  5
139
330
125
100
AcDbEntity
  8
1
  6
Continuous
 62
   252
370
    35
100
AcDbFace
 10
-30.112984
 20
-89.138828
 30
18.999999
 11
-29.722793
 21
-89.72279
 31
18.999999
 12
-23.103554
 22
-83.103552
 32
18.999999
 13
-23.103554
 23
-83.103552
 33
18.999999
  0
3DFACE
  5
13A
330
125
100
AcDbEntity
  8
1
  6
Continuous
 62
   252
370
    35
100
AcDbFace
 10
29.13883
 20
102.61298
 30
18.999999
 11
28.449999
 21
102.750003
 31
18.999999
 12
22.941342
 22
95.711939
 32
18.999999
 13
23.103554
 23
95.603555
 33
18.999999
  0
3DFACE
  5
13B
330
125
100
AcDbEntity
  8
1
  6
Continuous
 62
   252
370
    35
100
AcDbFace
 10
-23.250001
 20
95.250003
 30
18.999999
 11
-23.211939
 21
95.441341
 31
18.999999
 12
-30.25
 22
100.950003
 32
18.999999
 13
-30.25
 23
100.950003
 33
18.999999
  0
3DFACE
  5
13C
330
125
100
AcDbEntity
  8
1
  6
Continuous
 62
   252
370
    35
100
AcDbFace
 10
21.27685
 20
-88.697664
 30
18.999999
 11
28.697666
 21
-81.276849
 31
18.999999
 12
22.664214
 22
-77.41081
 32
18.999999
 13
17.410807
 23
-82.664214
 33
18.999999
  0
3DFACE
  5
13D
330
125
100
AcDbEntity
  8
1
  6
Continuous
 62
   252
370
    35
100
AcDbFace
 10
-30.112984
 20
101.638831
 30
18.999999
 11
-30.25
 21
100.950003
 31
18.999999
 12
-23.211939
 22
95.441341
 32
18.999999
 13
-23.103554
 23
95.603555
 33
18.999999
  0
3DFACE
  5
13E
330
125
100
AcDbEntity
  8
1
  6
Continuous
 62
   252
370
    35
100
AcDbFace
 10
28.697666
 20
-81.276849
 30
18.999999
 11
29.846562
 21
-79.557404
 31
18.999999
 12
23.097759
 22
-76.761961
 32
18.999999
 13
22.664214
 23
-77.41081
 33
18.999999
  0
3DFACE
  5
13F
330
125
100
AcDbEntity
  8
1
  6
Continuous
 62
   252
370
    35
100
AcDbFace
 10
30.25
 20
-77.529185
 30
18.999999
 11
30.25
 21
100.950003
 31
18.999999
 12
23.250001
 22
95.250003
 32
18.999999
 13
23.250001
 23
-75.996593
 33
18.999999
  0
3DFACE
  5
140
330
125
100
AcDbEntity
  8
1
  6
Continuous
 62
   252
370
    35
100
AcDbFace
 10
30.112984
 20
101.638831
 30
18.999999
 11
29.722793
 21
102.222793
 31
18.999999
 12
23.103554
 22
95.603555
 32
18.999999
 13
23.103554
 23
95.603555
 33
18.999999
  0
3DFACE
  5
141
330
125
100
AcDbEntity
  8
1
  6
Continuous
 62
   252
370
    35
100
AcDbFace
 10
23.250001
 20
-75.996593
 30
18.999999
 11
23.097759
 21
-76.761961
 31
18.999999
 12
29.846562
 22
-79.557404
 32
18.999999
 13
30.25
 23
-77.529185
 33
18.999999
  0
3DFACE
  5
142
330
125
100
AcDbEntity
  8
1
  6
Continuous
 62
   252
370
    35
100
AcDbFace
 10
17.410807
 20
-82.664214
 30
18.999999
 11
16.761962
 21
-83.097756
 31
18.999999
 12
19.557407
 22
-89.846559
 32
18.999999
 13
21.27685
 23
-88.697664
 33
18.999999
  0
3DFACE
  5
143
330
125
100
AcDbEntity
  8
1
  6
Continuous
 62
   252
370
    35
100
AcDbFace
 10
23.211939
 20
95.441341
 30
18.999999
 11
23.250001
 21
95.250003
 31
18.999999
 12
30.25
 22
100.950003
 32
18.999999
 13
30.25
 23
100.950003
 33
18.999999
  0
ENDBLK
  5
128
330
125
100
AcDbEntity
  8
0
100
AcDbBlockEnd
  0
BLOCK
  5
146
330
144
100
AcDbEntity
  8
0
100
AcDbBlockBegin
  2
UG_SURFACE_021
 70
     0
 10
0.0
 20
0.0
 30
0.0
  3
UG_SURFACE_021
  1

  0
3DFACE
  5
148
330
144
100
AcDbEntity
  8
1
  6
Continuous
 62
    74
370
    35
100
AcDbFace
 10
-23.250001
 20
-82.75
 30
18.999999
 11
-23.211939
 21
-82.941338
 31
18.999999
 12
-23.103554
 22
-83.103552
 32
18.999999
 13
-23.103554
 23
-83.103552
 33
18.999999
  0
3DFACE
  5
149
330
144
100
AcDbEntity
  8
1
  6
Continuous
 62
    74
370
    35
100
AcDbFace
 10
23.250001
 20
95.250003
 30
18.999999
 11
23.211939
 21
95.441341
 31
18.999999
 12
23.103554
 22
95.603555
 32
18.999999
 13
22.941342
 23
95.711939
 33
18.999999
  0
3DFACE
  5
14A
330
144
100
AcDbEntity
  8
1
  6
Continuous
 62
    74
370
    35
100
AcDbFace
 10
17.410807
 20
-82.664214
 30
18.999999
 11
22.664214
 21
-77.41081
 31
18.999999
 12
23.097759
 22
-76.761961
 32
18.999999
 13
23.250001
 23
-75.996593
 33
18.999999
  0
3DFACE
  5
14B
330
144
100
AcDbEntity
  8
1
  6
Continuous
 62
    74
370
    35
100
AcDbFace
 10
-22.75
 20
-83.250001
 30
18.999999
 11
-22.75
 21
95.749997
 31
18.999999
 12
-23.250001
 22
95.250003
 32
18.999999
 13
-23.250001
 23
-82.75
 33
18.999999
  0
3DFACE
  5
14C
330
144
100
AcDbEntity
  8
1
  6
Continuous
 62
    74
370
    35
100
AcDbFace
 10
22.941342
 20
95.711939
 30
18.999999
 11
22.75
 21
95.749997
 31
18.999999
 12
23.250001
 22
95.250003
 32
18.999999
 13
23.250001
 23
95.250003
 33
18.999999
  0
3DFACE
  5
14D
330
144
100
AcDbEntity
  8
1
  6
Continuous
 62
    74
370
    35
100
AcDbFace
 10
-22.75
 20
95.749997
 30
18.999999
 11
15.996594
 21
-83.250001
 31
18.999999
 12
16.761962
 22
-83.097756
 32
18.999999
 13
17.410807
 23
-82.664214
 33
18.999999
  0
3DFACE
  5
14E
330
144
100
AcDbEntity
  8
1
  6
Continuous
 62
    74
370
    35
100
AcDbFace
 10
-23.103554
 20
-83.103552
 30
18.999999
 11
-22.941342
 21
-83.211936
 31
18.999999
 12
-22.75
 22
-83.250001
 32
18.999999
 13
-23.250001
 23
-82.75
 33
18.999999
  0
3DFACE
  5
14F
330
144
100
AcDbEntity
  8
1
  6
Continuous
 62
    74
370
    35
100
AcDbFace
 10
-23.250001
 20
95.250003
 30
18.999999
 11
-22.75
 21
95.749997
 31
18.999999
 12
-22.941342
 22
95.711939
 32
18.999999
 13
-22.941342
 23
95.711939
 33
18.999999
  0
3DFACE
  5
150
330
144
100
AcDbEntity
  8
1
  6
Continuous
 62
    74
370
    35
100
AcDbFace
 10
23.250001
 20
-75.996593
 30
18.999999
 11
23.250001
 21
95.250003
 31
18.999999
 12
-22.75
 22
95.749997
 32
18.999999
 13
17.410807
 23
-82.664214
 33
18.999999
  0
3DFACE
  5
151
330
144
100
AcDbEntity
  8
1
  6
Continuous
 62
    74
370
    35
100
AcDbFace
 10
-22.941342
 20
95.711939
 30
18.999999
 11
-23.103554
 21
95.603555
 31
18.999999
 12
-23.211939
 22
95.441341
 32
18.999999
 13
-23.250001
 23
95.250003
 33
18.999999
  0
3DFACE
  5
152
330
144
100
AcDbEntity
  8
1
  6
Continuous
 62
    74
370
    35
100
AcDbFace
 10
-22.75
 20
-83.250001
 30
18.999999
 11
15.996594
 21
-83.250001
 31
18.999999
 12
-22.75
 22
95.749997
 32
18.999999
 13
-22.75
 23
95.749997
 33
18.999999
  0
3DFACE
  5
153
330
144
100
AcDbEntity
  8
1
  6
Continuous
 62
    74
370
    35
100
AcDbFace
 10
22.75
 20
95.749997
 30
18.999999
 11
-22.75
 21
95.749997
 31
18.999999
 12
23.250001
 22
95.250003
 32
18.999999
 13
23.250001
 23
95.250003
 33
18.999999
  0
ENDBLK
  5
147
330
144
100
AcDbEntity
  8
0
100
AcDbBlockEnd
  0
BLOCK
  5
156
330
154
100
AcDbEntity
  8
0
100
AcDbBlockBegin
  2
UG_SURFACE_022
 70
     0
 10
0.0
 20
0.0
 30
0.0
  3
UG_SURFACE_022
  1

  0
3DFACE
  5
158
330
154
100
AcDbEntity
  8
1
  6
Continuous
 62
   252
370
    35
100
AcDbFace
 10
-28.449999
 20
102.750003
 30
18.9
 11
-28.449999
 21
102.750003
 31
18.999999
 12
28.449999
 22
102.750003
 32
18.999999
 13
28.449999
 23
102.750003
 33
18.9
  0
ENDBLK
  5
157
330
154
100
AcDbEntity
  8
0
100
AcDbBlockEnd
  0
BLOCK
  5
15B
330
159
100
AcDbEntity
  8
0
100
AcDbBlockBegin
  2
UG_SURFACE_023
 70
     0
 10
0.0
 20
0.0
 30
0.0
  3
UG_SURFACE_023
  1

  0
3DFACE
  5
15D
330
159
100
AcDbEntity
  8
1
  6
Continuous
 62
   252
370
    35
100
AcDbFace
 10
28.5
 20
103.0
 30
18.9
 11
28.5
 21
103.0
 31
18.999999
 12
-28.5
 22
103.0
 32
18.999999
 13
-28.5
 23
103.0
 33
18.9
  0
ENDBLK
  5
15C
330
159
100
AcDbEntity
  8
0
100
AcDbBlockEnd
  0
BLOCK
  5
160
330
15E
100
AcDbEntity
  8
0
100
AcDbBlockBegin
  2
UG_SURFACE_024
 70
     0
 10
0.0
 20
0.0
 30
0.0
  3
UG_SURFACE_024
  1

  0
3DFACE
  5
162
330
15E
100
AcDbEntity
  8
1
  6
Continuous
 62
   252
370
    35
100
AcDbFace
 10
29.5
 20
107.500002
 30
17.25
 11
-29.5
 21
107.500002
 31
17.25
 12
-29.5
 22
104.468912
 32
18.999999
 13
29.5
 23
104.468912
 33
18.999999
  0
ENDBLK
  5
161
330
15E
100
AcDbEntity
  8
0
100
AcDbBlockEnd
  0
BLOCK
  5
165
330
163
100
AcDbEntity
  8
0
100
AcDbBlockBegin
  2
UG_SURFACE_025
 70
     0
 10
0.0
 20
0.0
 30
0.0
  3
UG_SURFACE_025
  1

  0
3DFACE
  5
167
330
163
100
AcDbEntity
  8
1
  6
Continuous
 62
   252
370
    35
100
AcDbFace
 10
29.5
 20
107.500002
 30
0.0
 11
-29.5
 21
107.500002
 31
0.0
 12
-29.5
 22
107.500002
 32
17.25
 13
29.5
 23
107.500002
 33
17.25
  0
ENDBLK
  5
166
330
163
100
AcDbEntity
  8
0
100
AcDbBlockEnd
  0
BLOCK
  5
16A
330
168
100
AcDbEntity
  8
0
100
AcDbBlockBegin
  2
UG_SURFACE_026
 70
     0
 10
0.0
 20
0.0
 30
0.0
  3
UG_SURFACE_026
  1

  0
3DFACE
  5
16C
330
168
100
AcDbEntity
  8
1
  6
Continuous
 62
   252
370
    35
100
AcDbFace
 10
19.557407
 20
-89.846559
 30
18.9
 11
19.557407
 21
-89.846559
 31
18.999999
 12
17.529184
 22
-90.25
 32
18.999999
 13
17.529184
 23
-90.25
 33
18.9
  0
3DFACE
  5
16D
330
168
100
AcDbEntity
  8
1
  6
Continuous
 62
   252
370
    35
100
AcDbFace
 10
21.27685
 20
-88.697664
 30
18.9
 11
21.27685
 21
-88.697664
 31
18.999999
 12
19.557407
 22
-89.846559
 32
18.999999
 13
19.557407
 23
-89.846559
 33
18.9
  0
ENDBLK
  5
16B
330
168
100
AcDbEntity
  8
0
100
AcDbBlockEnd
  0
BLOCK
  5
170
330
16E
100
AcDbEntity
  8
0
100
AcDbBlockBegin
  2
UG_SURFACE_027
 70
     0
 10
0.0
 20
0.0
 30
0.0
  3
UG_SURFACE_027
  1

  0
3DFACE
  5
172
330
16E
100
AcDbEntity
  8
1
  6
Continuous
 62
   252
370
    35
100
AcDbFace
 10
19.654758
 20
-90.081334
 30
18.9
 11
19.654758
 21
-90.081334
 31
18.999999
 12
21.439087
 22
-88.889085
 32
18.999999
 13
21.439087
 23
-88.889085
 33
18.9
  0
3DFACE
  5
173
330
16E
100
AcDbEntity
  8
1
  6
Continuous
 62
   252
370
    35
100
AcDbFace
 10
17.550001
 20
-90.499997
 30
18.9
 11
17.550001
 21
-90.499997
 31
18.999999
 12
19.654758
 22
-90.081334
 32
18.999999
 13
19.654758
 23
-90.081334
 33
18.9
  0
ENDBLK
  5
171
330
16E
100
AcDbEntity
  8
0
100
AcDbBlockEnd
  0
BLOCK
  5
176
330
174
100
AcDbEntity
  8
0
100
AcDbBlockBegin
  2
UG_SURFACE_028
 70
     0
 10
0.0
 20
0.0
 30
0.0
  3
UG_SURFACE_028
  1

  0
3DFACE
  5
178
330
174
100
AcDbEntity
  8
1
  6
Continuous
 62
   252
370
    35
100
AcDbFace
 10
35.0
 20
-76.627448
 30
0.0
 11
24.122108
 21
-104.935817
 31
17.430477
 12
22.181246
 22
-106.696203
 32
17.25
 13
19.312998
 23
-107.475415
 33
15.160968
  0
3DFACE
  5
179
330
174
100
AcDbEntity
  8
1
  6
Continuous
 62
   252
370
    35
100
AcDbFace
 10
35.0
 20
-76.627448
 30
0.0
 11
32.435816
 21
-96.622109
 31
17.430477
 12
24.122108
 22
-104.935817
 32
17.430477
 13
24.122108
 23
-104.935817
 33
17.430477
  0
3DFACE
  5
17A
330
174
100
AcDbEntity
  8
1
  6
Continuous
 62
   252
370
    35
100
AcDbFace
 10
32.435816
 20
-96.622109
 30
17.430477
 11
35.0
 21
-76.627448
 31
0.0
 12
35.0
 22
-91.186292
 32
14.558846
 13
35.0
 23
-91.186292
 33
14.558846
  0
3DFACE
  5
17B
330
174
100
AcDbEntity
  8
1
  6
Continuous
 62
   252
370
    35
100
AcDbFace
 10
35.0
 20
-91.186292
 30
14.558846
 11
34.364682
 21
-94.310626
 31
17.047863
 12
34.196202
 22
-94.681248
 32
17.25
 13
32.435816
 23
-96.622109
 33
17.430477
  0
3DFACE
  5
17C
330
174
100
AcDbEntity
  8
1
  6
Continuous
 62
   252
370
    35
100
AcDbFace
 10
19.312998
 20
-107.475415
 30
15.160968
 11
18.686291
 21
-107.500002
 31
14.558846
 12
35.0
 22
-76.627448
 32
0.0
 13
35.0
 23
-76.627448
 33
0.0
  0
3DFACE
  5
17D
330
174
100
AcDbEntity
  8
1
  6
Continuous
 62
   252
370
    35
100
AcDbFace
 10
18.686291
 20
-107.500002
 30
14.558846
 11
4.127446
 21
-107.500002
 31
0.0
 12
35.0
 22
-76.627448
 32
0.0
 13
35.0
 23
-76.627448
 33
0.0
  0
ENDBLK
  5
177
330
174
100
AcDbEntity
  8
0
100
AcDbBlockEnd
  0
BLOCK
  5
180
330
17E
100
AcDbEntity
  8
0
100
AcDbBlockBegin
  2
UG_SURFACE_029
 70
     0
 10
0.0
 20
0.0
 30
0.0
  3
UG_SURFACE_029
  1

  0
3DFACE
  5
182
330
17E
100
AcDbEntity
  8
1
  6
Continuous
 62
   252
370
    35
100
AcDbFace
 10
22.181246
 20
-106.696203
 30
17.25
 11
20.489963
 21
-107.294023
 31
17.25
 12
20.489963
 22
-107.294023
 32
16.156537
 13
20.489963
 23
-107.294023
 33
16.156537
  0
3DFACE
  5
183
330
17E
100
AcDbEntity
  8
1
  6
Continuous
 62
   252
370
    35
100
AcDbFace
 10
20.489963
 20
-107.294023
 30
16.156537
 11
20.489963
 21
-107.294023
 31
17.25
 12
18.686291
 22
-107.500002
 32
17.25
 13
18.686291
 23
-107.500002
 33
14.558846
  0
ENDBLK
  5
181
330
17E
100
AcDbEntity
  8
0
100
AcDbBlockEnd
  0
BLOCK
  5
186
330
184
100
AcDbEntity
  8
0
100
AcDbBlockBegin
  2
UG_SURFACE_030
 70
     0
 10
0.0
 20
0.0
 30
0.0
  3
UG_SURFACE_030
  1

  0
3DFACE
  5
188
330
184
100
AcDbEntity
  8
1
  6
Continuous
 62
   252
370
    35
100
AcDbFace
 10
22.181246
 20
-106.696203
 30
17.25
 11
24.122108
 21
-104.935817
 31
17.430477
 12
22.199843
 22
-103.013553
 32
18.999999
 13
22.199843
 23
-103.013553
 33
18.999999
  0
3DFACE
  5
189
330
184
100
AcDbEntity
  8
1
  6
Continuous
 62
   252
370
    35
100
AcDbFace
 10
20.587811
 20
-104.090676
 30
18.999999
 11
21.747759
 21
-106.891036
 31
17.25
 12
22.181246
 22
-106.696203
 32
17.25
 13
22.181246
 23
-106.696203
 33
17.25
  0
3DFACE
  5
18A
330
184
100
AcDbEntity
  8
1
  6
Continuous
 62
   252
370
    35
100
AcDbFace
 10
22.199843
 20
-103.013553
 30
18.999999
 11
20.587811
 21
-104.090676
 31
18.999999
 12
22.181246
 22
-106.696203
 32
17.25
 13
22.181246
 23
-106.696203
 33
17.25
  0
3DFACE
  5
18B
330
184
100
AcDbEntity
  8
1
  6
Continuous
 62
   252
370
    35
100
AcDbFace
 10
18.686291
 20
-107.500002
 30
17.25
 11
21.747759
 21
-106.891036
 31
17.25
 12
20.587811
 22
-104.090676
 32
18.999999
 13
18.686291
 23
-104.468912
 33
18.999999
  0
ENDBLK
  5
187
330
184
100
AcDbEntity
  8
0
100
AcDbBlockEnd
  0
BLOCK
  5
18E
330
18C
100
AcDbEntity
  8
0
100
AcDbBlockBegin
  2
UG_SURFACE_031
 70
     0
 10
0.0
 20
0.0
 30
0.0
  3
UG_SURFACE_031
  1

  0
3DFACE
  5
190
330
18C
100
AcDbEntity
  8
1
  6
Continuous
 62
   252
370
    35
100
AcDbFace
 10
28.697666
 20
-81.276849
 30
18.9
 11
28.697666
 21
-81.276849
 31
18.999999
 12
21.27685
 22
-88.697664
 32
18.999999
 13
21.27685
 23
-88.697664
 33
18.9
  0
ENDBLK
  5
18F
330
18C
100
AcDbEntity
  8
0
100
AcDbBlockEnd
  0
BLOCK
  5
193
330
191
100
AcDbEntity
  8
0
100
AcDbBlockBegin
  2
UG_SURFACE_032
 70
     0
 10
0.0
 20
0.0
 30
0.0
  3
UG_SURFACE_032
  1

  0
3DFACE
  5
195
330
191
100
AcDbEntity
  8
1
  6
Continuous
 62
   252
370
    35
100
AcDbFace
 10
21.439087
 20
-88.889085
 30
18.9
 11
21.439087
 21
-88.889085
 31
18.999999
 12
28.889088
 22
-81.439085
 32
18.999999
 13
28.889088
 23
-81.439085
 33
18.9
  0
ENDBLK
  5
194
330
191
100
AcDbEntity
  8
0
100
AcDbBlockEnd
  0
BLOCK
  5
198
330
196
100
AcDbEntity
  8
0
100
AcDbBlockBegin
  2
UG_SURFACE_033
 70
     0
 10
0.0
 20
0.0
 30
0.0
  3
UG_SURFACE_033
  1

  0
3DFACE
  5
19A
330
196
100
AcDbEntity
  8
1
  6
Continuous
 62
   252
370
    35
100
AcDbFace
 10
24.122108
 20
-104.935817
 30
17.430477
 11
32.435816
 21
-96.622109
 31
17.430477
 12
30.513551
 22
-94.699845
 32
18.999999
 13
22.199843
 23
-103.013553
 33
18.999999
  0
ENDBLK
  5
199
330
196
100
AcDbEntity
  8
0
100
AcDbBlockEnd
  0
BLOCK
  5
19D
330
19B
100
AcDbEntity
  8
0
100
AcDbBlockBegin
  2
UG_SURFACE_034
 70
     0
 10
0.0
 20
0.0
 30
0.0
  3
UG_SURFACE_034
  1

  0
3DFACE
  5
19F
330
19B
100
AcDbEntity
  8
1
  6
Continuous
 62
   252
370
    35
100
AcDbFace
 10
30.112984
 20
101.638831
 30
18.9
 11
30.112984
 21
101.638831
 31
18.999999
 12
30.25
 22
100.950003
 32
18.999999
 13
30.25
 23
100.950003
 33
18.9
  0
3DFACE
  5
1A0
330
19B
100
AcDbEntity
  8
1
  6
Continuous
 62
   252
370
    35
100
AcDbFace
 10
29.722793
 20
102.222793
 30
18.9
 11
29.722793
 21
102.222793
 31
18.999999
 12
30.112984
 22
101.638831
 32
18.999999
 13
30.112984
 23
101.638831
 33
18.9
  0
3DFACE
  5
1A1
330
19B
100
AcDbEntity
  8
1
  6
Continuous
 62
   252
370
    35
100
AcDbFace
 10
29.13883
 20
102.61298
 30
18.9
 11
29.13883
 21
102.61298
 31
18.999999
 12
29.722793
 22
102.222793
 32
18.999999
 13
29.722793
 23
102.222793
 33
18.9
  0
3DFACE
  5
1A2
330
19B
100
AcDbEntity
  8
1
  6
Continuous
 62
   252
370
    35
100
AcDbFace
 10
28.449999
 20
102.750003
 30
18.9
 11
28.449999
 21
102.750003
 31
18.999999
 12
29.13883
 22
102.61298
 32
18.999999
 13
29.13883
 23
102.61298
 33
18.9
  0
ENDBLK
  5
19E
330
19B
100
AcDbEntity
  8
0
100
AcDbBlockEnd
  0
BLOCK
  5
1A5
330
1A3
100
AcDbEntity
  8
0
100
AcDbBlockBegin
  2
UG_SURFACE_035
 70
     0
 10
0.0
 20
0.0
 30
0.0
  3
UG_SURFACE_035
  1

  0
3DFACE
  5
1A7
330
1A3
100
AcDbEntity
  8
1
  6
Continuous
 62
   252
370
    35
100
AcDbFace
 10
29.846562
 20
-79.557404
 30
18.9
 11
29.846562
 21
-79.557404
 31
18.999999
 12
28.697666
 22
-81.276849
 32
18.999999
 13
28.697666
 23
-81.276849
 33
18.9
  0
3DFACE
  5
1A8
330
1A3
100
AcDbEntity
  8
1
  6
Continuous
 62
   252
370
    35
100
AcDbFace
 10
30.25
 20
-77.529185
 30
18.9
 11
30.25
 21
-77.529185
 31
18.999999
 12
29.846562
 22
-79.557404
 32
18.999999
 13
29.846562
 23
-79.557404
 33
18.9
  0
ENDBLK
  5
1A6
330
1A3
100
AcDbEntity
  8
0
100
AcDbBlockEnd
  0
BLOCK
  5
1AB
330
1A9
100
AcDbEntity
  8
0
100
AcDbBlockBegin
  2
UG_SURFACE_036
 70
     0
 10
0.0
 20
0.0
 30
0.0
  3
UG_SURFACE_036
  1

  0
3DFACE
  5
1AD
330
1A9
100
AcDbEntity
  8
1
  6
Continuous
 62
   252
370
    35
100
AcDbFace
 10
29.265366
 20
102.847762
 30
18.9
 11
29.265366
 21
102.847762
 31
18.999999
 12
28.5
 22
103.0
 32
18.999999
 13
28.5
 23
103.0
 33
18.9
  0
3DFACE
  5
1AE
330
1A9
100
AcDbEntity
  8
1
  6
Continuous
 62
   252
370
    35
100
AcDbFace
 10
29.914213
 20
102.414213
 30
18.9
 11
29.914213
 21
102.414213
 31
18.999999
 12
29.265366
 22
102.847762
 32
18.999999
 13
29.265366
 23
102.847762
 33
18.9
  0
3DFACE
  5
1AF
330
1A9
100
AcDbEntity
  8
1
  6
Continuous
 62
   252
370
    35
100
AcDbFace
 10
30.347759
 20
101.765364
 30
18.9
 11
30.347759
 21
101.765364
 31
18.999999
 12
29.914213
 22
102.414213
 32
18.999999
 13
29.914213
 23
102.414213
 33
18.9
  0
3DFACE
  5
1B0
330
1A9
100
AcDbEntity
  8
1
  6
Continuous
 62
   252
370
    35
100
AcDbFace
 10
30.5
 20
101.000004
 30
18.9
 11
30.5
 21
101.000004
 31
18.999999
 12
30.347759
 22
101.765364
 32
18.999999
 13
30.347759
 23
101.765364
 33
18.9
  0
ENDBLK
  5
1AC
330
1A9
100
AcDbEntity
  8
0
100
AcDbBlockEnd
  0
BLOCK
  5
1B3
330
1B1
100
AcDbEntity
  8
0
100
AcDbBlockBegin
  2
UG_SURFACE_037
 70
     0
 10
0.0
 20
0.0
 30
0.0
  3
UG_SURFACE_037
  1

  0
3DFACE
  5
1B5
330
1B1
100
AcDbEntity
  8
1
  6
Continuous
 62
   252
370
    35
100
AcDbFace
 10
30.081337
 20
-79.654761
 30
18.9
 11
30.081337
 21
-79.654761
 31
18.999999
 12
30.5
 22
-77.550001
 32
18.999999
 13
30.5
 23
-77.550001
 33
18.9
  0
3DFACE
  5
1B6
330
1B1
100
AcDbEntity
  8
1
  6
Continuous
 62
   252
370
    35
100
AcDbFace
 10
28.889088
 20
-81.439085
 30
18.9
 11
28.889088
 21
-81.439085
 31
18.999999
 12
30.081337
 22
-79.654761
 32
18.999999
 13
30.081337
 23
-79.654761
 33
18.9
  0
ENDBLK
  5
1B4
330
1B1
100
AcDbEntity
  8
0
100
AcDbBlockEnd
  0
BLOCK
  5
1B9
330
1B7
100
AcDbEntity
  8
0
100
AcDbBlockBegin
  2
UG_SURFACE_038
 70
     0
 10
0.0
 20
0.0
 30
0.0
  3
UG_SURFACE_038
  1

  0
3DFACE
  5
1BB
330
1B7
100
AcDbEntity
  8
1
  6
Continuous
 62
   252
370
    35
100
AcDbFace
 10
30.25
 20
100.950003
 30
18.9
 11
30.25
 21
100.950003
 31
18.999999
 12
30.25
 22
-77.529185
 32
18.999999
 13
30.25
 23
-77.529185
 33
18.9
  0
ENDBLK
  5
1BA
330
1B7
100
AcDbEntity
  8
0
100
AcDbBlockEnd
  0
BLOCK
  5
1BE
330
1BC
100
AcDbEntity
  8
0
100
AcDbBlockBegin
  2
UG_SURFACE_039
 70
     0
 10
0.0
 20
0.0
 30
0.0
  3
UG_SURFACE_039
  1

  0
3DFACE
  5
1C0
330
1BC
100
AcDbEntity
  8
1
  6
Continuous
 62
   252
370
    35
100
AcDbFace
 10
30.5
 20
-77.550001
 30
18.9
 11
30.5
 21
-77.550001
 31
18.999999
 12
30.5
 22
101.000004
 32
18.999999
 13
30.5
 23
101.000004
 33
18.9
  0
ENDBLK
  5
1BF
330
1BC
100
AcDbEntity
  8
0
100
AcDbBlockEnd
  0
BLOCK
  5
1C3
330
1C1
100
AcDbEntity
  8
0
100
AcDbBlockBegin
  2
UG_SURFACE_040
 70
     0
 10
0.0
 20
0.0
 30
0.0
  3
UG_SURFACE_040
  1

  0
3DFACE
  5
1C5
330
1C1
100
AcDbEntity
  8
1
  6
Continuous
 62
   252
370
    35
100
AcDbFace
 10
34.581337
 20
104.104757
 30
0.0
 11
34.581337
 21
104.104757
 31
17.25
 12
35.0
 22
101.999998
 32
17.25
 13
35.0
 23
101.999998
 33
0.0
  0
3DFACE
  5
1C6
330
1C1
100
AcDbEntity
  8
1
  6
Continuous
 62
   252
370
    35
100
AcDbFace
 10
33.389088
 20
105.889089
 30
0.0
 11
33.389088
 21
105.889089
 31
17.25
 12
34.581337
 22
104.104757
 32
17.25
 13
34.581337
 23
104.104757
 33
0.0
  0
3DFACE
  5
1C7
330
1C1
100
AcDbEntity
  8
1
  6
Continuous
 62
   252
370
    35
100
AcDbFace
 10
31.604759
 20
107.081339
 30
0.0
 11
31.604759
 21
107.081339
 31
17.25
 12
33.389088
 22
105.889089
 32
17.25
 13
33.389088
 23
105.889089
 33
0.0
  0
3DFACE
  5
1C8
330
1C1
100
AcDbEntity
  8
1
  6
Continuous
 62
   252
370
    35
100
AcDbFace
 10
29.5
 20
107.500002
 30
0.0
 11
29.5
 21
107.500002
 31
17.25
 12
31.604759
 22
107.081339
 32
17.25
 13
31.604759
 23
107.081339
 33
0.0
  0
ENDBLK
  5
1C4
330
1C1
100
AcDbEntity
  8
0
100
AcDbBlockEnd
  0
BLOCK
  5
1CB
330
1C9
100
AcDbEntity
  8
0
100
AcDbBlockBegin
  2
UG_SURFACE_041
 70
     0
 10
0.0
 20
0.0
 30
0.0
  3
UG_SURFACE_041
  1

  0
3DFACE
  5
1CD
330
1C9
100
AcDbEntity
  8
1
  6
Continuous
 62
   252
370
    35
100
AcDbFace
 10
35.0
 20
101.999998
 30
17.25
 11
34.581337
 21
104.104757
 31
17.25
 12
31.780977
 22
102.944814
 32
18.999999
 13
31.96891
 23
101.999998
 33
18.999999
  0
3DFACE
  5
1CE
330
1C9
100
AcDbEntity
  8
1
  6
Continuous
 62
   252
370
    35
100
AcDbFace
 10
34.581337
 20
104.104757
 30
17.25
 11
33.389088
 21
105.889089
 31
17.25
 12
31.245783
 22
103.745781
 32
18.999999
 13
31.780977
 23
102.944814
 33
18.999999
  0
3DFACE
  5
1CF
330
1C9
100
AcDbEntity
  8
1
  6
Continuous
 62
   252
370
    35
100
AcDbFace
 10
33.389088
 20
105.889089
 30
17.25
 11
31.604759
 21
107.081339
 31
17.25
 12
30.444812
 22
104.280978
 32
18.999999
 13
31.245783
 23
103.745781
 33
18.999999
  0
3DFACE
  5
1D0
330
1C9
100
AcDbEntity
  8
1
  6
Continuous
 62
   252
370
    35
100
AcDbFace
 10
31.604759
 20
107.081339
 30
17.25
 11
29.5
 21
107.500002
 31
17.25
 12
29.5
 22
104.468912
 32
18.999999
 13
30.444812
 23
104.280978
 33
18.999999
  0
ENDBLK
  5
1CC
330
1C9
100
AcDbEntity
  8
0
100
AcDbBlockEnd
  0
BLOCK
  5
1D3
330
1D1
100
AcDbEntity
  8
0
100
AcDbBlockBegin
  2
UG_SURFACE_042
 70
     0
 10
0.0
 20
0.0
 30
0.0
  3
UG_SURFACE_042
  1

  0
3DFACE
  5
1D5
330
1D1
100
AcDbEntity
  8
1
  6
Continuous
 62
   252
370
    35
100
AcDbFace
 10
34.196202
 20
-94.681248
 30
17.25
 11
31.590674
 21
-93.087815
 31
18.999999
 12
30.513551
 22
-94.699845
 32
18.999999
 13
30.513551
 23
-94.699845
 33
18.999999
  0
3DFACE
  5
1D6
330
1D1
100
AcDbEntity
  8
1
  6
Continuous
 62
   252
370
    35
100
AcDbFace
 10
30.513551
 20
-94.699845
 30
18.999999
 11
32.435816
 21
-96.622109
 31
17.430477
 12
34.196202
 22
-94.681248
 32
17.25
 13
34.196202
 23
-94.681248
 33
17.25
  0
3DFACE
  5
1D7
330
1D1
100
AcDbEntity
  8
1
  6
Continuous
 62
   252
370
    35
100
AcDbFace
 10
34.196202
 20
-94.681248
 30
17.25
 11
34.391038
 21
-94.247758
 31
17.25
 12
31.590674
 22
-93.087815
 32
18.999999
 13
31.590674
 23
-93.087815
 33
18.999999
  0
3DFACE
  5
1D8
330
1D1
100
AcDbEntity
  8
1
  6
Continuous
 62
   252
370
    35
100
AcDbFace
 10
34.391038
 20
-94.247758
 30
17.25
 11
35.0
 21
-91.186292
 31
17.25
 12
31.96891
 22
-91.186292
 32
18.999999
 13
31.590674
 23
-93.087815
 33
18.999999
  0
ENDBLK
  5
1D4
330
1D1
100
AcDbEntity
  8
0
100
AcDbBlockEnd
  0
BLOCK
  5
1DB
330
1D9
100
AcDbEntity
  8
0
100
AcDbBlockBegin
  2
UG_SURFACE_043
 70
     0
 10
0.0
 20
0.0
 30
0.0
  3
UG_SURFACE_043
  1

  0
3DFACE
  5
1DD
330
1D9
100
AcDbEntity
  8
1
  6
Continuous
 62
   252
370
    35
100
AcDbFace
 10
35.0
 20
-91.186292
 30
17.25
 11
35.0
 21
101.999998
 31
17.25
 12
31.96891
 22
101.999998
 32
18.999999
 13
31.96891
 23
-91.186292
 33
18.999999
  0
ENDBLK
  5
1DC
330
1D9
100
AcDbEntity
  8
0
100
AcDbBlockEnd
  0
BLOCK
  5
1E0
330
1DE
100
AcDbEntity
  8
0
100
AcDbBlockBegin
  2
UG_SURFACE_044
 70
     0
 10
0.0
 20
0.0
 30
0.0
  3
UG_SURFACE_044
  1

  0
3DFACE
  5
1E2
330
1DE
100
AcDbEntity
  8
1
  6
Continuous
 62
   252
370
    35
100
AcDbFace
 10
35.0
 20
-91.186292
 30
14.558846
 11
35.0
 21
-91.186292
 31
17.25
 12
34.794021
 22
-92.989959
 32
17.25
 13
34.794021
 23
-92.989959
 33
16.156537
  0
3DFACE
  5
1E3
330
1DE
100
AcDbEntity
  8
1
  6
Continuous
 62
   252
370
    35
100
AcDbFace
 10
34.794021
 20
-92.989959
 30
16.156537
 11
34.794021
 21
-92.989959
 31
17.25
 12
34.196202
 22
-94.681248
 32
17.25
 13
34.196202
 23
-94.681248
 33
17.25
  0
ENDBLK
  5
1E1
330
1DE
100
AcDbEntity
  8
0
100
AcDbBlockEnd
  0
BLOCK
  5
1E6
330
1E4
100
AcDbEntity
  8
0
100
AcDbBlockBegin
  2
UG_SURFACE_045
 70
     0
 10
0.0
 20
0.0
 30
0.0
  3
UG_SURFACE_045
  1

  0
3DFACE
  5
1E8
330
1E4
100
AcDbEntity
  8
1
  6
Continuous
 62
   252
370
    35
100
AcDbFace
 10
35.0
 20
101.999998
 30
17.25
 11
35.0
 21
-91.186292
 31
17.25
 12
35.0
 22
-91.186292
 32
14.558846
 13
35.0
 23
-91.186292
 33
14.558846
  0
3DFACE
  5
1E9
330
1E4
100
AcDbEntity
  8
1
  6
Continuous
 62
   252
370
    35
100
AcDbFace
 10
35.0
 20
-91.186292
 30
14.558846
 11
35.0
 21
-76.627448
 31
0.0
 12
35.0
 22
101.999998
 32
0.0
 13
35.0
 23
101.999998
 33
17.25
  0
ENDBLK
  5
1E7
330
1E4
100
AcDbEntity
  8
0
100
AcDbBlockEnd
  0
ENDSEC
  0
SECTION
  2
ENTITIES
  0
INSERT
  5
74
330
1F
100
AcDbEntity
  8
1
  6
Continuous
 62
   252
370
    35
100
AcDbBlockReference
  2
UG_SURFACE_001
 10
0.0
 20
0.0
 30
0.0
  0
INSERT
  5
7A
330
1F
100
AcDbEntity
  8
1
  6
Continuous
 62
   252
370
    35
100
AcDbBlockReference
  2
UG_SURFACE_002
 10
0.0
 20
0.0
 30
0.0
  0
INSERT
  5
7F
330
1F
100
AcDbEntity
  8
1
  6
Continuous
 62
   252
370
    35
100
AcDbBlockReference
  2
UG_SURFACE_003
 10
0.0
 20
0.0
 30
0.0
  0
INSERT
  5
87
330
1F
100
AcDbEntity
  8
1
  6
Continuous
 62
   252
370
    35
100
AcDbBlockReference
  2
UG_SURFACE_004
 10
0.0
 20
0.0
 30
0.0
  0
INSERT
  5
8F
330
1F
100
AcDbEntity
  8
1
  6
Continuous
 62
   252
370
    35
100
AcDbBlockReference
  2
UG_SURFACE_005
 10
0.0
 20
0.0
 30
0.0
  0
INSERT
  5
97
330
1F
100
AcDbEntity
  8
1
  6
Continuous
 62
   252
370
    35
100
AcDbBlockReference
  2
UG_SURFACE_006
 10
0.0
 20
0.0
 30
0.0
  0
INSERT
  5
9F
330
1F
100
AcDbEntity
  8
1
  6
Continuous
 62
   252
370
    35
100
AcDbBlockReference
  2
UG_SURFACE_007
 10
0.0
 20
0.0
 30
0.0
  0
INSERT
  5
A4
330
1F
100
AcDbEntity
  8
1
  6
Continuous
 62
   252
370
    35
100
AcDbBlockReference
  2
UG_SURFACE_008
 10
0.0
 20
0.0
 30
0.0
  0
INSERT
  5
A9
330
1F
100
AcDbEntity
  8
1
  6
Continuous
 62
   252
370
    35
100
AcDbBlockReference
  2
UG_SURFACE_009
 10
0.0
 20
0.0
 30
0.0
  0
INSERT
  5
B1
330
1F
100
AcDbEntity
  8
1
  6
Continuous
 62
   252
370
    35
100
AcDbBlockReference
  2
UG_SURFACE_010
 10
0.0
 20
0.0
 30
0.0
  0
INSERT
  5
B9
330
1F
100
AcDbEntity
  8
1
  6
Continuous
 62
   252
370
    35
100
AcDbBlockReference
  2
UG_SURFACE_011
 10
0.0
 20
0.0
 30
0.0
  0
INSERT
  5
C1
330
1F
100
AcDbEntity
  8
1
  6
Continuous
 62
   252
370
    35
100
AcDbBlockReference
  2
UG_SURFACE_012
 10
0.0
 20
0.0
 30
0.0
  0
INSERT
  5
C9
330
1F
100
AcDbEntity
  8
1
  6
Continuous
 62
   252
370
    35
100
AcDbBlockReference
  2
UG_SURFACE_013
 10
0.0
 20
0.0
 30
0.0
  0
INSERT
  5
CE
330
1F
100
AcDbEntity
  8
1
  6
Continuous
 62
   252
370
    35
100
AcDbBlockReference
  2
UG_SURFACE_014
 10
0.0
 20
0.0
 30
0.0
  0
INSERT
  5
D3
330
1F
100
AcDbEntity
  8
1
  6
Continuous
 62
   252
370
    35
100
AcDbBlockReference
  2
UG_SURFACE_015
 10
0.0
 20
0.0
 30
0.0
  0
INSERT
  5
D9
330
1F
100
AcDbEntity
  8
1
  6
Continuous
 62
   252
370
    35
100
AcDbBlockReference
  2
UG_SURFACE_016
 10
0.0
 20
0.0
 30
0.0
  0
INSERT
  5
DE
330
1F
100
AcDbEntity
  8
1
  6
Continuous
 62
     6
370
    35
100
AcDbBlockReference
  2
UG_SURFACE_017
 10
0.0
 20
0.0
 30
0.0
  0
INSERT
  5
EC
330
1F
100
AcDbEntity
  8
1
  6
Continuous
 62
   252
370
    35
100
AcDbBlockReference
  2
UG_SURFACE_018
 10
0.0
 20
0.0
 30
0.0
  0
INSERT
  5
10D
330
1F
100
AcDbEntity
  8
1
  6
Continuous
 62
   252
370
    35
100
AcDbBlockReference
  2
UG_SURFACE_019
 10
0.0
 20
0.0
 30
0.0
  0
INSERT
  5
126
330
1F
100
AcDbEntity
  8
1
  6
Continuous
 62
   252
370
    35
100
AcDbBlockReference
  2
UG_SURFACE_020
 10
0.0
 20
0.0
 30
0.0
  0
INSERT
  5
145
330
1F
100
AcDbEntity
  8
1
  6
Continuous
 62
    74
370
    35
100
AcDbBlockReference
  2
UG_SURFACE_021
 10
0.0
 20
0.0
 30
0.0
  0
INSERT
  5
155
330
1F
100
AcDbEntity
  8
1
  6
Continuous
 62
   252
370
    35
100
AcDbBlockReference
  2
UG_SURFACE_022
 10
0.0
 20
0.0
 30
0.0
  0
INSERT
  5
15A
330
1F
100
AcDbEntity
  8
1
  6
Continuous
 62
   252
370
    35
100
AcDbBlockReference
  2
UG_SURFACE_023
 10
0.0
 20
0.0
 30
0.0
  0
INSERT
  5
15F
330
1F
100
AcDbEntity
  8
1
  6
Continuous
 62
   252
370
    35
100
AcDbBlockReference
  2
UG_SURFACE_024
 10
0.0
 20
0.0
 30
0.0
  0
INSERT
  5
164
330
1F
100
AcDbEntity
  8
1
  6
Continuous
 62
   252
370
    35
100
AcDbBlockReference
  2
UG_SURFACE_025
 10
0.0
 20
0.0
 30
0.0
  0
INSERT
  5
169
330
1F
100
AcDbEntity
  8
1
  6
Continuous
 62
   252
370
    35
100
AcDbBlockReference
  2
UG_SURFACE_026
 10
0.0
 20
0.0
 30
0.0
  0
INSERT
  5
16F
330
1F
100
AcDbEntity
  8
1
  6
Continuous
 62
   252
370
    35
100
AcDbBlockReference
  2
UG_SURFACE_027
 10
0.0
 20
0.0
 30
0.0
  0
INSERT
  5
175
330
1F
100
AcDbEntity
  8
1
  6
Continuous
 62
   252
370
    35
100
AcDbBlockReference
  2
UG_SURFACE_028
 10
0.0
 20
0.0
 30
0.0
  0
INSERT
  5
17F
330
1F
100
AcDbEntity
  8
1
  6
Continuous
 62
   252
370
    35
100
AcDbBlockReference
  2
UG_SURFACE_029
 10
0.0
 20
0.0
 30
0.0
  0
INSERT
  5
185
330
1F
100
AcDbEntity
  8
1
  6
Continuous
 62
   252
370
    35
100
AcDbBlockReference
  2
UG_SURFACE_030
 10
0.0
 20
0.0
 30
0.0
  0
INSERT
  5
18D
330
1F
100
AcDbEntity
  8
1
  6
Continuous
 62
   252
370
    35
100
AcDbBlockReference
  2
UG_SURFACE_031
 10
0.0
 20
0.0
 30
0.0
  0
INSERT
  5
192
330
1F
100
AcDbEntity
  8
1
  6
Continuous
 62
   252
370
    35
100
AcDbBlockReference
  2
UG_SURFACE_032
 10
0.0
 20
0.0
 30
0.0
  0
INSERT
  5
197
330
1F
100
AcDbEntity
  8
1
  6
Continuous
 62
   252
370
    35
100
AcDbBlockReference
  2
UG_SURFACE_033
 10
0.0
 20
0.0
 30
0.0
  0
INSERT
  5
19C
330
1F
100
AcDbEntity
  8
1
  6
Continuous
 62
   252
370
    35
100
AcDbBlockReference
  2
UG_SURFACE_034
 10
0.0
 20
0.0
 30
0.0
  0
INSERT
  5
1A4
330
1F
100
AcDbEntity
  8
1
  6
Continuous
 62
   252
370
    35
100
AcDbBlockReference
  2
UG_SURFACE_035
 10
0.0
 20
0.0
 30
0.0
  0
INSERT
  5
1AA
330
1F
100
AcDbEntity
  8
1
  6
Continuous
 62
   252
370
    35
100
AcDbBlockReference
  2
UG_SURFACE_036
 10
0.0
 20
0.0
 30
0.0
  0
INSERT
  5
1B2
330
1F
100
AcDbEntity
  8
1
  6
Continuous
 62
   252
370
    35
100
AcDbBlockReference
  2
UG_SURFACE_037
 10
0.0
 20
0.0
 30
0.0
  0
INSERT
  5
1B8
330
1F
100
AcDbEntity
  8
1
  6
Continuous
 62
   252
370
    35
100
AcDbBlockReference
  2
UG_SURFACE_038
 10
0.0
 20
0.0
 30
0.0
  0
INSERT
  5
1BD
330
1F
100
AcDbEntity
  8
1
  6
Continuous
 62
   252
370
    35
100
AcDbBlockReference
  2
UG_SURFACE_039
 10
0.0
 20
0.0
 30
0.0
  0
INSERT
  5
1C2
330
1F
100
AcDbEntity
  8
1
  6
Continuous
 62
   252
370
    35
100
AcDbBlockReference
  2
UG_SURFACE_040
 10
0.0
 20
0.0
 30
0.0
  0
INSERT
  5
1CA
330
1F
100
AcDbEntity
  8
1
  6
Continuous
 62
   252
370
    35
100
AcDbBlockReference
  2
UG_SURFACE_041
 10
0.0
 20
0.0
 30
0.0
  0
INSERT
  5
1D2
330
1F
100
AcDbEntity
  8
1
  6
Continuous
 62
   252
370
    35
100
AcDbBlockReference
  2
UG_SURFACE_042
 10
0.0
 20
0.0
 30
0.0
  0
INSERT
  5
1DA
330
1F
100
AcDbEntity
  8
1
  6
Continuous
 62
   252
370
    35
100
AcDbBlockReference
  2
UG_SURFACE_043
 10
0.0
 20
0.0
 30
0.0
  0
INSERT
  5
1DF
330
1F
100
AcDbEntity
  8
1
  6
Continuous
 62
   252
370
    35
100
AcDbBlockReference
  2
UG_SURFACE_044
 10
0.0
 20
0.0
 30
0.0
  0
INSERT
  5
1E5
330
1F
100
AcDbEntity
  8
1
  6
Continuous
 62
   252
370
    35
100
AcDbBlockReference
  2
UG_SURFACE_045
 10
0.0
 20
0.0
 30
0.0
  0
ARC
  5
1EA
330
1F
100
AcDbEntity
  8
1
  6
Continuous
 62
   252
370
    35
100
AcDbCircle
 10
22.75
 20
-82.75
 30
-19.0
 40
0.499999999999988
210
0.0
220
0.0
230
-1.0
100
AcDbArc
 50
270.0
 51
0.0
  0
ARC
  5
1EB
330
1F
100
AcDbEntity
  8
1
  6
Continuous
 62
   252
370
    35
100
AcDbCircle
 10
28.5
 20
101.0
 30
-18.9
 40
2.0
210
0.0
220
0.0
230
-1.0
100
AcDbArc
 50
0.0
 51
90.0
  0
LINE
  5
1EC
330
1F
100
AcDbEntity
  8
1
  6
Continuous
 62
   252
370
    35
100
AcDbLine
 10
-30.5
 20
-88.5
 30
18.9
 11
-30.5
 21
101.0
 31
18.9
  0
ARC
  5
1ED
330
1F
100
AcDbEntity
  8
1
  6
Continuous
 62
   252
370
    35
100
AcDbCircle
 10
-17.529185
 20
-84.95
 30
-18.9
 40
5.3
210
0.0
220
0.0
230
-1.0
100
AcDbArc
 50
225.0
 51
270.0
  0
LINE
  5
1EE
330
1F
100
AcDbEntity
  8
1
  6
Continuous
 62
   252
370
    35
100
AcDbLine
 10
17.529185
 20
-90.25
 30
18.9
 11
17.529185
 21
-90.25
 31
19.0
  0
LINE
  5
1EF
330
1F
100
AcDbEntity
  8
1
  6
Continuous
 62
   252
370
    35
100
AcDbLine
 10
28.889087
 20
-81.439087
 30
19.0
 11
28.889087
 21
-81.439087
 31
18.9
  0
ARC
  5
1F0
330
1F
100
AcDbEntity
  8
1
  6
Continuous
 62
   252
370
    35
100
AcDbCircle
 10
25.0
 20
-77.55
 30
19.0
 40
5.5
100
AcDbArc
 50
315.0
 51
0.0
  0
ARC
  5
1F1
330
1F
100
AcDbEntity
  8
1
  6
Continuous
 62
   252
370
    35
100
AcDbCircle
 10
-17.55
 20
-85.0
 30
-19.0
 40
5.5
210
0.0
220
0.0
230
-1.0
100
AcDbArc
 50
225.0
 51
270.0
  0
ARC
  5
1F2
330
1F
100
AcDbEntity
  8
1
  6
Continuous
 62
   252
370
    35
100
AcDbCircle
 10
-28.5
 20
-88.5
 30
19.0
 40
2.0
100
AcDbArc
 50
180.0
 51
270.0
  0
LINE
  5
1F3
330
1F
100
AcDbEntity
  8
1
  6
Continuous
 62
   252
370
    35
100
AcDbLine
 10
-30.5
 20
101.0
 30
19.0
 11
-30.5
 21
101.0
 31
18.9
  0
LINE
  5
1F4
330
1F
100
AcDbEntity
  8
1
  6
Continuous
 62
   252
370
    35
100
AcDbLine
 10
18.686292
 20
-107.5
 30
17.25
 11
18.686292
 21
-104.468911
 31
19.0
  0
LINE
  5
1F5
330
1F
100
AcDbEntity
  8
1
  6
Continuous
 62
   252
370
    35
100
AcDbLine
 10
30.25
 20
100.95
 30
19.0
 11
30.25
 21
100.95
 31
18.9
  0
LINE
  5
1F6
330
1F
100
AcDbEntity
  8
1
  6
Continuous
 62
   252
370
    35
100
AcDbLine
 10
-30.25
 20
-88.45
 30
18.9
 11
-30.25
 21
-88.45
 31
19.0
  0
LINE
  5
1F7
330
1F
100
AcDbEntity
  8
1
  6
Continuous
 62
   252
370
    35
100
AcDbLine
 10
30.513551
 20
-94.699842
 30
19.0
 11
32.435816
 21
-96.622107
 31
17.430477
  0
LINE
  5
1F8
330
1F
100
AcDbEntity
  8
1
  6
Continuous
 62
    74
370
    35
100
AcDbLine
 10
22.75
 20
95.75
 30
19.0
 11
-22.75
 21
95.75
 31
19.0
  0
LINE
  5
1F9
330
1F
100
AcDbEntity
  8
1
  6
Continuous
 62
   252
370
    35
100
AcDbLine
 10
30.25
 20
100.95
 30
18.9
 11
30.25
 21
-77.529185
 31
18.9
  0
LINE
  5
1FA
330
1F
100
AcDbEntity
  8
1
  6
Continuous
 62
   252
370
    35
100
AcDbLine
 10
-29.5
 20
-107.5
 30
17.25
 11
-29.5
 21
-104.468911
 31
19.0
  0
LINE
  5
1FB
330
1F
100
AcDbEntity
  8
1
  6
Continuous
 62
   252
370
    35
100
AcDbLine
 10
-29.5
 20
-104.468911
 30
19.0
 11
18.686292
 21
-104.468911
 31
19.0
  0
LINE
  5
1FC
330
1F
100
AcDbEntity
  8
1
  6
Continuous
 62
   252
370
    35
100
AcDbLine
 10
-28.5
 20
-90.5
 30
18.9
 11
17.55
 21
-90.5
 31
18.9
  0
LINE
  5
1FD
330
1F
100
AcDbEntity
  8
1
  6
Continuous
 62
   252
370
    35
100
AcDbLine
 10
-28.45
 20
-90.25
 30
18.9
 11
17.529185
 21
-90.25
 31
18.9
  0
ARC
  5
1FE
330
1F
100
AcDbEntity
  8
1
  6
Continuous
 62
   252
370
    35
100
AcDbCircle
 10
27.0
 20
-91.186292
 30
17.25
 40
8.0
100
AcDbArc
 50
334.095701
 51
0.0
  0
LINE
  5
1FF
330
1F
100
AcDbEntity
  8
1
  6
Continuous
 62
   252
370
    35
100
AcDbLine
 10
-31.968911
 20
102.0
 30
19.0
 11
-31.968911
 21
-102.0
 31
19.0
  0
ARC
  5
200
330
1F
100
AcDbEntity
  8
1
  6
Continuous
 62
   252
370
    35
100
AcDbCircle
 10
-28.45
 20
100.95
 30
18.9
 40
1.79999999999997
100
AcDbArc
 50
90.0
 51
180.0
  0
ARC
  5
201
330
1F
100
AcDbEntity
  8
1
  6
Continuous
 62
   252
370
    35
100
AcDbCircle
 10
-29.5
 20
102.0
 30
-17.25
 40
5.5
210
0.0
220
0.0
230
-1.0
100
AcDbArc
 50
90.0
 51
180.0
  0
LINE
  5
202
330
1F
100
AcDbEntity
  8
1
  6
Continuous
 62
   252
370
    35
100
AcDbLine
 10
-28.5
 20
103.0
 30
18.9
 11
28.5
 21
103.0
 31
18.9
  0
LINE
  5
203
330
1F
100
AcDbEntity
  8
1
  6
Continuous
 62
     6
370
    35
100
AcDbLine
 10
-29.5
 20
107.5
 30
0.0
 11
29.5
 21
107.5
 31
0.0
  0
LINE
  5
204
330
1F
100
AcDbEntity
  8
1
  6
Continuous
 62
   252
370
    35
100
AcDbLine
 10
-30.5
 20
101.0
 30
18.9
 11
-30.5
 21
101.0
 31
19.0
  0
LINE
  5
205
330
1F
100
AcDbEntity
  8
1
  6
Continuous
 62
     6
370
    35
100
AcDbLine
 10
35.0
 20
102.0
 30
0.0
 11
35.0
 21
-76.627446
 31
0.0
  0
LINE
  5
206
330
1F
100
AcDbEntity
  8
1
  6
Continuous
 62
   252
370
    35
100
AcDbLine
 10
21.439087
 20
-88.889087
 30
19.0
 11
21.439087
 21
-88.889087
 31
18.9
  0
LINE
  5
207
330
1F
100
AcDbEntity
  8
1
  6
Continuous
 62
   252
370
    35
100
AcDbLine
 10
-28.45
 20
-90.25
 30
19.0
 11
17.529185
 21
-90.25
 31
19.0
  0
LINE
  5
208
330
1F
100
AcDbEntity
  8
1
  6
Continuous
 62
   252
370
    35
100
AcDbLine
 10
21.439087
 20
-88.889087
 30
18.9
 11
28.889087
 21
-81.439087
 31
18.9
  0
LINE
  5
209
330
1F
100
AcDbEntity
  8
1
  6
Continuous
 62
   252
370
    35
100
AcDbLine
 10
-30.5
 20
-88.5
 30
18.9
 11
-30.5
 21
-88.5
 31
19.0
  0
ARC
  5
20A
330
1F
100
AcDbEntity
  8
1
  6
Continuous
 62
   252
370
    35
100
AcDbCircle
 10
-21.25
 20
-75.996595
 30
-19.0
 40
1.999999999999945
210
0.0
220
0.0
230
-1.0
100
AcDbArc
 50
180.0
 51
225.0
  0
ARC
  5
20B
330
1F
100
AcDbEntity
  8
1
  6
Continuous
 62
    74
370
    35
100
AcDbCircle
 10
15.996595
 20
-81.25
 30
19.0
 40
2.00000000000005
100
AcDbArc
 50
270.0
 51
315.0
  0
LINE
  5
20C
330
1F
100
AcDbEntity
  8
1
  6
Continuous
 62
   252
370
    35
100
AcDbLine
 10
-22.75
 20
95.75
 30
19.0
 11
22.75
 21
95.75
 31
19.0
  0
LINE
  5
20D
330
1F
100
AcDbEntity
  8
1
  6
Continuous
 62
   252
370
    35
100
AcDbLine
 10
29.5
 20
104.468911
 30
19.0
 11
-29.5
 21
104.468911
 31
19.0
  0
ARC
  5
20E
330
1F
100
AcDbEntity
  8
1
  6
Continuous
 62
   252
370
    35
100
AcDbCircle
 10
28.45
 20
100.95
 30
-18.9
 40
1.79999999999997
210
0.0
220
0.0
230
-1.0
100
AcDbArc
 50
0.0
 51
90.0
  0
LINE
  5
20F
330
1F
100
AcDbEntity
  8
1
  6
Continuous
 62
   252
370
    35
100
AcDbLine
 10
-28.45
 20
-90.25
 30
18.9
 11
-28.45
 21
-90.25
 31
19.0
  0
LINE
  5
210
330
1F
100
AcDbEntity
  8
1
  6
Continuous
 62
   252
370
    35
100
AcDbLine
 10
30.25
 20
100.95
 30
19.0
 11
30.25
 21
-77.529185
 31
19.0
  0
LINE
  5
211
330
1F
100
AcDbEntity
  8
1
  6
Continuous
 62
   252
370
    35
100
AcDbLine
 10
31.968911
 20
102.0
 30
19.0
 11
35.0
 21
102.0
 31
17.25
  0
LINE
  5
212
330
1F
100
AcDbEntity
  8
1
  6
Continuous
 62
    74
370
    35
100
AcDbLine
 10
-22.75
 20
-83.25
 30
19.0
 11
15.996595
 21
-83.25
 31
19.0
  0
LINE
  5
213
330
1F
100
AcDbEntity
  8
1
  6
Continuous
 62
   252
370
    35
100
AcDbLine
 10
35.0
 20
-91.186292
 30
17.25
 11
35.0
 21
102.0
 31
17.25
  0
ARC
  5
214
330
1F
100
AcDbEntity
  8
1
  6
Continuous
 62
   252
370
    35
100
AcDbCircle
 10
-28.45
 20
100.95
 30
-18.9
 40
1.8
210
0.0
220
0.0
230
-1.0
100
AcDbArc
 50
90.0
 51
180.0
  0
LINE
  5
215
330
1F
100
AcDbEntity
  8
1
  6
Continuous
 62
   252
370
    35
100
AcDbLine
 10
30.5
 20
101.0
 30
19.0
 11
30.5
 21
-77.55
 31
19.0
  0
LINE
  5
216
330
1F
100
AcDbEntity
  8
1
  6
Continuous
 62
   252
370
    35
100
AcDbLine
 10
-35.0
 20
102.0
 30
17.25
 11
-31.968911
 21
102.0
 31
19.0
  0
LINE
  5
217
330
1F
100
AcDbEntity
  8
1
  6
Continuous
 62
   252
370
    35
100
AcDbLine
 10
35.0
 20
-91.186292
 30
17.25
 11
35.0
 21
-91.186292
 31
14.558846
  0
ARC
  5
218
330
1F
100
AcDbEntity
  8
1
  6
Continuous
 62
   252
370
    35
100
AcDbCircle
 10
22.75
 20
95.25
 30
-19.0
 40
0.5
210
0.0
220
0.0
230
-1.0
100
AcDbArc
 50
0.0
 51
90.0
  0
LINE
  5
219
330
1F
100
AcDbEntity
  8
1
  6
Continuous
 62
   252
370
    35
100
AcDbLine
 10
-29.5
 20
104.468911
 30
19.0
 11
-29.5
 21
107.5
 31
17.25
  0
ARC
  5
21A
330
1F
100
AcDbEntity
  8
1
  6
Continuous
 62
   252
370
    35
100
AcDbCircle
 10
28.5
 20
101.0
 30
-19.0
 40
2.0
210
0.0
220
0.0
230
-1.0
100
AcDbArc
 50
0.0
 51
90.0
  0
LINE
  5
21B
330
1F
100
AcDbEntity
  8
1
  6
Continuous
 62
    74
370
    35
100
AcDbLine
 10
23.25
 20
-75.996595
 30
19.0
 11
23.25
 21
95.25
 31
19.0
  0
LINE
  5
21C
330
1F
100
AcDbEntity
  8
1
  6
Continuous
 62
   252
370
    35
100
AcDbLine
 10
-29.5
 20
-107.5
 30
17.25
 11
-29.5
 21
-107.5
 31
0.0
  0
ARC
  5
21D
330
1F
100
AcDbEntity
  8
1
  6
Continuous
 62
   252
370
    35
100
AcDbCircle
 10
25.0
 20
-77.55
 30
18.9
 40
5.5
100
AcDbArc
 50
315.0
 51
0.0
  0
LINE
  5
21E
330
1F
100
AcDbEntity
  8
1
  6
Continuous
 62
   252
370
    35
100
AcDbLine
 10
18.686292
 20
-107.5
 30
17.25
 11
18.686292
 21
-107.5
 31
14.558846
  0
ARC
  5
21F
330
1F
100
AcDbEntity
  8
1
  6
Continuous
 62
   252
370
    35
100
AcDbCircle
 10
-24.95
 20
-77.529185
 30
-19.0
 40
5.3
210
0.0
220
0.0
230
-1.0
100
AcDbArc
 50
180.0
 51
225.0
  0
SPLINE
  5
220
330
1F
100
AcDbEntity
  8
1
  6
Continuous
 62
   252
370
    35
100
AcDbSpline
210
0.5773502691896298
220
-0.5773502691896296
230
-0.5773502691896177
 70
     8
 71
     3
 72
     8
 73
     4
 74
     0
 42
0.000000001
 43
0.0000000001
 40
0.0
 40
0.0
 40
0.0
 40
0.0
 40
1.0
 40
1.0
 40
1.0
 40
1.0
 10
22.18124574876312
 20
-106.6962000254403
 30
17.25000000000008
 10
22.85347695482409
 20
-106.142153373616
 30
17.36818455423672
 10
23.50136022246587
 20
-105.5565627446612
 30
17.43047719292372
 10
24.12210723407123
 20
-104.9358157330558
 30
17.43047719292372
  0
ARC
  5
221
330
1F
100
AcDbEntity
  8
1
  6
Continuous
 62
     6
370
    35
100
AcDbCircle
 10
29.5
 20
-102.0
 30
0.0
 40
5.5
210
0.0
220
0.0
230
-1.0
100
AcDbArc
 50
270.0
 51
0.0
  0
ARC
  5
222
330
1F
100
AcDbEntity
  8
1
  6
Continuous
 62
   252
370
    35
100
AcDbCircle
 10
28.5
 20
-88.5
 30
-19.0
 40
2.0
210
0.0
220
0.0
230
-1.0
100
AcDbArc
 50
270.0
 51
0.0
  0
ARC
  5
223
330
1F
100
AcDbEntity
  8
1
  6
Continuous
 62
   252
370
    35
100
AcDbCircle
 10
-29.5
 20
-102.0
 30
19.0
 40
2.468911086754485
100
AcDbArc
 50
180.0
 51
270.0
  0
LINE
  5
224
330
1F
100
AcDbEntity
  8
1
  6
Continuous
 62
   252
370
    35
100
AcDbLine
 10
28.697666
 20
-81.276851
 30
19.0
 11
21.276851
 21
-88.697666
 31
19.0
  0
LINE
  5
225
330
1F
100
AcDbEntity
  8
1
  6
Continuous
 62
   252
370
    35
100
AcDbLine
 10
-31.968911
 20
-102.0
 30
19.0
 11
-31.968911
 21
102.0
 31
19.0
  0
LINE
  5
226
330
1F
100
AcDbEntity
  8
1
  6
Continuous
 62
   252
370
    35
100
AcDbLine
 10
15.996595
 20
-83.25
 30
19.0
 11
-22.75
 21
-83.25
 31
19.0
  0
ARC
  5
227
330
1F
100
AcDbEntity
  8
1
  6
Continuous
 62
   252
370
    35
100
AcDbCircle
 10
28.5
 20
101.0
 30
18.9
 40
2.0
100
AcDbArc
 50
0.0
 51
90.0
  0
LINE
  5
228
330
1F
100
AcDbEntity
  8
1
  6
Continuous
 62
   252
370
    35
100
AcDbLine
 10
31.968911
 20
-91.186292
 30
19.0
 11
35.0
 21
-91.186292
 31
17.25
  0
LINE
  5
229
330
1F
100
AcDbEntity
  8
1
  6
Continuous
 62
   252
370
    35
100
AcDbLine
 10
4.127446
 20
-107.5
 30
0.0
 11
18.686292
 21
-107.5
 31
14.558846
  0
ARC
  5
22A
330
1F
100
AcDbEntity
  8
1
  6
Continuous
 62
   252
370
    35
100
AcDbCircle
 10
28.45
 20
100.95
 30
-19.0
 40
1.79999999999997
210
0.0
220
0.0
230
-1.0
100
AcDbArc
 50
0.0
 51
90.0
  0
LINE
  5
22B
330
1F
100
AcDbEntity
  8
1
  6
Continuous
 62
   252
370
    35
100
AcDbLine
 10
30.5
 20
101.0
 30
19.0
 11
30.5
 21
101.0
 31
18.9
  0
LINE
  5
22C
330
1F
100
AcDbEntity
  8
1
  6
Continuous
 62
     6
370
    35
100
AcDbLine
 10
-35.0
 20
-102.0
 30
0.0
 11
-35.0
 21
102.0
 31
0.0
  0
LINE
  5
22D
330
1F
100
AcDbEntity
  8
1
  6
Continuous
 62
   252
370
    35
100
AcDbLine
 10
-30.25
 20
100.95
 30
19.0
 11
-30.25
 21
-88.45
 31
19.0
  0
LINE
  5
22E
330
1F
100
AcDbEntity
  8
1
  6
Continuous
 62
   252
370
    35
100
AcDbLine
 10
-28.5
 20
-90.5
 30
19.0
 11
17.55
 21
-90.5
 31
19.0
  0
SPLINE
  5
22F
330
1F
100
AcDbEntity
  8
1
  6
Continuous
 62
   252
370
    35
100
AcDbSpline
210
0.5773502691896182
220
-0.5773502691896182
230
-0.5773502691896408
 70
     8
 71
     3
 72
     8
 73
     4
 74
     0
 42
0.000000001
 43
0.0000000001
 40
0.0
 40
0.0
 40
0.0
 40
0.0
 40
1.0
 40
1.0
 40
1.0
 40
1.0
 10
34.19620002544051
 20
-94.68124574876282
 30
17.24999999999998
 10
33.64215337361617
 20
-95.35347695482379
 30
17.36818455423663
 10
33.05656274466139
 20
-96.0013602224656
 30
17.43047719292364
 10
32.435815733056
 20
-96.622107234071
 30
17.43047719292364
  0
ARC
  5
230
330
1F
100
AcDbEntity
  8
1
  6
Continuous
 62
   252
370
    35
100
AcDbCircle
 10
29.5
 20
-102.0
 30
-17.25
 40
5.5
210
0.0
220
0.0
230
-1.0
100
AcDbArc
 50
270.0
 51
0.0
  0
ARC
  5
231
330
1F
100
AcDbEntity
  8
1
  6
Continuous
 62
   252
370
    35
100
AcDbCircle
 10
-17.55
 20
-85.0
 30
-18.9
 40
5.5
210
0.0
220
0.0
230
-1.0
100
AcDbArc
 50
225.0
 51
270.0
  0
LINE
  5
232
330
1F
100
AcDbEntity
  8
1
  6
Continuous
 62
    74
370
    35
100
AcDbLine
 10
-23.25
 20
95.25
 30
19.0
 11
-23.25
 21
-82.75
 31
19.0
  0
LINE
  5
233
330
1F
100
AcDbEntity
  8
1
  6
Continuous
 62
   252
370
    35
100
AcDbLine
 10
17.55
 20
-90.5
 30
19.0
 11
-28.5
 21
-90.5
 31
19.0
  0
ARC
  5
234
330
1F
100
AcDbEntity
  8
1
  6
Continuous
 62
   252
370
    35
100
AcDbCircle
 10
28.45
 20
-88.45
 30
-18.9
 40
1.8
210
0.0
220
0.0
230
-1.0
100
AcDbArc
 50
270.0
 51
0.0
  0
ARC
  5
235
330
1F
100
AcDbEntity
  8
1
  6
Continuous
 62
   252
370
    35
100
AcDbCircle
 10
-28.5
 20
101.0
 30
18.9
 40
2.0
100
AcDbArc
 50
90.0
 51
180.0
  0
ARC
  5
236
330
1F
100
AcDbEntity
  8
1
  6
Continuous
 62
     6
370
    35
100
AcDbCircle
 10
-29.5
 20
102.0
 30
0.0
 40
5.5
210
0.0
220
0.0
230
-1.0
100
AcDbArc
 50
90.0
 51
180.0
  0
LINE
  5
237
330
1F
100
AcDbEntity
  8
1
  6
Continuous
 62
   252
370
    35
100
AcDbLine
 10
30.5
 20
101.0
 30
18.9
 11
30.5
 21
101.0
 31
19.0
  0
LINE
  5
238
330
1F
100
AcDbEntity
  8
1
  6
Continuous
 62
   252
370
    35
100
AcDbLine
 10
21.276851
 20
-88.697666
 30
19.0
 11
21.276851
 21
-88.697666
 31
18.9
  0
LINE
  5
239
330
1F
100
AcDbEntity
  8
1
  6
Continuous
 62
   252
370
    35
100
AcDbLine
 10
28.45
 20
102.75
 30
18.9
 11
-28.45
 21
102.75
 31
18.9
  0
ARC
  5
23A
330
1F
100
AcDbEntity
  8
1
  6
Continuous
 62
   252
370
    35
100
AcDbCircle
 10
-28.5
 20
101.0
 30
-18.9
 40
2.0
210
0.0
220
0.0
230
-1.0
100
AcDbArc
 50
90.0
 51
180.0
  0
LINE
  5
23B
330
1F
100
AcDbEntity
  8
1
  6
Continuous
 62
   252
370
    35
100
AcDbLine
 10
29.5
 20
107.5
 30
0.0
 11
-29.5
 21
107.5
 31
0.0
  0
LINE
  5
23C
330
1F
100
AcDbEntity
  8
1
  6
Continuous
 62
   252
370
    35
100
AcDbLine
 10
21.276851
 20
-88.697666
 30
18.9
 11
21.276851
 21
-88.697666
 31
19.0
  0
ARC
  5
23D
330
1F
100
AcDbEntity
  8
1
  6
Continuous
 62
   252
370
    35
100
AcDbCircle
 10
-28.5
 20
101.0
 30
-19.0
 40
2.0
210
0.0
220
0.0
230
-1.0
100
AcDbArc
 50
90.0
 51
180.0
  0
ARC
  5
23E
330
1F
100
AcDbEntity
  8
1
  6
Continuous
 62
   252
370
    35
100
AcDbCircle
 10
28.45
 20
100.95
 30
19.0
 40
1.8
100
AcDbArc
 50
0.0
 51
90.0
  0
LINE
  5
23F
330
1F
100
AcDbEntity
  8
1
  6
Continuous
 62
   252
370
    35
100
AcDbLine
 10
30.5
 20
-77.55
 30
18.9
 11
30.5
 21
-77.55
 31
19.0
  0
LINE
  5
240
330
1F
100
AcDbEntity
  8
1
  6
Continuous
 62
   252
370
    35
100
AcDbLine
 10
21.439087
 20
-88.889087
 30
18.9
 11
21.439087
 21
-88.889087
 31
19.0
  0
LINE
  5
241
330
1F
100
AcDbEntity
  8
1
  6
Continuous
 62
   252
370
    35
100
AcDbLine
 10
22.199842
 20
-103.013551
 30
19.0
 11
24.122107
 21
-104.935816
 31
17.430477
  0
LINE
  5
242
330
1F
100
AcDbEntity
  8
1
  6
Continuous
 62
   252
370
    35
100
AcDbLine
 10
-35.0
 20
-102.0
 30
17.25
 11
-35.0
 21
-102.0
 31
0.0
  0
LINE
  5
243
330
1F
100
AcDbEntity
  8
1
  6
Continuous
 62
   252
370
    35
100
AcDbLine
 10
31.968911
 20
-91.186292
 30
19.0
 11
31.968911
 21
102.0
 31
19.0
  0
ARC
  5
244
330
1F
100
AcDbEntity
  8
1
  6
Continuous
 62
   252
370
    35
100
AcDbCircle
 10
-29.5
 20
102.0
 30
17.25
 40
5.500000000000459
100
AcDbArc
 50
90.0
 51
180.0
  0
ARC
  5
245
330
1F
100
AcDbEntity
  8
1
  6
Continuous
 62
   252
370
    35
100
AcDbCircle
 10
17.55
 20
-85.0
 30
18.9
 40
5.5
100
AcDbArc
 50
270.0
 51
315.0
  0
LINE
  5
246
330
1F
100
AcDbEntity
  8
1
  6
Continuous
 62
   252
370
    35
100
AcDbLine
 10
29.5
 20
107.5
 30
17.25
 11
-29.5
 21
107.5
 31
17.25
  0
ARC
  5
247
330
1F
100
AcDbEntity
  8
1
  6
Continuous
 62
   252
370
    35
100
AcDbCircle
 10
29.5
 20
102.0
 30
19.0
 40
2.46891108675447
100
AcDbArc
 50
0.0
 51
90.0
  0
ARC
  5
248
330
1F
100
AcDbEntity
  8
1
  6
Continuous
 62
   252
370
    35
100
AcDbCircle
 10
-28.5
 20
101.0
 30
19.0
 40
2.0
100
AcDbArc
 50
90.0
 51
180.0
  0
LINE
  5
249
330
1F
100
AcDbEntity
  8
1
  6
Continuous
 62
   252
370
    35
100
AcDbLine
 10
35.0
 20
-91.186292
 30
14.558846
 11
35.0
 21
-76.627446
 31
0.0
  0
ARC
  5
24A
330
1F
100
AcDbEntity
  8
1
  6
Continuous
 62
   252
370
    35
100
AcDbCircle
 10
-27.0
 20
-91.186292
 30
-17.25
 40
8.0
210
0.0
220
0.0
230
-1.0
100
AcDbArc
 50
180.0
 51
205.904299
  0
LINE
  5
24B
330
1F
100
AcDbEntity
  8
1
  6
Continuous
 62
   252
370
    35
100
AcDbLine
 10
-23.25
 20
-82.75
 30
19.0
 11
-23.25
 21
95.25
 31
19.0
  0
ARC
  5
24C
330
1F
100
AcDbEntity
  8
1
  6
Continuous
 62
   252
370
    35
100
AcDbCircle
 10
-27.0
 20
-91.186292
 30
-19.0
 40
4.968911086754471
210
0.0
220
0.0
230
-1.0
100
AcDbArc
 50
180.0
 51
225.0
  0
LINE
  5
24D
330
1F
100
AcDbEntity
  8
1
  6
Continuous
 62
     6
370
    35
100
AcDbLine
 10
4.127446
 20
-107.5
 30
0.0
 11
-29.5
 21
-107.5
 31
0.0
  0
ARC
  5
24E
330
1F
100
AcDbEntity
  8
1
  6
Continuous
 62
   252
370
    35
100
AcDbCircle
 10
-15.996595
 20
-81.25
 30
-19.0
 40
2.00000000000005
210
0.0
220
0.0
230
-1.0
100
AcDbArc
 50
225.0
 51
270.0
  0
ARC
  5
24F
330
1F
100
AcDbEntity
  8
1
  6
Continuous
 62
   252
370
    35
100
AcDbCircle
 10
-24.95
 20
-77.529185
 30
-18.9
 40
5.3
210
0.0
220
0.0
230
-1.0
100
AcDbArc
 50
180.0
 51
225.0
  0
LINE
  5
250
330
1F
100
AcDbEntity
  8
1
  6
Continuous
 62
   252
370
    35
100
AcDbLine
 10
-30.25
 20
-88.45
 30
18.9
 11
-30.25
 21
100.95
 31
18.9
  0
LINE
  5
251
330
1F
100
AcDbEntity
  8
1
  6
Continuous
 62
   252
370
    35
100
AcDbLine
 10
-35.0
 20
102.0
 30
0.0
 11
-35.0
 21
102.0
 31
17.25
  0
LINE
  5
252
330
1F
100
AcDbEntity
  8
1
  6
Continuous
 62
   252
370
    35
100
AcDbLine
 10
28.5
 20
103.0
 30
18.9
 11
28.5
 21
103.0
 31
19.0
  0
LINE
  5
253
330
1F
100
AcDbEntity
  8
1
  6
Continuous
 62
   252
370
    35
100
AcDbLine
 10
-30.25
 20
100.95
 30
18.9
 11
-30.25
 21
-88.45
 31
18.9
  0
LINE
  5
254
330
1F
100
AcDbEntity
  8
1
  6
Continuous
 62
   252
370
    35
100
AcDbLine
 10
-35.0
 20
102.0
 30
0.0
 11
-35.0
 21
-102.0
 31
0.0
  0
LINE
  5
255
330
1F
100
AcDbEntity
  8
1
  6
Continuous
 62
   252
370
    35
100
AcDbLine
 10
18.686292
 20
-107.5
 30
14.558846
 11
4.127446
 21
-107.5
 31
0.0
  0
LINE
  5
256
330
1F
100
AcDbEntity
  8
1
  6
Continuous
 62
   252
370
    35
100
AcDbLine
 10
-29.5
 20
104.468911
 30
19.0
 11
29.5
 21
104.468911
 31
19.0
  0
LINE
  5
257
330
1F
100
AcDbEntity
  8
1
  6
Continuous
 62
   252
370
    35
100
AcDbLine
 10
-35.0
 20
-102.0
 30
0.0
 11
-35.0
 21
-102.0
 31
17.25
  0
LINE
  5
258
330
1F
100
AcDbEntity
  8
1
  6
Continuous
 62
   252
370
    35
100
AcDbLine
 10
28.45
 20
102.75
 30
19.0
 11
-28.45
 21
102.75
 31
19.0
  0
ELLIPSE
  5
259
330
1F
100
AcDbEntity
  8
1
  6
Continuous
 62
   252
370
    35
100
AcDbEllipse
 10
27.0
 20
-91.186292
 30
6.558846
 11
-5.656854249492381
 21
5.656854249492381
 31
-11.31370849898476
210
-0.5773502691896258
220
0.5773502691896258
230
0.5773502691896258
 40
0.57735
 41
3.474875510709406
 42
3.926990816987241
  0
LINE
  5
25A
330
1F
100
AcDbEntity
  8
1
  6
Continuous
 62
   252
370
    35
100
AcDbLine
 10
18.686292
 20
-104.468911
 30
19.0
 11
-29.5
 21
-104.468911
 31
19.0
  0
LINE
  5
25B
330
1F
100
AcDbEntity
  8
1
  6
Continuous
 62
   252
370
    35
100
AcDbLine
 10
22.199842
 20
-103.013551
 30
19.0
 11
30.513551
 21
-94.699842
 31
19.0
  0
LINE
  5
25C
330
1F
100
AcDbEntity
  8
1
  6
Continuous
 62
   252
370
    35
100
AcDbLine
 10
32.435816
 20
-96.622107
 30
17.430477
 11
30.513551
 21
-94.699842
 31
19.0
  0
LINE
  5
25D
330
1F
100
AcDbEntity
  8
1
  6
Continuous
 62
   252
370
    35
100
AcDbLine
 10
28.5
 20
103.0
 30
19.0
 11
-28.5
 21
103.0
 31
19.0
  0
ARC
  5
25E
330
1F
100
AcDbEntity
  8
1
  6
Continuous
 62
    74
370
    35
100
AcDbCircle
 10
-22.75
 20
-82.75
 30
19.0
 40
0.499999999999988
100
AcDbArc
 50
180.0
 51
270.0
  0
LINE
  5
25F
330
1F
100
AcDbEntity
  8
1
  6
Continuous
 62
   252
370
    35
100
AcDbLine
 10
-31.968911
 20
-102.0
 30
19.0
 11
-35.0
 21
-102.0
 31
17.25
  0
LINE
  5
260
330
1F
100
AcDbEntity
  8
1
  6
Continuous
 62
   252
370
    35
100
AcDbLine
 10
29.5
 20
104.468911
 30
19.0
 11
29.5
 21
107.5
 31
17.25
  0
LINE
  5
261
330
1F
100
AcDbEntity
  8
1
  6
Continuous
 62
   252
370
    35
100
AcDbLine
 10
24.122107
 20
-104.935816
 30
17.430477
 11
22.199842
 21
-103.013551
 31
19.0
  0
LINE
  5
262
330
1F
100
AcDbEntity
  8
1
  6
Continuous
 62
   252
370
    35
100
AcDbLine
 10
-29.5
 20
107.5
 30
0.0
 11
-29.5
 21
107.5
 31
17.25
  0
ARC
  5
263
330
1F
100
AcDbEntity
  8
1
  6
Continuous
 62
     6
370
    35
100
AcDbCircle
 10
29.5
 20
102.0
 30
0.0
 40
5.500000000000459
210
0.0
220
0.0
230
-1.0
100
AcDbArc
 50
0.0
 51
90.0
  0
LINE
  5
264
330
1F
100
AcDbEntity
  8
1
  6
Continuous
 62
   252
370
    35
100
AcDbLine
 10
35.0
 20
102.0
 30
17.25
 11
31.968911
 21
102.0
 31
19.0
  0
LINE
  5
265
330
1F
100
AcDbEntity
  8
1
  6
Continuous
 62
   252
370
    35
100
AcDbLine
 10
28.45
 20
102.75
 30
18.9
 11
28.45
 21
102.75
 31
19.0
  0
ARC
  5
266
330
1F
100
AcDbEntity
  8
1
  6
Continuous
 62
   252
370
    35
100
AcDbCircle
 10
18.686292
 20
-99.5
 30
19.0
 40
4.968911086754471
100
AcDbArc
 50
270.0
 51
315.0
  0
LINE
  5
267
330
1F
100
AcDbEntity
  8
1
  6
Continuous
 62
   252
370
    35
100
AcDbLine
 10
23.25
 20
95.25
 30
19.0
 11
23.25
 21
-75.996595
 31
19.0
  0
LINE
  5
268
330
1F
100
AcDbEntity
  8
1
  6
Continuous
 62
   252
370
    35
100
AcDbLine
 10
-29.5
 20
-104.468911
 30
19.0
 11
-29.5
 21
-107.5
 31
17.25
  0
LINE
  5
269
330
1F
100
AcDbEntity
  8
1
  6
Continuous
 62
   252
370
    35
100
AcDbLine
 10
-31.968911
 20
102.0
 30
19.0
 11
-35.0
 21
102.0
 31
17.25
  0
ARC
  5
26A
330
1F
100
AcDbEntity
  8
1
  6
Continuous
 62
   252
370
    35
100
AcDbCircle
 10
24.95
 20
-77.529185
 30
18.9
 40
5.3
100
AcDbArc
 50
315.0
 51
0.0
  0
LINE
  5
26B
330
1F
100
AcDbEntity
  8
1
  6
Continuous
 62
   252
370
    35
100
AcDbLine
 10
31.968911
 20
102.0
 30
19.0
 11
31.968911
 21
-91.186292
 31
19.0
  0
LINE
  5
26C
330
1F
100
AcDbEntity
  8
1
  6
Continuous
 62
   252
370
    35
100
AcDbLine
 10
-35.0
 20
102.0
 30
17.25
 11
-35.0
 21
102.0
 31
0.0
  0
LINE
  5
26D
330
1F
100
AcDbEntity
  8
1
  6
Continuous
 62
   252
370
    35
100
AcDbLine
 10
22.664214
 20
-77.410808
 30
19.0
 11
17.410808
 21
-82.664214
 31
19.0
  0
LINE
  5
26E
330
1F
100
AcDbEntity
  8
1
  6
Continuous
 62
   252
370
    35
100
AcDbLine
 10
-28.45
 20
102.75
 30
19.0
 11
-28.45
 21
102.75
 31
18.9
  0
LINE
  5
26F
330
1F
100
AcDbEntity
  8
1
  6
Continuous
 62
   252
370
    35
100
AcDbLine
 10
35.0
 20
102.0
 30
17.25
 11
35.0
 21
102.0
 31
0.0
  0
LINE
  5
270
330
1F
100
AcDbEntity
  8
1
  6
Continuous
 62
   252
370
    35
100
AcDbLine
 10
-28.45
 20
-90.25
 30
19.0
 11
-28.45
 21
-90.25
 31
18.9
  0
LINE
  5
271
330
1F
100
AcDbEntity
  8
1
  6
Continuous
 62
   252
370
    35
100
AcDbLine
 10
30.513551
 20
-94.699842
 30
19.0
 11
22.199842
 21
-103.013551
 31
19.0
  0
ARC
  5
272
330
1F
100
AcDbEntity
  8
1
  6
Continuous
 62
   252
370
    35
100
AcDbCircle
 10
-29.5
 20
-102.0
 30
17.25
 40
5.5
100
AcDbArc
 50
180.0
 51
270.0
  0
LINE
  5
273
330
1F
100
AcDbEntity
  8
1
  6
Continuous
 62
   252
370
    35
100
AcDbLine
 10
-28.5
 20
103.0
 30
18.9
 11
-28.5
 21
103.0
 31
19.0
  0
ELLIPSE
  5
274
330
1F
100
AcDbEntity
  8
1
  6
Continuous
 62
   252
370
    35
100
AcDbEllipse
 10
18.686292
 20
-99.5
 30
6.558846
 11
-5.656854249492381
 21
5.656854249492381
 31
-11.31370849898476
210
0.5773502691896258
220
-0.5773502691896258
230
-0.5773502691896258
 40
0.57735
 41
3.474875510709384
 42
3.926990816987241
  0
LINE
  5
275
330
1F
100
AcDbEntity
  8
1
  6
Continuous
 62
   252
370
    35
100
AcDbLine
 10
32.435816
 20
-96.622107
 30
17.430477
 11
24.122107
 21
-104.935816
 31
17.430477
  0
ELLIPSE
  5
276
330
1F
100
AcDbEntity
  8
1
  6
Continuous
 62
   252
370
    35
100
AcDbEllipse
 10
27.0
 20
-91.186292
 30
6.558846
 11
-5.656854249492381
 21
5.656854249492381
 31
-11.31370849898476
210
0.5773502691896258
220
-0.5773502691896258
230
-0.5773502691896258
 40
0.57735
 41
2.356194490192345
 42
2.80830979647018
  0
LINE
  5
277
330
1F
100
AcDbEntity
  8
1
  6
Continuous
 62
   252
370
    35
100
AcDbLine
 10
-30.25
 20
100.95
 30
18.9
 11
-30.25
 21
100.95
 31
19.0
  0
LINE
  5
278
330
1F
100
AcDbEntity
  8
1
  6
Continuous
 62
   252
370
    35
100
AcDbLine
 10
-28.45
 20
102.75
 30
18.9
 11
-28.45
 21
102.75
 31
19.0
  0
LINE
  5
279
330
1F
100
AcDbEntity
  8
1
  6
Continuous
 62
   252
370
    35
100
AcDbLine
 10
21.276851
 20
-88.697666
 30
19.0
 11
28.697666
 21
-81.276851
 31
19.0
  0
ARC
  5
27A
330
1F
100
AcDbEntity
  8
1
  6
Continuous
 62
   252
370
    35
100
AcDbCircle
 10
-28.45
 20
-88.45
 30
19.0
 40
1.8
100
AcDbArc
 50
180.0
 51
270.0
  0
SPLINE
  5
27B
330
1F
100
AcDbEntity
  8
1
  6
Continuous
 62
   252
370
    35
100
AcDbSpline
210
0.5773502691896298
220
-0.5773502691896296
230
-0.5773502691896177
 70
     8
 71
     3
 72
     8
 73
     4
 74
     0
 42
0.000000001
 43
0.0000000001
 40
0.0
 40
0.0
 40
0.0
 40
0.0
 40
1.0
 40
1.0
 40
1.0
 40
1.0
 10
24.12210723407123
 20
-104.9358157330558
 30
17.43047719292372
 10
23.50136022246587
 20
-105.5565627446612
 30
17.43047719292372
 10
22.85347695482409
 20
-106.142153373616
 30
17.36818455423672
 10
22.18124574876312
 20
-106.6962000254403
 30
17.25000000000008
  0
LINE
  5
27C
330
1F
100
AcDbEntity
  8
1
  6
Continuous
 62
   252
370
    35
100
AcDbLine
 10
17.55
 20
-90.5
 30
18.9
 11
17.55
 21
-90.5
 31
19.0
  0
LINE
  5
27D
330
1F
100
AcDbEntity
  8
1
  6
Continuous
 62
   252
370
    35
100
AcDbLine
 10
-29.5
 20
-107.5
 30
0.0
 11
-29.5
 21
-107.5
 31
17.25
  0
LINE
  5
27E
330
1F
100
AcDbEntity
  8
1
  6
Continuous
 62
   252
370
    35
100
AcDbLine
 10
35.0
 20
102.0
 30
17.25
 11
35.0
 21
-91.186292
 31
17.25
  0
ARC
  5
27F
330
1F
100
AcDbEntity
  8
1
  6
Continuous
 62
   252
370
    35
100
AcDbCircle
 10
24.95
 20
-77.529185
 30
19.0
 40
5.3
100
AcDbArc
 50
315.0
 51
0.0
  0
LINE
  5
280
330
1F
100
AcDbEntity
  8
1
  6
Continuous
 62
   252
370
    35
100
AcDbLine
 10
28.5
 20
103.0
 30
18.9
 11
-28.5
 21
103.0
 31
18.9
  0
LINE
  5
281
330
1F
100
AcDbEntity
  8
1
  6
Continuous
 62
   252
370
    35
100
AcDbLine
 10
35.0
 20
-91.186292
 30
17.25
 11
31.968911
 21
-91.186292
 31
19.0
  0
ARC
  5
282
330
1F
100
AcDbEntity
  8
1
  6
Continuous
 62
   252
370
    35
100
AcDbCircle
 10
29.5
 20
102.0
 30
17.25
 40
5.5
100
AcDbArc
 50
0.0
 51
90.0
  0
LINE
  5
283
330
1F
100
AcDbEntity
  8
1
  6
Continuous
 62
   252
370
    35
100
AcDbLine
 10
17.55
 20
-90.5
 30
18.9
 11
-28.5
 21
-90.5
 31
18.9
  0
ARC
  5
284
330
1F
100
AcDbEntity
  8
1
  6
Continuous
 62
    74
370
    35
100
AcDbCircle
 10
21.25
 20
-75.996595
 30
19.0
 40
1.999999999999945
100
AcDbArc
 50
315.0
 51
360.0
  0
LINE
  5
285
330
1F
100
AcDbEntity
  8
1
  6
Continuous
 62
   252
370
    35
100
AcDbLine
 10
17.529185
 20
-90.25
 30
18.9
 11
-28.45
 21
-90.25
 31
18.9
  0
LINE
  5
286
330
1F
100
AcDbEntity
  8
1
  6
Continuous
 62
   252
370
    35
100
AcDbLine
 10
-28.5
 20
103.0
 30
19.0
 11
28.5
 21
103.0
 31
19.0
  0
LINE
  5
287
330
1F
100
AcDbEntity
  8
1
  6
Continuous
 62
   252
370
    35
100
AcDbLine
 10
-28.45
 20
102.75
 30
18.9
 11
28.45
 21
102.75
 31
18.9
  0
LINE
  5
288
330
1F
100
AcDbEntity
  8
1
  6
Continuous
 62
   252
370
    35
100
AcDbLine
 10
18.686292
 20
-107.5
 30
14.558846
 11
18.686292
 21
-107.5
 31
17.25
  0
LINE
  5
289
330
1F
100
AcDbEntity
  8
1
  6
Continuous
 62
     6
370
    35
100
AcDbLine
 10
35.0
 20
-76.627446
 30
0.0
 11
4.127446
 21
-107.5
 31
0.0
  0
LINE
  5
28A
330
1F
100
AcDbEntity
  8
1
  6
Continuous
 62
   252
370
    35
100
AcDbLine
 10
4.127446
 20
-107.5
 30
0.0
 11
35.0
 21
-76.627446
 31
0.0
  0
LINE
  5
28B
330
1F
100
AcDbEntity
  8
1
  6
Continuous
 62
   252
370
    35
100
AcDbLine
 10
-30.25
 20
-88.45
 30
19.0
 11
-30.25
 21
-88.45
 31
18.9
  0
ARC
  5
28C
330
1F
100
AcDbEntity
  8
1
  6
Continuous
 62
   252
370
    35
100
AcDbCircle
 10
17.529185
 20
-84.95
 30
19.0
 40
5.3
100
AcDbArc
 50
270.0
 51
315.0
  0
LINE
  5
28D
330
1F
100
AcDbEntity
  8
1
  6
Continuous
 62
   252
370
    35
100
AcDbLine
 10
17.529185
 20
-90.25
 30
19.0
 11
17.529185
 21
-90.25
 31
18.9
  0
LINE
  5
28E
330
1F
100
AcDbEntity
  8
1
  6
Continuous
 62
   252
370
    35
100
AcDbLine
 10
30.25
 20
-77.529185
 30
18.9
 11
30.25
 21
100.95
 31
18.9
  0
ARC
  5
28F
330
1F
100
AcDbEntity
  8
1
  6
Continuous
 62
   252
370
    35
100
AcDbCircle
 10
-29.5
 20
102.0
 30
19.0
 40
2.468911086754925
100
AcDbArc
 50
90.0
 51
180.0
  0
ARC
  5
290
330
1F
100
AcDbEntity
  8
1
  6
Continuous
 62
   252
370
    35
100
AcDbCircle
 10
-28.45
 20
100.95
 30
19.0
 40
1.79999999999997
100
AcDbArc
 50
90.0
 51
180.0
  0
LINE
  5
291
330
1F
100
AcDbEntity
  8
1
  6
Continuous
 62
   252
370
    35
100
AcDbLine
 10
-30.5
 20
-88.5
 30
19.0
 11
-30.5
 21
-88.5
 31
18.9
  0
LINE
  5
292
330
1F
100
AcDbEntity
  8
1
  6
Continuous
 62
   252
370
    35
100
AcDbLine
 10
28.889087
 20
-81.439087
 30
19.0
 11
21.439087
 21
-88.889087
 31
19.0
  0
ARC
  5
293
330
1F
100
AcDbEntity
  8
1
  6
Continuous
 62
   252
370
    35
100
AcDbCircle
 10
-29.5
 20
102.0
 30
-19.0
 40
2.46891108675447
210
0.0
220
0.0
230
-1.0
100
AcDbArc
 50
90.0
 51
180.0
  0
LINE
  5
294
330
1F
100
AcDbEntity
  8
1
  6
Continuous
 62
   252
370
    35
100
AcDbLine
 10
28.889087
 20
-81.439087
 30
18.9
 11
28.889087
 21
-81.439087
 31
19.0
  0
ARC
  5
295
330
1F
100
AcDbEntity
  8
1
  6
Continuous
 62
   252
370
    35
100
AcDbCircle
 10
29.5
 20
102.0
 30
-17.25
 40
5.500000000000459
210
0.0
220
0.0
230
-1.0
100
AcDbArc
 50
0.0
 51
90.0
  0
LINE
  5
296
330
1F
100
AcDbEntity
  8
1
  6
Continuous
 62
   252
370
    35
100
AcDbLine
 10
30.5
 20
101.0
 30
18.9
 11
30.5
 21
-77.55
 31
18.9
  0
ARC
  5
297
330
1F
100
AcDbEntity
  8
1
  6
Continuous
 62
   252
370
    35
100
AcDbCircle
 10
29.5
 20
102.0
 30
0.0
 40
5.5
100
AcDbArc
 50
0.0
 51
90.0
  0
ARC
  5
298
330
1F
100
AcDbEntity
  8
1
  6
Continuous
 62
   252
370
    35
100
AcDbCircle
 10
27.0
 20
-91.186292
 30
19.0
 40
4.968911086754471
100
AcDbArc
 50
315.0
 51
0.0
  0
LINE
  5
299
330
1F
100
AcDbEntity
  8
1
  6
Continuous
 62
   252
370
    35
100
AcDbLine
 10
21.276851
 20
-88.697666
 30
18.9
 11
28.697666
 21
-81.276851
 31
18.9
  0
ARC
  5
29A
330
1F
100
AcDbEntity
  8
1
  6
Continuous
 62
   252
370
    35
100
AcDbCircle
 10
-17.529185
 20
-84.95
 30
-19.0
 40
5.3
210
0.0
220
0.0
230
-1.0
100
AcDbArc
 50
225.0
 51
270.0
  0
LINE
  5
29B
330
1F
100
AcDbEntity
  8
1
  6
Continuous
 62
   252
370
    35
100
AcDbLine
 10
-30.5
 20
101.0
 30
19.0
 11
-30.5
 21
-88.5
 31
19.0
  0
LINE
  5
29C
330
1F
100
AcDbEntity
  8
1
  6
Continuous
 62
    74
370
    35
100
AcDbLine
 10
17.410808
 20
-82.664214
 30
19.0
 11
22.664214
 21
-77.410808
 31
19.0
  0
ELLIPSE
  5
29D
330
1F
100
AcDbEntity
  8
1
  6
Continuous
 62
   252
370
    35
100
AcDbEllipse
 10
18.686292
 20
-99.5
 30
6.558846
 11
-5.656854249492381
 21
5.656854249492381
 31
-11.31370849898476
210
-0.5773502691896258
220
0.5773502691896258
230
0.5773502691896258
 40
0.57735
 41
2.356194490192345
 42
2.808309796470202
  0
LINE
  5
29E
330
1F
100
AcDbEntity
  8
1
  6
Continuous
 62
   252
370
    35
100
AcDbLine
 10
-29.5
 20
107.5
 30
17.25
 11
29.5
 21
107.5
 31
17.25
  0
LINE
  5
29F
330
1F
100
AcDbEntity
  8
1
  6
Continuous
 62
   252
370
    35
100
AcDbLine
 10
29.5
 20
107.5
 30
17.25
 11
29.5
 21
107.5
 31
0.0
  0
LINE
  5
2A0
330
1F
100
AcDbEntity
  8
1
  6
Continuous
 62
   252
370
    35
100
AcDbLine
 10
-30.5
 20
-88.5
 30
19.0
 11
-30.5
 21
101.0
 31
19.0
  0
ARC
  5
2A1
330
1F
100
AcDbEntity
  8
1
  6
Continuous
 62
   252
370
    35
100
AcDbCircle
 10
-25.0
 20
-77.55
 30
-18.9
 40
5.5
210
0.0
220
0.0
230
-1.0
100
AcDbArc
 50
180.0
 51
225.0
  0
LINE
  5
2A2
330
1F
100
AcDbEntity
  8
1
  6
Continuous
 62
   252
370
    35
100
AcDbLine
 10
30.5
 20
-77.55
 30
19.0
 11
30.5
 21
-77.55
 31
18.9
  0
LINE
  5
2A3
330
1F
100
AcDbEntity
  8
1
  6
Continuous
 62
   252
370
    35
100
AcDbLine
 10
-29.5
 20
-107.5
 30
17.25
 11
18.686292
 21
-107.5
 31
17.25
  0
LINE
  5
2A4
330
1F
100
AcDbEntity
  8
1
  6
Continuous
 62
   252
370
    35
100
AcDbLine
 10
35.0
 20
-76.627446
 30
0.0
 11
35.0
 21
-91.186292
 31
14.558846
  0
LINE
  5
2A5
330
1F
100
AcDbEntity
  8
1
  6
Continuous
 62
   252
370
    35
100
AcDbLine
 10
30.25
 20
-77.529185
 30
18.9
 11
30.25
 21
-77.529185
 31
19.0
  0
LINE
  5
2A6
330
1F
100
AcDbEntity
  8
1
  6
Continuous
 62
   252
370
    35
100
AcDbLine
 10
29.5
 20
107.5
 30
0.0
 11
29.5
 21
107.5
 31
17.25
  0
LINE
  5
2A7
330
1F
100
AcDbEntity
  8
1
  6
Continuous
 62
   252
370
    35
100
AcDbLine
 10
-35.0
 20
-102.0
 30
17.25
 11
-31.968911
 21
-102.0
 31
19.0
  0
ARC
  5
2A8
330
1F
100
AcDbEntity
  8
1
  6
Continuous
 62
   252
370
    35
100
AcDbCircle
 10
-28.45
 20
-88.45
 30
18.9
 40
1.8
100
AcDbArc
 50
180.0
 51
270.0
  0
SPLINE
  5
2A9
330
1F
100
AcDbEntity
  8
1
  6
Continuous
 62
   252
370
    35
100
AcDbSpline
210
0.5773502691896182
220
-0.5773502691896182
230
-0.5773502691896408
 70
     8
 71
     3
 72
     8
 73
     4
 74
     0
 42
0.000000001
 43
0.0000000001
 40
0.0
 40
0.0
 40
0.0
 40
0.0
 40
1.0
 40
1.0
 40
1.0
 40
1.0
 10
32.435815733056
 20
-96.622107234071
 30
17.43047719292364
 10
33.05656274466139
 20
-96.0013602224656
 30
17.43047719292364
 10
33.64215337361617
 20
-95.35347695482379
 30
17.36818455423663
 10
34.19620002544051
 20
-94.68124574876282
 30
17.24999999999998
  0
ARC
  5
2AA
330
1F
100
AcDbEntity
  8
1
  6
Continuous
 62
   252
370
    35
100
AcDbCircle
 10
-22.75
 20
95.25
 30
-19.0
 40
0.5
210
0.0
220
0.0
230
-1.0
100
AcDbArc
 50
90.0
 51
180.0
  0
LINE
  5
2AB
330
1F
100
AcDbEntity
  8
1
  6
Continuous
 62
   252
370
    35
100
AcDbLine
 10
-29.5
 20
107.5
 30
17.25
 11
-29.5
 21
104.468911
 31
19.0
  0
LINE
  5
2AC
330
1F
100
AcDbEntity
  8
1
  6
Continuous
 62
   252
370
    35
100
AcDbLine
 10
-28.45
 20
102.75
 30
19.0
 11
28.45
 21
102.75
 31
19.0
  0
LINE
  5
2AD
330
1F
100
AcDbEntity
  8
1
  6
Continuous
 62
   252
370
    35
100
AcDbLine
 10
-30.5
 20
101.0
 30
18.9
 11
-30.5
 21
-88.5
 31
18.9
  0
LINE
  5
2AE
330
1F
100
AcDbEntity
  8
1
  6
Continuous
 62
   252
370
    35
100
AcDbLine
 10
-30.25
 20
100.95
 30
19.0
 11
-30.25
 21
100.95
 31
18.9
  0
LINE
  5
2AF
330
1F
100
AcDbEntity
  8
1
  6
Continuous
 62
   252
370
    35
100
AcDbLine
 10
-30.25
 20
-88.45
 30
19.0
 11
-30.25
 21
100.95
 31
19.0
  0
ARC
  5
2B0
330
1F
100
AcDbEntity
  8
1
  6
Continuous
 62
   252
370
    35
100
AcDbCircle
 10
-18.686292
 20
-99.5
 30
-19.0
 40
4.968911086754471
210
0.0
220
0.0
230
-1.0
100
AcDbArc
 50
225.0
 51
270.0
  0
LINE
  5
2B1
330
1F
100
AcDbEntity
  8
1
  6
Continuous
 62
   252
370
    35
100
AcDbLine
 10
24.122107
 20
-104.935816
 30
17.430477
 11
32.435816
 21
-96.622107
 31
17.430477
  0
ARC
  5
2B2
330
1F
100
AcDbEntity
  8
1
  6
Continuous
 62
   252
370
    35
100
AcDbCircle
 10
-29.5
 20
102.0
 30
0.0
 40
5.500000000000459
100
AcDbArc
 50
90.0
 51
180.0
  0
ARC
  5
2B3
330
1F
100
AcDbEntity
  8
1
  6
Continuous
 62
    74
370
    35
100
AcDbCircle
 10
-22.75
 20
95.25
 30
19.0
 40
0.5
100
AcDbArc
 50
90.0
 51
180.0
  0
ARC
  5
2B4
330
1F
100
AcDbEntity
  8
1
  6
Continuous
 62
   252
370
    35
100
AcDbCircle
 10
-29.5
 20
-102.0
 30
0.0
 40
5.5
100
AcDbArc
 50
180.0
 51
270.0
  0
LINE
  5
2B5
330
1F
100
AcDbEntity
  8
1
  6
Continuous
 62
   252
370
    35
100
AcDbLine
 10
30.25
 20
-77.529185
 30
19.0
 11
30.25
 21
100.95
 31
19.0
  0
LINE
  5
2B6
330
1F
100
AcDbEntity
  8
1
  6
Continuous
 62
   252
370
    35
100
AcDbLine
 10
-28.5
 20
-90.5
 30
19.0
 11
-28.5
 21
-90.5
 31
18.9
  0
LINE
  5
2B7
330
1F
100
AcDbEntity
  8
1
  6
Continuous
 62
   252
370
    35
100
AcDbLine
 10
28.45
 20
102.75
 30
19.0
 11
28.45
 21
102.75
 31
18.9
  0
ARC
  5
2B8
330
1F
100
AcDbEntity
  8
1
  6
Continuous
 62
   252
370
    35
100
AcDbCircle
 10
-18.686292
 20
-99.5
 30
-17.25
 40
8.0
210
0.0
220
0.0
230
-1.0
100
AcDbArc
 50
244.095701
 51
270.0
  0
LINE
  5
2B9
330
1F
100
AcDbEntity
  8
1
  6
Continuous
 62
   252
370
    35
100
AcDbLine
 10
35.0
 20
-91.186292
 30
14.558846
 11
35.0
 21
-91.186292
 31
17.25
  0
LINE
  5
2BA
330
1F
100
AcDbEntity
  8
1
  6
Continuous
 62
   252
370
    35
100
AcDbLine
 10
30.5
 20
-77.55
 30
19.0
 11
30.5
 21
101.0
 31
19.0
  0
LINE
  5
2BB
330
1F
100
AcDbEntity
  8
1
  6
Continuous
 62
   252
370
    35
100
AcDbLine
 10
29.5
 20
107.5
 30
17.25
 11
29.5
 21
104.468911
 31
19.0
  0
LINE
  5
2BC
330
1F
100
AcDbEntity
  8
1
  6
Continuous
 62
   252
370
    35
100
AcDbLine
 10
21.439087
 20
-88.889087
 30
19.0
 11
28.889087
 21
-81.439087
 31
19.0
  0
LINE
  5
2BD
330
1F
100
AcDbEntity
  8
1
  6
Continuous
 62
   252
370
    35
100
AcDbLine
 10
17.529185
 20
-90.25
 30
19.0
 11
-28.45
 21
-90.25
 31
19.0
  0
LINE
  5
2BE
330
1F
100
AcDbEntity
  8
1
  6
Continuous
 62
   252
370
    35
100
AcDbLine
 10
28.697666
 20
-81.276851
 30
18.9
 11
21.276851
 21
-88.697666
 31
18.9
  0
ARC
  5
2BF
330
1F
100
AcDbEntity
  8
1
  6
Continuous
 62
   252
370
    35
100
AcDbCircle
 10
28.45
 20
-88.45
 30
-19.0
 40
1.8
210
0.0
220
0.0
230
-1.0
100
AcDbArc
 50
270.0
 51
0.0
  0
ARC
  5
2C0
330
1F
100
AcDbEntity
  8
1
  6
Continuous
 62
   252
370
    35
100
AcDbCircle
 10
-28.45
 20
100.95
 30
-19.0
 40
1.8
210
0.0
220
0.0
230
-1.0
100
AcDbArc
 50
90.0
 51
180.0
  0
LINE
  5
2C1
330
1F
100
AcDbEntity
  8
1
  6
Continuous
 62
   252
370
    35
100
AcDbLine
 10
-35.0
 20
102.0
 30
17.25
 11
-35.0
 21
-102.0
 31
17.25
  0
LINE
  5
2C2
330
1F
100
AcDbEntity
  8
1
  6
Continuous
 62
   252
370
    35
100
AcDbLine
 10
-28.5
 20
-90.5
 30
18.9
 11
-28.5
 21
-90.5
 31
19.0
  0
ARC
  5
2C3
330
1F
100
AcDbEntity
  8
1
  6
Continuous
 62
   252
370
    35
100
AcDbCircle
 10
29.5
 20
102.0
 30
-19.0
 40
2.468911086754925
210
0.0
220
0.0
230
-1.0
100
AcDbArc
 50
0.0
 51
90.0
  0
LINE
  5
2C4
330
1F
100
AcDbEntity
  8
1
  6
Continuous
 62
   252
370
    35
100
AcDbLine
 10
28.697666
 20
-81.276851
 30
19.0
 11
28.697666
 21
-81.276851
 31
18.9
  0
LINE
  5
2C5
330
1F
100
AcDbEntity
  8
1
  6
Continuous
 62
   252
370
    35
100
AcDbLine
 10
18.686292
 20
-104.468911
 30
19.0
 11
18.686292
 21
-107.5
 31
17.25
  0
ARC
  5
2C6
330
1F
100
AcDbEntity
  8
1
  6
Continuous
 62
    74
370
    35
100
AcDbCircle
 10
22.75
 20
95.25
 30
19.0
 40
0.5
100
AcDbArc
 50
360.0
 51
90.0
  0
LINE
  5
2C7
330
1F
100
AcDbEntity
  8
1
  6
Continuous
 62
   252
370
    35
100
AcDbLine
 10
17.55
 20
-90.5
 30
19.0
 11
17.55
 21
-90.5
 31
18.9
  0
ARC
  5
2C8
330
1F
100
AcDbEntity
  8
1
  6
Continuous
 62
   252
370
    35
100
AcDbCircle
 10
18.686292
 20
-99.5
 30
17.25
 40
8.0
100
AcDbArc
 50
270.0
 51
295.904299
  0
ARC
  5
2C9
330
1F
100
AcDbEntity
  8
1
  6
Continuous
 62
   252
370
    35
100
AcDbCircle
 10
28.45
 20
100.95
 30
18.9
 40
1.8
100
AcDbArc
 50
0.0
 51
90.0
  0
ARC
  5
2CA
330
1F
100
AcDbEntity
  8
1
  6
Continuous
 62
   252
370
    35
100
AcDbCircle
 10
17.529185
 20
-84.95
 30
18.9
 40
5.3
100
AcDbArc
 50
270.0
 51
315.0
  0
ARC
  5
2CB
330
1F
100
AcDbEntity
  8
1
  6
Continuous
 62
   252
370
    35
100
AcDbCircle
 10
17.55
 20
-85.0
 30
19.0
 40
5.5
100
AcDbArc
 50
270.0
 51
315.0
  0
LINE
  5
2CC
330
1F
100
AcDbEntity
  8
1
  6
Continuous
 62
   252
370
    35
100
AcDbLine
 10
30.25
 20
100.95
 30
18.9
 11
30.25
 21
100.95
 31
19.0
  0
LINE
  5
2CD
330
1F
100
AcDbEntity
  8
1
  6
Continuous
 62
   252
370
    35
100
AcDbLine
 10
30.25
 20
-77.529185
 30
19.0
 11
30.25
 21
-77.529185
 31
18.9
  0
LINE
  5
2CE
330
1F
100
AcDbEntity
  8
1
  6
Continuous
 62
   252
370
    35
100
AcDbLine
 10
18.686292
 20
-107.5
 30
17.25
 11
-29.5
 21
-107.5
 31
17.25
  0
LINE
  5
2CF
330
1F
100
AcDbEntity
  8
1
  6
Continuous
 62
   252
370
    35
100
AcDbLine
 10
-28.5
 20
103.0
 30
19.0
 11
-28.5
 21
103.0
 31
18.9
  0
LINE
  5
2D0
330
1F
100
AcDbEntity
  8
1
  6
Continuous
 62
   252
370
    35
100
AcDbLine
 10
35.0
 20
-76.627446
 30
0.0
 11
35.0
 21
102.0
 31
0.0
  0
LINE
  5
2D1
330
1F
100
AcDbEntity
  8
1
  6
Continuous
 62
   252
370
    35
100
AcDbLine
 10
28.5
 20
103.0
 30
19.0
 11
28.5
 21
103.0
 31
18.9
  0
ARC
  5
2D2
330
1F
100
AcDbEntity
  8
1
  6
Continuous
 62
   252
370
    35
100
AcDbCircle
 10
28.5
 20
101.0
 30
19.0
 40
2.0
100
AcDbArc
 50
0.0
 51
90.0
  0
LINE
  5
2D3
330
1F
100
AcDbEntity
  8
1
  6
Continuous
 62
   252
370
    35
100
AcDbLine
 10
28.889087
 20
-81.439087
 30
18.9
 11
21.439087
 21
-88.889087
 31
18.9
  0
ARC
  5
2D4
330
1F
100
AcDbEntity
  8
1
  6
Continuous
 62
   252
370
    35
100
AcDbCircle
 10
29.5
 20
-102.0
 30
-19.0
 40
2.468911086754485
210
0.0
220
0.0
230
-1.0
100
AcDbArc
 50
270.0
 51
0.0
  0
ARC
  5
2D5
330
1F
100
AcDbEntity
  8
1
  6
Continuous
 62
   252
370
    35
100
AcDbCircle
 10
28.5
 20
-88.5
 30
-18.9
 40
2.0
210
0.0
220
0.0
230
-1.0
100
AcDbArc
 50
270.0
 51
0.0
  0
ARC
  5
2D6
330
1F
100
AcDbEntity
  8
1
  6
Continuous
 62
   252
370
    35
100
AcDbCircle
 10
-25.0
 20
-77.55
 30
-19.0
 40
5.5
210
0.0
220
0.0
230
-1.0
100
AcDbArc
 50
180.0
 51
225.0
  0
LINE
  5
2D7
330
1F
100
AcDbEntity
  8
1
  6
Continuous
 62
   252
370
    35
100
AcDbLine
 10
-29.5
 20
-107.5
 30
0.0
 11
4.127446
 21
-107.5
 31
0.0
  0
LINE
  5
2D8
330
1F
100
AcDbEntity
  8
1
  6
Continuous
 62
   252
370
    35
100
AcDbLine
 10
30.5
 20
-77.55
 30
18.9
 11
30.5
 21
101.0
 31
18.9
  0
LINE
  5
2D9
330
1F
100
AcDbEntity
  8
1
  6
Continuous
 62
   252
370
    35
100
AcDbLine
 10
-35.0
 20
-102.0
 30
17.25
 11
-35.0
 21
102.0
 31
17.25
  0
LINE
  5
2DA
330
1F
100
AcDbEntity
  8
1
  6
Continuous
 62
   252
370
    35
100
AcDbLine
 10
28.697666
 20
-81.276851
 30
18.9
 11
28.697666
 21
-81.276851
 31
19.0
  0
LINE
  5
2DB
330
1F
100
AcDbEntity
  8
1
  6
Continuous
 62
   252
370
    35
100
AcDbLine
 10
-29.5
 20
107.5
 30
17.25
 11
-29.5
 21
107.5
 31
0.0
  0
LINE
  5
2DC
330
1F
100
AcDbEntity
  8
1
  6
Continuous
 62
   252
370
    35
100
AcDbLine
 10
35.0
 20
102.0
 30
0.0
 11
35.0
 21
102.0
 31
17.25
  0
ARC
  5
2DD
330
1F
100
AcDbEntity
  8
1
  6
Continuous
 62
   252
370
    35
100
AcDbCircle
 10
-28.5
 20
-88.5
 30
18.9
 40
2.0
100
AcDbArc
 50
180.0
 51
270.0
  0
ENDSEC
  0
SECTION
  2
OBJECTS
  0
DICTIONARY
  5
C
330
0
100
AcDbDictionary
281
     1
  3
ACAD_DETAILVIEWSTYLE
350
34A
  3
ACAD_GROUP
350
D
  3
ACAD_LAYOUT
350
1A
  3
ACAD_MATERIAL
350
43
  3
ACAD_MLEADERSTYLE
350
6B
  3
ACAD_MLINESTYLE
350
17
  3
ACAD_PLOTSETTINGS
350
19
  3
ACAD_PLOTSTYLENAME
350
E
  3
ACAD_SCALELIST
350
47
  3
ACAD_SECTIONVIEWSTYLE
350
34B
  3
ACAD_TABLESTYLE
350
69
  3
ACAD_VISUALSTYLE
350
2A
  3
ACDB_RECOMPOSE_DATA
350
347
  3
AcDbVariableDictionary
350
307
  0
DICTIONARY
  5
305
330
8
100
AcDbDictionary
280
     1
281
     1
  3
ACAD_XREC_ROUNDTRIP
360
306
  0
DICTIONARY
  5
34A
102
{ACAD_REACTORS
330
C
102
}
330
C
100
AcDbDictionary
281
     1
  0
DICTIONARY
  5
D
102
{ACAD_REACTORS
330
C
102
}
330
C
100
AcDbDictionary
281
     1
  0
DICTIONARY
  5
1A
102
{ACAD_REACTORS
330
C
102
}
330
C
100
AcDbDictionary
281
     1
  3
Layout1
350
1E
  3
Layout2
350
26
  3
Model
350
22
  0
DICTIONARY
  5
43
102
{ACAD_REACTORS
330
C
102
}
330
C
100
AcDbDictionary
281
     1
  3
ByBlock
350
45
  3
ByLayer
350
44
  3
Global
350
46
  0
DICTIONARY
  5
6B
102
{ACAD_REACTORS
330
C
102
}
330
C
100
AcDbDictionary
281
     1
  3
Standard
350
6C
  0
DICTIONARY
  5
17
102
{ACAD_REACTORS
330
C
102
}
330
C
100
AcDbDictionary
281
     1
  3
Standard
350
18
  0
DICTIONARY
  5
19
102
{ACAD_REACTORS
330
C
102
}
330
C
100
AcDbDictionary
281
     1
  0
ACDBDICTIONARYWDFLT
  5
E
102
{ACAD_REACTORS
330
C
102
}
330
C
100
AcDbDictionary
281
     1
  3
Normal
350
F
100
AcDbDictionaryWithDefault
340
F
  0
DICTIONARY
  5
47
102
{ACAD_REACTORS
330
C
102
}
330
C
100
AcDbDictionary
281
     1
  3
A0
350
48
  3
A1
350
49
  3
A2
350
4A
  3
A3
350
4B
  3
A4
350
4C
  3
A5
350
4D
  3
A6
350
4E
  3
A7
350
4F
  3
A8
350
50
  3
A9
350
51
  3
B0
350
52
  3
B1
350
53
  3
B2
350
54
  3
B3
350
55
  3
B4
350
56
  3
B5
350
57
  3
B6
350
58
  3
B7
350
59
  3
B8
350
5A
  3
B9
350
5B
  3
C0
350
5C
  3
C1
350
5D
  3
C2
350
5E
  3
C3
350
5F
  3
C4
350
60
  3
C5
350
61
  3
C6
350
62
  3
C7
350
63
  3
C8
350
64
  3
C9
350
65
  3
D0
350
66
  3
D1
350
67
  3
D2
350
68
  0
DICTIONARY
  5
34B
102
{ACAD_REACTORS
330
C
102
}
330
C
100
AcDbDictionary
281
     1
  0
DICTIONARY
  5
69
102
{ACAD_REACTORS
330
C
102
}
330
C
100
AcDbDictionary
281
     1
  3
Standard
350
6A
  0
DICTIONARY
  5
2A
102
{ACAD_REACTORS
330
C
102
}
330
C
100
AcDbDictionary
281
     1
  3
2dWireframe
350
2F
  3
Basic
350
32
  3
Brighten
350
36
  3
ColorChange
350
3A
  3
Conceptual
350
34
  3
Dim
350
35
  3
EdgeColorOff
350
3D
  3
Facepattern
350
39
  3
Flat
350
2B
  3
FlatWithEdges
350
2C
  3
Gouraud
350
2D
  3
GouraudWithEdges
350
2E
  3
Hidden
350
31
  3
JitterOff
350
3B
  3
Linepattern
350
38
  3
OverhangOff
350
3C
  3
Realistic
350
33
  3
Shaded
350
42
  3
Shaded with edges
350
41
  3
Shades of Gray
350
3E
  3
Sketchy
350
3F
  3
Thicken
350
37
  3
Wireframe
350
30
  3
X-Ray
350
40
  0
XRECORD
  5
347
102
{ACAD_REACTORS
330
C
102
}
330
C
100
AcDbXrecord
280
     1
 90
        1
330
6A
  0
DICTIONARY
  5
307
102
{ACAD_REACTORS
330
C
102
}
330
C
100
AcDbDictionary
281
     1
  3
CANNOSCALE
350
308
  3
CMLEADERSTYLE
350
349
  3
CTABLESTYLE
350
348
  3
MSLTSCALE
350
309
  3
XCLIPFRAME
350
30A
  0
XRECORD
  5
306
102
{ACAD_REACTORS
330
305
102
}
330
305
100
AcDbXrecord
280
     1
102
VTR_0.000_0.000_1.000_1.000_VISUALSTYLE
340
2F
102
VTR_0.000_0.000_1.000_1.000_GRIDDISPLAY
 70
     3
102
VTR_0.000_0.000_1.000_1.000_GRIDMAJOR
 70
     5
102
VTR_0.000_0.000_1.000_1.000_DEFAULTLIGHTING
280
     1
102
VTR_0.000_0.000_1.000_1.000_DEFAULTLIGHTINGTYPE
 70
     1
102
VTR_0.000_0.000_1.000_1.000_BRIGHTNESS
141
0.0
102
VTR_0.000_0.000_1.000_1.000_CONTRAST
142
0.0
102
VTR_0.000_0.000_0.500_1.000_VISUALSTYLE
340
2F
102
VTR_0.000_0.000_0.500_1.000_GRIDDISPLAY
 70
     3
102
VTR_0.000_0.000_0.500_1.000_GRIDMAJOR
 70
     5
102
VTR_0.000_0.000_0.500_1.000_DEFAULTLIGHTING
280
     1
102
VTR_0.000_0.000_0.500_1.000_DEFAULTLIGHTINGTYPE
 70
     1
102
VTR_0.000_0.000_0.500_1.000_BRIGHTNESS
141
0.0
102
VTR_0.000_0.000_0.500_1.000_CONTRAST
142
0.0
102
VTR_0.500_0.000_1.000_1.000_VISUALSTYLE
340
2F
102
VTR_0.500_0.000_1.000_1.000_GRIDDISPLAY
 70
     3
102
VTR_0.500_0.000_1.000_1.000_GRIDMAJOR
 70
     5
102
VTR_0.500_0.000_1.000_1.000_DEFAULTLIGHTING
280
     1
102
VTR_0.500_0.000_1.000_1.000_DEFAULTLIGHTINGTYPE
 70
     1
102
VTR_0.500_0.000_1.000_1.000_BRIGHTNESS
141
0.0
102
VTR_0.500_0.000_1.000_1.000_CONTRAST
142
0.0
102
VTR_0.000_0.500_1.000_1.000_VISUALSTYLE
340
2F
102
VTR_0.000_0.500_1.000_1.000_GRIDDISPLAY
 70
     3
102
VTR_0.000_0.500_1.000_1.000_GRIDMAJOR
 70
     5
102
VTR_0.000_0.500_1.000_1.000_DEFAULTLIGHTING
280
     1
102
VTR_0.000_0.500_1.000_1.000_DEFAULTLIGHTINGTYPE
 70
     1
102
VTR_0.000_0.500_1.000_1.000_BRIGHTNESS
141
0.0
102
VTR_0.000_0.500_1.000_1.000_CONTRAST
142
0.0
102
VTR_0.000_0.000_1.000_0.500_VISUALSTYLE
340
2F
102
VTR_0.000_0.000_1.000_0.500_GRIDDISPLAY
 70
     3
102
VTR_0.000_0.000_1.000_0.500_GRIDMAJOR
 70
     5
102
VTR_0.000_0.000_1.000_0.500_DEFAULTLIGHTING
280
     1
102
VTR_0.000_0.000_1.000_0.500_DEFAULTLIGHTINGTYPE
 70
     1
102
VTR_0.000_0.000_1.000_0.500_BRIGHTNESS
141
0.0
102
VTR_0.000_0.000_1.000_0.500_CONTRAST
142
0.0
102
VTR_0.000_0.500_0.500_1.000_VISUALSTYLE
340
2F
102
VTR_0.000_0.500_0.500_1.000_GRIDDISPLAY
 70
     3
102
VTR_0.000_0.500_0.500_1.000_GRIDMAJOR
 70
     5
102
VTR_0.000_0.500_0.500_1.000_DEFAULTLIGHTING
280
     1
102
VTR_0.000_0.500_0.500_1.000_DEFAULTLIGHTINGTYPE
 70
     1
102
VTR_0.000_0.500_0.500_1.000_BRIGHTNESS
141
0.0
102
VTR_0.000_0.500_0.500_1.000_CONTRAST
142
0.0
102
VTR_0.000_0.000_0.500_0.500_VISUALSTYLE
340
2F
102
VTR_0.000_0.000_0.500_0.500_GRIDDISPLAY
 70
     3
102
VTR_0.000_0.000_0.500_0.500_GRIDMAJOR
 70
     5
102
VTR_0.000_0.000_0.500_0.500_DEFAULTLIGHTING
280
     1
102
VTR_0.000_0.000_0.500_0.500_DEFAULTLIGHTINGTYPE
 70
     1
102
VTR_0.000_0.000_0.500_0.500_BRIGHTNESS
141
0.0
102
VTR_0.000_0.000_0.500_0.500_CONTRAST
142
0.0
102
VTR_0.500_0.000_1.000_0.500_VISUALSTYLE
340
2F
102
VTR_0.500_0.000_1.000_0.500_GRIDDISPLAY
 70
     3
102
VTR_0.500_0.000_1.000_0.500_GRIDMAJOR
 70
     5
102
VTR_0.500_0.000_1.000_0.500_DEFAULTLIGHTING
280
     1
102
VTR_0.500_0.000_1.000_0.500_DEFAULTLIGHTINGTYPE
 70
     1
102
VTR_0.500_0.000_1.000_0.500_BRIGHTNESS
141
0.0
102
VTR_0.500_0.000_1.000_0.500_CONTRAST
142
0.0
102
VTR_0.500_0.500_1.000_1.000_VISUALSTYLE
340
2F
102
VTR_0.500_0.500_1.000_1.000_GRIDDISPLAY
 70
     3
102
VTR_0.500_0.500_1.000_1.000_GRIDMAJOR
 70
     5
102
VTR_0.500_0.500_1.000_1.000_DEFAULTLIGHTING
280
     1
102
VTR_0.500_0.500_1.000_1.000_DEFAULTLIGHTINGTYPE
 70
     1
102
VTR_0.500_0.500_1.000_1.000_BRIGHTNESS
141
0.0
102
VTR_0.500_0.500_1.000_1.000_CONTRAST
142
0.0
102
VTR_0.000_0.500_0.333_1.000_VISUALSTYLE
340
2F
102
VTR_0.000_0.500_0.333_1.000_GRIDDISPLAY
 70
     3
102
VTR_0.000_0.500_0.333_1.000_GRIDMAJOR
 70
     5
102
VTR_0.000_0.500_0.333_1.000_DEFAULTLIGHTING
280
     1
102
VTR_0.000_0.500_0.333_1.000_DEFAULTLIGHTINGTYPE
 70
     1
102
VTR_0.000_0.500_0.333_1.000_BRIGHTNESS
141
0.0
102
VTR_0.000_0.500_0.333_1.000_CONTRAST
142
0.0
102
VTR_0.000_0.000_0.333_0.500_VISUALSTYLE
340
2F
102
VTR_0.000_0.000_0.333_0.500_GRIDDISPLAY
 70
     3
102
VTR_0.000_0.000_0.333_0.500_GRIDMAJOR
 70
     5
102
VTR_0.000_0.000_0.333_0.500_DEFAULTLIGHTING
280
     1
102
VTR_0.000_0.000_0.333_0.500_DEFAULTLIGHTINGTYPE
 70
     1
102
VTR_0.000_0.000_0.333_0.500_BRIGHTNESS
141
0.0
102
VTR_0.000_0.000_0.333_0.500_CONTRAST
142
0.0
102
VTR_0.333_0.500_0.667_1.000_VISUALSTYLE
340
2F
102
VTR_0.333_0.500_0.667_1.000_GRIDDISPLAY
 70
     3
102
VTR_0.333_0.500_0.667_1.000_GRIDMAJOR
 70
     5
102
VTR_0.333_0.500_0.667_1.000_DEFAULTLIGHTING
280
     1
102
VTR_0.333_0.500_0.667_1.000_DEFAULTLIGHTINGTYPE
 70
     1
102
VTR_0.333_0.500_0.667_1.000_BRIGHTNESS
141
0.0
102
VTR_0.333_0.500_0.667_1.000_CONTRAST
142
0.0
102
VTR_0.333_0.000_0.667_0.500_VISUALSTYLE
340
2F
102
VTR_0.333_0.000_0.667_0.500_GRIDDISPLAY
 70
     3
102
VTR_0.333_0.000_0.667_0.500_GRIDMAJOR
 70
     5
102
VTR_0.333_0.000_0.667_0.500_DEFAULTLIGHTING
280
     1
102
VTR_0.333_0.000_0.667_0.500_DEFAULTLIGHTINGTYPE
 70
     1
102
VTR_0.333_0.000_0.667_0.500_BRIGHTNESS
141
0.0
102
VTR_0.333_0.000_0.667_0.500_CONTRAST
142
0.0
102
VTR_0.667_0.500_1.000_1.000_VISUALSTYLE
340
2F
102
VTR_0.667_0.500_1.000_1.000_GRIDDISPLAY
 70
     3
102
VTR_0.667_0.500_1.000_1.000_GRIDMAJOR
 70
     5
102
VTR_0.667_0.500_1.000_1.000_DEFAULTLIGHTING
280
     1
102
VTR_0.667_0.500_1.000_1.000_DEFAULTLIGHTINGTYPE
 70
     1
102
VTR_0.667_0.500_1.000_1.000_BRIGHTNESS
141
0.0
102
VTR_0.667_0.500_1.000_1.000_CONTRAST
142
0.0
102
VTR_0.667_0.000_1.000_0.500_VISUALSTYLE
340
2F
102
VTR_0.667_0.000_1.000_0.500_GRIDDISPLAY
 70
     3
102
VTR_0.667_0.000_1.000_0.500_GRIDMAJOR
 70
     5
102
VTR_0.667_0.000_1.000_0.500_DEFAULTLIGHTING
280
     1
102
VTR_0.667_0.000_1.000_0.500_DEFAULTLIGHTINGTYPE
 70
     1
102
VTR_0.667_0.000_1.000_0.500_BRIGHTNESS
141
0.0
102
VTR_0.667_0.000_1.000_0.500_CONTRAST
142
0.0
  0
LAYOUT
  5
1E
102
{ACAD_REACTORS
330
1A
102
}
330
1A
100
AcDbPlotSettings
  1

  2
none_device
  4

  6

 40
0.0
 41
0.0
 42
0.0
 43
0.0
 44
0.0
 45
0.0
 46
0.0
 47
0.0
 48
0.0
 49
0.0
140
0.0
141
0.0
142
1.0
143
1.0
 70
   688
 72
     0
 73
     0
 74
     5
  7

 75
    16
 76
     0
 77
     2
 78
   300
147
1.0
148
0.0
149
0.0
100
AcDbLayout
  1
Layout1
 70
     1
 71
     1
 10
-0.5
 20
-0.5
 11
5.0
 21
5.0
 12
0.0
 22
0.0
 32
0.0
 14
-0.5
 24
-0.5
 34
-0.5
 15
5.0
 25
5.0
 35
5.0
146
0.0
 13
0.0
 23
0.0
 33
0.0
 16
1.0
 26
0.0
 36
0.0
 17
0.0
 27
1.0
 37
0.0
 76
     0
330
1B
  0
LAYOUT
  5
26
102
{ACAD_REACTORS
330
1A
102
}
330
1A
100
AcDbPlotSettings
  1

  2
none_device
  4

  6

 40
0.0
 41
0.0
 42
0.0
 43
0.0
 44
0.0
 45
0.0
 46
0.0
 47
0.0
 48
0.0
 49
0.0
140
0.0
141
0.0
142
1.0
143
1.0
 70
   688
 72
     0
 73
     0
 74
     5
  7

 75
    16
 76
     0
 77
     2
 78
   300
147
1.0
148
0.0
149
0.0
100
AcDbLayout
  1
Layout2
 70
     1
 71
     2
 10
0.0
 20
0.0
 11
0.0
 21
0.0
 12
0.0
 22
0.0
 32
0.0
 14
0.0
 24
0.0
 34
0.0
 15
0.0
 25
0.0
 35
0.0
146
0.0
 13
0.0
 23
0.0
 33
0.0
 16
1.0
 26
0.0
 36
0.0
 17
0.0
 27
1.0
 37
0.0
 76
     0
330
23
  0
LAYOUT
  5
22
102
{ACAD_REACTORS
330
1A
102
}
330
1A
100
AcDbPlotSettings
  1

  2
none_device
  4
Letter_(8.50_x_11.00_Inches)
  6

 40
6.35
 41
6.35
 42
6.350005
 43
6.350005
 44
215.9
 45
279.4
 46
0.0
 47
0.0
 48
0.0
 49
0.0
140
0.0
141
0.0
142
1.0
143
1.0
 70
  1712
 72
     0
 73
     0
 74
     0
  7

 75
     0
 76
     0
 77
     2
 78
   300
147
1.0
148
0.0
149
0.0
100
AcDbLayout
  1
Model
 70
     1
 71
     0
 10
-0.5
 20
-0.5
 11
5.0
 21
5.0
 12
0.0
 22
0.0
 32
0.0
 14
-0.5
 24
-0.5
 34
-0.5
 15
5.0
 25
5.0
 35
5.0
146
0.0
 13
0.0
 23
0.0
 33
0.0
 16
1.0
 26
0.0
 36
0.0
 17
0.0
 27
1.0
 37
0.0
 76
     0
330
1F
331
29
  0
MATERIAL
  5
45
102
{ACAD_REACTORS
330
43
102
}
102
{ACAD_XDICTIONARY
360
33D
102
}
330
43
100
AcDbMaterial
  1
ByBlock
  0
MATERIAL
  5
44
102
{ACAD_REACTORS
330
43
102
}
102
{ACAD_XDICTIONARY
360
33B
102
}
330
43
100
AcDbMaterial
  1
ByLayer
  0
MATERIAL
  5
46
102
{ACAD_REACTORS
330
43
102
}
102
{ACAD_XDICTIONARY
360
33F
102
}
330
43
100
AcDbMaterial
  1
Global
  0
MLEADERSTYLE
  5
6C
102
{ACAD_REACTORS
330
6B
102
}
102
{ACAD_XDICTIONARY
360
345
102
}
330
6B
100
AcDbMLeaderStyle
170
     2
171
     1
172
     0
 90
        2
 40
0.0
 41
0.0
173
     1
 91
-1056964608
340
14
 92
       -2
290
     1
 42
0.09
291
     1
 43
0.36
  3
Standard
341
0
 44
0.18
300

342
11
174
     1
178
     6
175
     1
176
     0
 93
-1056964608
 45
0.18
292
     0
297
     0
 46
0.18
343
0
 94
-1056964608
 47
1.0
 49
1.0
140
1.0
293
     1
141
0.0
294
     1
177
     0
142
1.0
295
     0
296
     0
143
0.125
1001
ACAD_MLEADERVER
1070
     2
  0
MLINESTYLE
  5
18
102
{ACAD_REACTORS
330
17
102
}
330
17
100
AcDbMlineStyle
  2
Standard
 70
     0
  3

 62
   256
 51
90.0
 52
90.0
 71
     2
 49
0.5
 62
   256
  6
BYLAYER
 49
-0.5
 62
   256
  6
BYLAYER
  0
ACDBPLACEHOLDER
  5
F
102
{ACAD_REACTORS
330
E
102
}
330
E
  0
SCALE
  5
48
102
{ACAD_REACTORS
330
47
102
}
330
47
100
AcDbScale
 70
     0
300
1:1
140
1.0
141
1.0
290
     1
  0
SCALE
  5
49
102
{ACAD_REACTORS
330
47
102
}
330
47
100
AcDbScale
 70
     0
300
1:2
140
1.0
141
2.0
290
     0
  0
SCALE
  5
4A
102
{ACAD_REACTORS
330
47
102
}
330
47
100
AcDbScale
 70
     0
300
1:4
140
1.0
141
4.0
290
     0
  0
SCALE
  5
4B
102
{ACAD_REACTORS
330
47
102
}
330
47
100
AcDbScale
 70
     0
300
1:5
140
1.0
141
5.0
290
     0
  0
SCALE
  5
4C
102
{ACAD_REACTORS
330
47
102
}
330
47
100
AcDbScale
 70
     0
300
1:8
140
1.0
141
8.0
290
     0
  0
SCALE
  5
4D
102
{ACAD_REACTORS
330
47
102
}
330
47
100
AcDbScale
 70
     0
300
1:10
140
1.0
141
10.0
290
     0
  0
SCALE
  5
4E
102
{ACAD_REACTORS
330
47
102
}
330
47
100
AcDbScale
 70
     0
300
1:16
140
1.0
141
16.0
290
     0
  0
SCALE
  5
4F
102
{ACAD_REACTORS
330
47
102
}
330
47
100
AcDbScale
 70
     0
300
1:20
140
1.0
141
20.0
290
     0
  0
SCALE
  5
50
102
{ACAD_REACTORS
330
47
102
}
330
47
100
AcDbScale
 70
     0
300
1:30
140
1.0
141
30.0
290
     0
  0
SCALE
  5
51
102
{ACAD_REACTORS
330
47
102
}
330
47
100
AcDbScale
 70
     0
300
1:40
140
1.0
141
40.0
290
     0
  0
SCALE
  5
52
102
{ACAD_REACTORS
330
47
102
}
330
47
100
AcDbScale
 70
     0
300
1:50
140
1.0
141
50.0
290
     0
  0
SCALE
  5
53
102
{ACAD_REACTORS
330
47
102
}
330
47
100
AcDbScale
 70
     0
300
1:100
140
1.0
141
100.0
290
     0
  0
SCALE
  5
54
102
{ACAD_REACTORS
330
47
102
}
330
47
100
AcDbScale
 70
     0
300
2:1
140
2.0
141
1.0
290
     0
  0
SCALE
  5
55
102
{ACAD_REACTORS
330
47
102
}
330
47
100
AcDbScale
 70
     0
300
4:1
140
4.0
141
1.0
290
     0
  0
SCALE
  5
56
102
{ACAD_REACTORS
330
47
102
}
330
47
100
AcDbScale
 70
     0
300
8:1
140
8.0
141
1.0
290
     0
  0
SCALE
  5
57
102
{ACAD_REACTORS
330
47
102
}
330
47
100
AcDbScale
 70
     0
300
10:1
140
10.0
141
1.0
290
     0
  0
SCALE
  5
58
102
{ACAD_REACTORS
330
47
102
}
330
47
100
AcDbScale
 70
     0
300
100:1
140
100.0
141
1.0
290
     0
  0
SCALE
  5
59
102
{ACAD_REACTORS
330
47
102
}
330
47
100
AcDbScale
 70
     0
300
1/128" = 1'-0"
140
0.007812
141
12.0
290
     0
  0
SCALE
  5
5A
102
{ACAD_REACTORS
330
47
102
}
330
47
100
AcDbScale
 70
     0
300
1/64" = 1'-0"
140
0.015625
141
12.0
290
     0
  0
SCALE
  5
5B
102
{ACAD_REACTORS
330
47
102
}
330
47
100
AcDbScale
 70
     0
300
1/32" = 1'-0"
140
0.03125
141
12.0
290
     0
  0
SCALE
  5
5C
102
{ACAD_REACTORS
330
47
102
}
330
47
100
AcDbScale
 70
     0
300
1/16" = 1'-0"
140
0.0625
141
12.0
290
     0
  0
SCALE
  5
5D
102
{ACAD_REACTORS
330
47
102
}
330
47
100
AcDbScale
 70
     0
300
3/32" = 1'-0"
140
0.09375
141
12.0
290
     0
  0
SCALE
  5
5E
102
{ACAD_REACTORS
330
47
102
}
330
47
100
AcDbScale
 70
     0
300
1/8" = 1'-0"
140
0.125
141
12.0
290
     0
  0
SCALE
  5
5F
102
{ACAD_REACTORS
330
47
102
}
330
47
100
AcDbScale
 70
     0
300
3/16" = 1'-0"
140
0.1875
141
12.0
290
     0
  0
SCALE
  5
60
102
{ACAD_REACTORS
330
47
102
}
330
47
100
AcDbScale
 70
     0
300
1/4" = 1'-0"
140
0.25
141
12.0
290
     0
  0
SCALE
  5
61
102
{ACAD_REACTORS
330
47
102
}
330
47
100
AcDbScale
 70
     0
300
3/8" = 1'-0"
140
0.375
141
12.0
290
     0
  0
SCALE
  5
62
102
{ACAD_REACTORS
330
47
102
}
330
47
100
AcDbScale
 70
     0
300
1/2" = 1'-0"
140
0.5
141
12.0
290
     0
  0
SCALE
  5
63
102
{ACAD_REACTORS
330
47
102
}
330
47
100
AcDbScale
 70
     0
300
3/4" = 1'-0"
140
0.75
141
12.0
290
     0
  0
SCALE
  5
64
102
{ACAD_REACTORS
330
47
102
}
330
47
100
AcDbScale
 70
     0
300
1" = 1'-0"
140
1.0
141
12.0
290
     0
  0
SCALE
  5
65
102
{ACAD_REACTORS
330
47
102
}
330
47
100
AcDbScale
 70
     0
300
1-1/2" = 1'-0"
140
1.5
141
12.0
290
     0
  0
SCALE
  5
66
102
{ACAD_REACTORS
330
47
102
}
330
47
100
AcDbScale
 70
     0
300
3" = 1'-0"
140
3.0
141
12.0
290
     0
  0
SCALE
  5
67
102
{ACAD_REACTORS
330
47
102
}
330
47
100
AcDbScale
 70
     0
300
6" = 1'-0"
140
6.0
141
12.0
290
     0
  0
SCALE
  5
68
102
{ACAD_REACTORS
330
47
102
}
330
47
100
AcDbScale
 70
     0
300
1'-0" = 1'-0"
140
12.0
141
12.0
290
     0
  0
TABLESTYLE
  5
6A
102
{ACAD_REACTORS
330
69
102
}
102
{ACAD_XDICTIONARY
360
341
102
}
330
69
100
AcDbTableStyle
  3
Standard
 70
     0
 71
     0
 40
0.06
 41
0.06
280
     0
281
     0
  7
Standard
140
0.18
170
     2
 62
     0
 63
   257
283
     0
274
    -2
284
     1
 64
     0
275
    -2
285
     1
 65
     0
276
    -2
286
     1
 66
     0
277
    -2
287
     1
 67
     0
278
    -2
288
     1
 68
     0
279
    -2
289
     1
 69
     0
  7
Standard
140
0.25
170
     5
 62
     0
 63
   257
283
     0
274
    -2
284
     1
 64
     0
275
    -2
285
     1
 65
     0
276
    -2
286
     1
 66
     0
277
    -2
287
     1
 67
     0
278
    -2
288
     1
 68
     0
279
    -2
289
     1
 69
     0
  7
Standard
140
0.18
170
     5
 62
     0
 63
   257
283
     0
274
    -2
284
     1
 64
     0
275
    -2
285
     1
 65
     0
276
    -2
286
     1
 66
     0
277
    -2
287
     1
 67
     0
278
    -2
288
     1
 68
     0
279
    -2
289
     1
 69
     0
  0
VISUALSTYLE
  5
2F
102
{ACAD_REACTORS
330
2A
102
}
102
{ACAD_XDICTIONARY
360
313
102
}
330
2A
100
AcDbVisualStyle
  2
2dWireframe
 70
     4
 71
     0
 72
     2
 73
     0
 90
        0
 40
0.6
 41
30.0
 62
     5
 63
     7
421
 16777215
 74
     1
 91
        4
 64
     7
 65
   257
 75
     1
175
     1
 42
1.0
 92
        0
 66
   257
 43
1.0
 76
     1
 77
     6
 78
     2
 67
     7
 79
     5
170
     0
171
     0
290
     0
174
     0
 93
        1
 44
0.0
173
     0
291
     0
 45
0.0
1001
ACAD
1000
AcDbSavedByObjectVersion
1070
     0
  0
VISUALSTYLE
  5
32
102
{ACAD_REACTORS
330
2A
102
}
102
{ACAD_XDICTIONARY
360
319
102
}
330
2A
100
AcDbVisualStyle
  2
Basic
 70
     7
 71
     1
 72
     0
 73
     1
 90
        0
 40
0.6
 41
30.0
 62
     5
 63
     7
421
 16777215
 74
     0
 91
        4
 64
     7
 65
   257
 75
     1
175
     1
 42
1.0
 92
        8
 66
     7
 43
1.0
 76
     1
 77
     6
 78
     2
 67
     7
 79
     5
170
     0
171
     0
290
     0
174
     0
 93
        1
 44
0.0
173
     0
291
     1
 45
0.0
1001
ACAD
1000
AcDbSavedByObjectVersion
1070
     0
  0
VISUALSTYLE
  5
36
102
{ACAD_REACTORS
330
2A
102
}
102
{ACAD_XDICTIONARY
360
321
102
}
330
2A
100
AcDbVisualStyle
  2
Brighten
 70
    12
 71
     2
 72
     2
 73
     0
 90
        0
 40
0.6
 41
30.0
 62
     5
 63
     7
421
 16777215
 74
     1
 91
        4
 64
     7
 65
   257
 75
     1
175
     1
 42
1.0
 92
        8
 66
     7
 43
1.0
 76
     1
 77
     6
 78
     2
 67
     7
 79
     5
170
     0
171
     0
290
     0
174
     0
 93
        1
 44
50.0
173
     0
291
     1
 45
0.0
1001
ACAD
1000
AcDbSavedByObjectVersion
1070
     0
  0
VISUALSTYLE
  5
3A
102
{ACAD_REACTORS
330
2A
102
}
102
{ACAD_XDICTIONARY
360
329
102
}
330
2A
100
AcDbVisualStyle
  2
ColorChange
 70
    16
 71
     2
 72
     2
 73
     3
 90
        0
 40
0.6
 41
30.0
 62
     5
 63
     8
421
  8421504
 74
     1
 91
        4
 64
     7
 65
   257
 75
     1
175
     1
 42
1.0
 92
        8
 66
     8
424
  8421504
 43
1.0
 76
     1
 77
     6
 78
     2
 67
     7
 79
     5
170
     0
171
     0
290
     0
174
     0
 93
        1
 44
0.0
173
     0
291
     1
 45
0.0
1001
ACAD
1000
AcDbSavedByObjectVersion
1070
     0
  0
VISUALSTYLE
  5
34
102
{ACAD_REACTORS
330
2A
102
}
102
{ACAD_XDICTIONARY
360
31D
102
}
330
2A
100
AcDbVisualStyle
  2
Conceptual
 70
     9
 71
     3
 72
     2
 73
     0
 90
        0
 40
0.6
 41
30.0
 62
     5
 63
     7
421
 16777215
 74
     2
 91
        2
 64
     7
 65
   257
 75
     1
175
     1
 42
179.0
 92
        8
 66
     7
 43
1.0
 76
     1
 77
     6
 78
     2
 67
     7
 79
     3
170
     0
171
     0
290
     0
174
     0
 93
        1
 44
0.0
173
     0
291
     0
 45
0.0
1001
ACAD
1000
AcDbSavedByObjectVersion
1070
     0
  0
VISUALSTYLE
  5
35
102
{ACAD_REACTORS
330
2A
102
}
102
{ACAD_XDICTIONARY
360
31F
102
}
330
2A
100
AcDbVisualStyle
  2
Dim
 70
    11
 71
     2
 72
     2
 73
     0
 90
        0
 40
0.6
 41
30.0
 62
     5
 63
     7
421
 16777215
 74
     1
 91
        4
 64
     7
 65
   257
 75
     1
175
     1
 42
1.0
 92
        8
 66
     7
 43
1.0
 76
     1
 77
     6
 78
     2
 67
     7
 79
     5
170
     0
171
     0
290
     0
174
     0
 93
        1
 44
-50.0
173
     0
291
     1
 45
0.0
1001
ACAD
1000
AcDbSavedByObjectVersion
1070
     0
  0
VISUALSTYLE
  5
3D
102
{ACAD_REACTORS
330
2A
102
}
102
{ACAD_XDICTIONARY
360
32F
102
}
330
2A
100
AcDbVisualStyle
  2
EdgeColorOff
 70
    22
 71
     2
 72
     2
 73
     0
 90
        0
 40
0.6
 41
30.0
 62
     5
 63
     7
421
 16777215
 74
     1
 91
        4
 64
     7
 65
   257
 75
     1
175
     1
 42
1.0
 92
        8
 66
     7
 43
1.0
 76
     1
 77
     6
 78
     2
 67
     7
 79
     5
170
     0
171
     0
290
     0
174
     0
 93
        1
 44
0.0
173
     0
291
     1
 45
0.0
1001
ACAD
1000
AcDbSavedByObjectVersion
1070
     0
  0
VISUALSTYLE
  5
39
102
{ACAD_REACTORS
330
2A
102
}
102
{ACAD_XDICTIONARY
360
327
102
}
330
2A
100
AcDbVisualStyle
  2
Facepattern
 70
    15
 71
     2
 72
     2
 73
     0
 90
        0
 40
0.6
 41
30.0
 62
     5
 63
     7
421
 16777215
 74
     1
 91
        4
 64
     7
 65
   257
 75
     1
175
     1
 42
1.0
 92
        8
 66
     7
 43
1.0
 76
     1
 77
     6
 78
     2
 67
     7
 79
     5
170
     0
171
     0
290
     0
174
     0
 93
        1
 44
0.0
173
     0
291
     1
 45
0.0
1001
ACAD
1000
AcDbSavedByObjectVersion
1070
     0
  0
VISUALSTYLE
  5
2B
102
{ACAD_REACTORS
330
2A
102
}
102
{ACAD_XDICTIONARY
360
30B
102
}
330
2A
100
AcDbVisualStyle
  2
Flat
 70
     0
 71
     2
 72
     1
 73
     1
 90
        2
 40
0.6
 41
30.0
 62
     5
 63
     7
421
 16777215
 74
     0
 91
        0
 64
     7
 65
   257
 75
     1
175
     1
 42
1.0
 92
        8
 66
     7
 43
1.0
 76
     1
 77
     6
 78
     2
 67
     7
 79
     5
170
     0
171
     0
290
     0
174
     0
 93
       13
 44
0.0
173
     0
291
     1
 45
0.0
1001
ACAD
1000
AcDbSavedByObjectVersion
1070
     0
  0
VISUALSTYLE
  5
2C
102
{ACAD_REACTORS
330
2A
102
}
102
{ACAD_XDICTIONARY
360
30D
102
}
330
2A
100
AcDbVisualStyle
  2
FlatWithEdges
 70
     1
 71
     2
 72
     1
 73
     1
 90
        2
 40
0.6
 41
30.0
 62
     5
 63
     7
421
 16777215
 74
     1
 91
        0
 64
     7
 65
   257
 75
     1
175
     1
 42
1.0
 92
        0
 66
   257
 43
1.0
 76
     1
 77
     6
 78
     2
 67
     7
 79
     5
170
     0
171
     0
290
     0
174
     0
 93
       13
 44
0.0
173
     0
291
     1
 45
0.0
1001
ACAD
1000
AcDbSavedByObjectVersion
1070
     0
  0
VISUALSTYLE
  5
2D
102
{ACAD_REACTORS
330
2A
102
}
102
{ACAD_XDICTIONARY
360
30F
102
}
330
2A
100
AcDbVisualStyle
  2
Gouraud
 70
     2
 71
     2
 72
     2
 73
     1
 90
        2
 40
0.6
 41
30.0
 62
     5
 63
     7
421
 16777215
 74
     0
 91
        0
 64
     7
 65
   257
 75
     1
175
     1
 42
1.0
 92
        0
 66
     7
 43
1.0
 76
     1
 77
     6
 78
     2
 67
     7
 79
     5
170
     0
171
     0
290
     0
174
     0
 93
       13
 44
0.0
173
     0
291
     1
 45
0.0
1001
ACAD
1000
AcDbSavedByObjectVersion
1070
     0
  0
VISUALSTYLE
  5
2E
102
{ACAD_REACTORS
330
2A
102
}
102
{ACAD_XDICTIONARY
360
311
102
}
330
2A
100
AcDbVisualStyle
  2
GouraudWithEdges
 70
     3
 71
     2
 72
     2
 73
     1
 90
        2
 40
0.6
 41
30.0
 62
     5
 63
     7
421
 16777215
 74
     1
 91
        0
 64
     7
 65
   257
 75
     1
175
     1
 42
1.0
 92
        0
 66
   257
 43
1.0
 76
     1
 77
     6
 78
     2
 67
     7
 79
     5
170
     0
171
     0
290
     0
174
     0
 93
       13
 44
0.0
173
     0
291
     1
 45
0.0
1001
ACAD
1000
AcDbSavedByObjectVersion
1070
     0
  0
VISUALSTYLE
  5
31
102
{ACAD_REACTORS
330
2A
102
}
102
{ACAD_XDICTIONARY
360
317
102
}
330
2A
100
AcDbVisualStyle
  2
Hidden
 70
     6
 71
     1
 72
     2
 73
     2
 90
        0
 40
0.6
 41
30.0
 62
     5
 63
     7
421
 16777215
 74
     2
 91
        2
 64
     7
 65
   257
 75
     2
175
     1
 42
40.0
 92
        0
 66
   257
 43
1.0
 76
     1
 77
     6
 78
     2
 67
     7
 79
     3
170
     0
171
     0
290
     0
174
     0
 93
        1
 44
0.0
173
     0
291
     0
 45
0.0
1001
ACAD
1000
AcDbSavedByObjectVersion
1070
     0
  0
VISUALSTYLE
  5
3B
102
{ACAD_REACTORS
330
2A
102
}
102
{ACAD_XDICTIONARY
360
32B
102
}
330
2A
100
AcDbVisualStyle
  2
JitterOff
 70
    20
 71
     2
 72
     2
 73
     0
 90
        0
 40
0.6
 41
30.0
 62
     5
 63
     7
421
 16777215
 74
     1
 91
        4
 64
     7
 65
   257
 75
     1
175
     1
 42
1.0
 92
       10
 66
     7
 43
1.0
 76
     1
 77
     6
 78
     2
 67
     7
 79
     5
170
     0
171
     0
290
     0
174
     0
 93
        1
 44
0.0
173
     0
291
     1
 45
0.0
1001
ACAD
1000
AcDbSavedByObjectVersion
1070
     0
  0
VISUALSTYLE
  5
38
102
{ACAD_REACTORS
330
2A
102
}
102
{ACAD_XDICTIONARY
360
325
102
}
330
2A
100
AcDbVisualStyle
  2
Linepattern
 70
    14
 71
     2
 72
     2
 73
     0
 90
        0
 40
0.6
 41
30.0
 62
     5
 63
     7
421
 16777215
 74
     1
 91
        4
 64
     7
 65
   257
 75
     7
175
     7
 42
1.0
 92
        8
 66
     7
 43
1.0
 76
     1
 77
     6
 78
     2
 67
     7
 79
     5
170
     0
171
     0
290
     0
174
     0
 93
        1
 44
0.0
173
     0
291
     1
 45
0.0
1001
ACAD
1000
AcDbSavedByObjectVersion
1070
     0
  0
VISUALSTYLE
  5
3C
102
{ACAD_REACTORS
330
2A
102
}
102
{ACAD_XDICTIONARY
360
32D
102
}
330
2A
100
AcDbVisualStyle
  2
OverhangOff
 70
    21
 71
     2
 72
     2
 73
     0
 90
        0
 40
0.6
 41
30.0
 62
     5
 63
     7
421
 16777215
 74
     1
 91
        4
 64
     7
 65
   257
 75
     1
175
     1
 42
1.0
 92
        9
 66
     7
 43
1.0
 76
     1
 77
     6
 78
     2
 67
     7
 79
     5
170
     0
171
     0
290
     0
174
     0
 93
        1
 44
0.0
173
     0
291
     1
 45
0.0
1001
ACAD
1000
AcDbSavedByObjectVersion
1070
     0
  0
VISUALSTYLE
  5
33
102
{ACAD_REACTORS
330
2A
102
}
102
{ACAD_XDICTIONARY
360
31B
102
}
330
2A
100
AcDbVisualStyle
  2
Realistic
 70
     8
 71
     2
 72
     3
 73
     0
 90
        2
 40
0.6
 41
30.0
 62
     5
 63
     7
421
 16777215
 74
     0
 91
        0
 64
     7
 65
   257
 75
     1
175
     1
 42
1.0
 92
        8
 66
   257
 43
1.0
 76
     1
 77
     6
 78
     2
 67
     7
 79
     3
170
     0
171
     0
290
     0
174
     0
 93
       13
 44
0.0
173
     0
291
     0
 45
0.0
1001
ACAD
1000
AcDbSavedByObjectVersion
1070
     0
  0
VISUALSTYLE
  5
42
102
{ACAD_REACTORS
330
2A
102
}
102
{ACAD_XDICTIONARY
360
339
102
}
330
2A
100
AcDbVisualStyle
  2
Shaded
 70
    27
 71
     2
 72
     2
 73
     1
 90
        2
 40
0.6
 41
30.0
 62
     5
 63
     7
421
 16777215
 74
     0
 91
        4
 64
     7
 65
   257
 75
     1
175
     1
 42
1.0
 92
        8
 66
   257
 43
1.0
 76
     1
 77
     6
 78
     2
 67
     8
425
  7895160
 79
     3
170
     0
171
     0
290
     0
174
     0
 93
        5
 44
0.0
173
     0
291
     0
 45
0.0
1001
ACAD
1000
AcDbSavedByObjectVersion
1070
     0
  0
VISUALSTYLE
  5
41
102
{ACAD_REACTORS
330
2A
102
}
102
{ACAD_XDICTIONARY
360
337
102
}
330
2A
100
AcDbVisualStyle
  2
Shaded with edges
 70
    26
 71
     2
 72
     2
 73
     1
 90
        2
 40
0.6
 41
30.0
 62
     5
 63
     7
421
 16777215
 74
     1
 91
       10
 64
     7
 65
   257
 75
     2
175
     1
 42
1.0
 92
        8
 66
   257
 43
1.0
 76
     1
 77
     6
 78
     2
 67
     7
 79
     3
170
     0
171
     0
290
     0
174
     0
 93
        5
 44
0.0
173
     0
291
     0
 45
0.0
1001
ACAD
1000
AcDbSavedByObjectVersion
1070
     0
  0
VISUALSTYLE
  5
3E
102
{ACAD_REACTORS
330
2A
102
}
102
{ACAD_XDICTIONARY
360
331
102
}
330
2A
100
AcDbVisualStyle
  2
Shades of Gray
 70
    23
 71
     2
 72
     2
 73
     3
 90
        0
 40
0.6
 41
30.0
 62
     5
 63
     7
421
 16777215
 74
     2
 91
        2
 64
     7
 65
     7
 75
     1
175
     1
 42
40.0
 92
        8
 66
     7
 43
1.0
 76
     1
 77
     6
 78
     2
 67
     7
 79
     3
170
     0
171
     0
290
     0
174
     0
 93
        1
 44
0.0
173
     0
291
     0
 45
0.0
1001
ACAD
1000
AcDbSavedByObjectVersion
1070
     0
  0
VISUALSTYLE
  5
3F
102
{ACAD_REACTORS
330
2A
102
}
102
{ACAD_XDICTIONARY
360
333
102
}
330
2A
100
AcDbVisualStyle
  2
Sketchy
 70
    24
 71
     1
 72
     2
 73
     2
 90
        0
 40
0.6
 41
30.0
 62
     5
 63
     7
421
 16777215
 74
     2
 91
        2
 64
     7
 65
     7
 75
     1
175
     1
 42
40.0
 92
       11
 66
     7
 43
1.0
 76
     1
 77
     6
 78
     2
 67
     7
 79
     6
170
     0
171
     0
290
     0
174
     0
 93
        1
 44
0.0
173
     0
291
     0
 45
0.0
1001
ACAD
1000
AcDbSavedByObjectVersion
1070
     0
  0
VISUALSTYLE
  5
37
102
{ACAD_REACTORS
330
2A
102
}
102
{ACAD_XDICTIONARY
360
323
102
}
330
2A
100
AcDbVisualStyle
  2
Thicken
 70
    13
 71
     2
 72
     2
 73
     0
 90
        0
 40
0.6
 41
30.0
 62
     5
 63
     7
421
 16777215
 74
     1
 91
        4
 64
     7
 65
   257
 75
     1
175
     1
 42
1.0
 92
       12
 66
     7
 43
1.0
 76
     1
 77
     6
 78
     2
 67
     7
 79
     5
170
     0
171
     0
290
     0
174
     0
 93
        1
 44
0.0
173
     0
291
     1
 45
0.0
1001
ACAD
1000
AcDbSavedByObjectVersion
1070
     0
  0
VISUALSTYLE
  5
30
102
{ACAD_REACTORS
330
2A
102
}
102
{ACAD_XDICTIONARY
360
315
102
}
330
2A
100
AcDbVisualStyle
  2
Wireframe
 70
     5
 71
     0
 72
     2
 73
     0
 90
        0
 40
0.6
 41
30.0
 62
     5
 63
     7
421
 16777215
 74
     1
 91
        4
 64
     7
 65
   257
 75
     1
175
     1
 42
1.0
 92
        0
 66
   257
 43
1.0
 76
     1
 77
     6
 78
     2
 67
     7
 79
     3
170
     0
171
     0
290
     0
174
     0
 93
        1
 44
0.0
173
     0
291
     0
 45
0.0
1001
ACAD
1000
AcDbSavedByObjectVersion
1070
     0
  0
VISUALSTYLE
  5
40
102
{ACAD_REACTORS
330
2A
102
}
102
{ACAD_XDICTIONARY
360
335
102
}
330
2A
100
AcDbVisualStyle
  2
X-Ray
 70
    25
 71
     2
 72
     2
 73
     1
 90
        1
 40
0.5
 41
30.0
 62
     5
 63
     7
421
 16777215
 74
     1
 91
        0
 64
     7
 65
   257
 75
     1
175
     1
 42
1.0
 92
        8
 66
     7
 43
1.0
 76
     1
 77
     6
 78
     2
 67
     7
 79
     3
170
     0
171
     0
290
     0
174
     0
 93
       13
 44
0.0
173
     0
291
     0
 45
0.0
1001
ACAD
1000
AcDbSavedByObjectVersion
1070
     0
  0
DICTIONARYVAR
  5
308
102
{ACAD_REACTORS
330
307
102
}
330
307
100
DictionaryVariables
280
     0
  1
1:1
  0
DICTIONARYVAR
  5
349
102
{ACAD_REACTORS
330
307
102
}
330
307
100
DictionaryVariables
280
     0
  1
Standard
  0
DICTIONARYVAR
  5
348
102
{ACAD_REACTORS
330
307
102
}
330
307
100
DictionaryVariables
280
     0
  1
Standard
  0
DICTIONARYVAR
  5
309
102
{ACAD_REACTORS
330
307
102
}
330
307
100
DictionaryVariables
280
     0
  1
1
  0
DICTIONARYVAR
  5
30A
102
{ACAD_REACTORS
330
307
102
}
330
307
100
DictionaryVariables
280
     0
  1
2
  0
DICTIONARY
  5
33D
330
45
100
AcDbDictionary
280
     1
281
     1
  3
ACAD_XREC_ROUNDTRIP
360
33E
  0
DICTIONARY
  5
33B
330
44
100
AcDbDictionary
280
     1
281
     1
  3
ACAD_XREC_ROUNDTRIP
360
33C
  0
DICTIONARY
  5
33F
330
46
100
AcDbDictionary
280
     1
281
     1
  3
ACAD_XREC_ROUNDTRIP
360
340
  0
DICTIONARY
  5
345
330
6C
100
AcDbDictionary
280
     1
281
     1
  3
ACAD_XREC_ROUNDTRIP
360
346
  0
DICTIONARY
  5
341
330
6A
100
AcDbDictionary
280
     1
281
     1
  3
ACAD_ROUNDTRIP_2008_TABLESTYLE_CELLSTYLEMAP
360
343
  3
ACAD_XREC_ROUNDTRIP
360
342
  0
DICTIONARY
  5
313
330
2F
100
AcDbDictionary
280
     1
281
     1
  3
ACAD_XREC_ROUNDTRIP
360
314
  0
DICTIONARY
  5
319
330
32
100
AcDbDictionary
280
     1
281
     1
  3
ACAD_XREC_ROUNDTRIP
360
31A
  0
DICTIONARY
  5
321
330
36
100
AcDbDictionary
280
     1
281
     1
  3
ACAD_XREC_ROUNDTRIP
360
322
  0
DICTIONARY
  5
329
330
3A
100
AcDbDictionary
280
     1
281
     1
  3
ACAD_XREC_ROUNDTRIP
360
32A
  0
DICTIONARY
  5
31D
330
34
100
AcDbDictionary
280
     1
281
     1
  3
ACAD_XREC_ROUNDTRIP
360
31E
  0
DICTIONARY
  5
31F
330
35
100
AcDbDictionary
280
     1
281
     1
  3
ACAD_XREC_ROUNDTRIP
360
320
  0
DICTIONARY
  5
32F
330
3D
100
AcDbDictionary
280
     1
281
     1
  3
ACAD_XREC_ROUNDTRIP
360
330
  0
DICTIONARY
  5
327
330
39
100
AcDbDictionary
280
     1
281
     1
  3
ACAD_XREC_ROUNDTRIP
360
328
  0
DICTIONARY
  5
30B
330
2B
100
AcDbDictionary
280
     1
281
     1
  3
ACAD_XREC_ROUNDTRIP
360
30C
  0
DICTIONARY
  5
30D
330
2C
100
AcDbDictionary
280
     1
281
     1
  3
ACAD_XREC_ROUNDTRIP
360
30E
  0
DICTIONARY
  5
30F
330
2D
100
AcDbDictionary
280
     1
281
     1
  3
ACAD_XREC_ROUNDTRIP
360
310
  0
DICTIONARY
  5
311
330
2E
100
AcDbDictionary
280
     1
281
     1
  3
ACAD_XREC_ROUNDTRIP
360
312
  0
DICTIONARY
  5
317
330
31
100
AcDbDictionary
280
     1
281
     1
  3
ACAD_XREC_ROUNDTRIP
360
318
  0
DICTIONARY
  5
32B
330
3B
100
AcDbDictionary
280
     1
281
     1
  3
ACAD_XREC_ROUNDTRIP
360
32C
  0
DICTIONARY
  5
325
330
38
100
AcDbDictionary
280
     1
281
     1
  3
ACAD_XREC_ROUNDTRIP
360
326
  0
DICTIONARY
  5
32D
330
3C
100
AcDbDictionary
280
     1
281
     1
  3
ACAD_XREC_ROUNDTRIP
360
32E
  0
DICTIONARY
  5
31B
330
33
100
AcDbDictionary
280
     1
281
     1
  3
ACAD_XREC_ROUNDTRIP
360
31C
  0
DICTIONARY
  5
339
330
42
100
AcDbDictionary
280
     1
281
     1
  3
ACAD_XREC_ROUNDTRIP
360
33A
  0
DICTIONARY
  5
337
330
41
100
AcDbDictionary
280
     1
281
     1
  3
ACAD_XREC_ROUNDTRIP
360
338
  0
DICTIONARY
  5
331
330
3E
100
AcDbDictionary
280
     1
281
     1
  3
ACAD_XREC_ROUNDTRIP
360
332
  0
DICTIONARY
  5
333
330
3F
100
AcDbDictionary
280
     1
281
     1
  3
ACAD_XREC_ROUNDTRIP
360
334
  0
DICTIONARY
  5
323
330
37
100
AcDbDictionary
280
     1
281
     1
  3
ACAD_XREC_ROUNDTRIP
360
324
  0
DICTIONARY
  5
315
330
30
100
AcDbDictionary
280
     1
281
     1
  3
ACAD_XREC_ROUNDTRIP
360
316
  0
DICTIONARY
  5
335
330
40
100
AcDbDictionary
280
     1
281
     1
  3
ACAD_XREC_ROUNDTRIP
360
336
  0
XRECORD
  5
33E
102
{ACAD_REACTORS
330
33D
102
}
330
33D
100
AcDbXrecord
280
     1
102
MATERIAL
148
0.0
149
0.0
149
0.0
 93
        0
 94
      127
282
     0
 72
     1
 77
     1
171
     1
175
     1
179
     1
273
     0
  0
XRECORD
  5
33C
102
{ACAD_REACTORS
330
33B
102
}
330
33B
100
AcDbXrecord
280
     1
102
MATERIAL
148
0.0
149
0.0
149
0.0
 93
        0
 94
      127
282
     0
 72
     1
 77
     1
171
     1
175
     1
179
     1
273
     0
  0
XRECORD
  5
340
102
{ACAD_REACTORS
330
33F
102
}
330
33F
100
AcDbXrecord
280
     1
102
MATERIAL
148
0.0
149
0.0
149
0.0
 93
        0
 94
      127
282
     0
 72
     1
 77
     1
171
     1
175
     1
179
     1
273
     0
  0
XRECORD
  5
346
102
{ACAD_REACTORS
330
345
102
}
330
345
100
AcDbXrecord
280
     1
102
ACAD_ROUNDTRIP_2010_MLEADER_STYLE
  0
CELLSTYLEMAP
  5
343
102
{ACAD_REACTORS
330
341
102
}
330
341
100
AcDbCellStyleMap
 90
        3
300
CELLSTYLE
  1
TABLEFORMAT_BEGIN
 90
        5
170
     1
 91
        0
 92
    32768
 62
   257
 93
        1
300
CONTENTFORMAT
  1
CONTENTFORMAT_BEGIN
 90
        0
 91
        0
 92
        4
 93
        0
300

 40
0.0
140
1.0
 94
        5
 62
     0
340
11
144
0.25
309
CONTENTFORMAT_END
171
     1
301
MARGIN
  1
CELLMARGIN_BEGIN
 40
0.06
 40
0.06
 40
0.06
 40
0.06
 40
0.06
 40
0.06
309
CELLMARGIN_END
 94
        6
 95
        1
302
GRIDFORMAT
  1
GRIDFORMAT_BEGIN
 90
        0
 91
        1
 62
     0
 92
       -2
340
14
 93
        0
 40
0.045
309
GRIDFORMAT_END
 95
        2
302
GRIDFORMAT
  1
GRIDFORMAT_BEGIN
 90
        0
 91
        1
 62
     0
 92
       -2
340
14
 93
        0
 40
0.045
309
GRIDFORMAT_END
 95
        4
302
GRIDFORMAT
  1
GRIDFORMAT_BEGIN
 90
        0
 91
        1
 62
     0
 92
       -2
340
14
 93
        0
 40
0.045
309
GRIDFORMAT_END
 95
        8
302
GRIDFORMAT
  1
GRIDFORMAT_BEGIN
 90
        0
 91
        1
 62
     0
 92
       -2
340
14
 93
        0
 40
0.045
309
GRIDFORMAT_END
 95
       16
302
GRIDFORMAT
  1
GRIDFORMAT_BEGIN
 90
        0
 91
        1
 62
     0
 92
       -2
340
14
 93
        0
 40
0.045
309
GRIDFORMAT_END
 95
       32
302
GRIDFORMAT
  1
GRIDFORMAT_BEGIN
 90
        0
 91
        1
 62
     0
 92
       -2
340
14
 93
        0
 40
0.045
309
GRIDFORMAT_END
309
TABLEFORMAT_END
  1
CELLSTYLE_BEGIN
 90
        1
 91
        1
300
_TITLE
309
CELLSTYLE_END
300
CELLSTYLE
  1
TABLEFORMAT_BEGIN
 90
        5
170
     1
 91
        0
 92
        0
 62
   257
 93
        1
300
CONTENTFORMAT
  1
CONTENTFORMAT_BEGIN
 90
        0
 91
        0
 92
        4
 93
        0
300

 40
0.0
140
1.0
 94
        5
 62
     0
340
11
144
0.18
309
CONTENTFORMAT_END
171
     1
301
MARGIN
  1
CELLMARGIN_BEGIN
 40
0.06
 40
0.06
 40
0.06
 40
0.06
 40
0.06
 40
0.06
309
CELLMARGIN_END
 94
        6
 95
        1
302
GRIDFORMAT
  1
GRIDFORMAT_BEGIN
 90
        0
 91
        1
 62
     0
 92
       -2
340
14
 93
        0
 40
0.045
309
GRIDFORMAT_END
 95
        2
302
GRIDFORMAT
  1
GRIDFORMAT_BEGIN
 90
        0
 91
        1
 62
     0
 92
       -2
340
14
 93
        0
 40
0.045
309
GRIDFORMAT_END
 95
        4
302
GRIDFORMAT
  1
GRIDFORMAT_BEGIN
 90
        0
 91
        1
 62
     0
 92
       -2
340
14
 93
        0
 40
0.045
309
GRIDFORMAT_END
 95
        8
302
GRIDFORMAT
  1
GRIDFORMAT_BEGIN
 90
        0
 91
        1
 62
     0
 92
       -2
340
14
 93
        0
 40
0.045
309
GRIDFORMAT_END
 95
       16
302
GRIDFORMAT
  1
GRIDFORMAT_BEGIN
 90
        0
 91
        1
 62
     0
 92
       -2
340
14
 93
        0
 40
0.045
309
GRIDFORMAT_END
 95
       32
302
GRIDFORMAT
  1
GRIDFORMAT_BEGIN
 90
        0
 91
        1
 62
     0
 92
       -2
340
14
 93
        0
 40
0.045
309
GRIDFORMAT_END
309
TABLEFORMAT_END
  1
CELLSTYLE_BEGIN
 90
        2
 91
        1
300
_HEADER
309
CELLSTYLE_END
300
CELLSTYLE
  1
TABLEFORMAT_BEGIN
 90
        5
170
     1
 91
        0
 92
        0
 62
   257
 93
        1
300
CONTENTFORMAT
  1
CONTENTFORMAT_BEGIN
 90
        0
 91
        0
 92
        4
 93
        0
300

 40
0.0
140
1.0
 94
        2
 62
     0
340
11
144
0.18
309
CONTENTFORMAT_END
171
     1
301
MARGIN
  1
CELLMARGIN_BEGIN
 40
0.06
 40
0.06
 40
0.06
 40
0.06
 40
0.06
 40
0.06
309
CELLMARGIN_END
 94
        6
 95
        1
302
GRIDFORMAT
  1
GRIDFORMAT_BEGIN
 90
        0
 91
        1
 62
     0
 92
       -2
340
14
 93
        0
 40
0.045
309
GRIDFORMAT_END
 95
        2
302
GRIDFORMAT
  1
GRIDFORMAT_BEGIN
 90
        0
 91
        1
 62
     0
 92
       -2
340
14
 93
        0
 40
0.045
309
GRIDFORMAT_END
 95
        4
302
GRIDFORMAT
  1
GRIDFORMAT_BEGIN
 90
        0
 91
        1
 62
     0
 92
       -2
340
14
 93
        0
 40
0.045
309
GRIDFORMAT_END
 95
        8
302
GRIDFORMAT
  1
GRIDFORMAT_BEGIN
 90
        0
 91
        1
 62
     0
 92
       -2
340
14
 93
        0
 40
0.045
309
GRIDFORMAT_END
 95
       16
302
GRIDFORMAT
  1
GRIDFORMAT_BEGIN
 90
        0
 91
        1
 62
     0
 92
       -2
340
14
 93
        0
 40
0.045
309
GRIDFORMAT_END
 95
       32
302
GRIDFORMAT
  1
GRIDFORMAT_BEGIN
 90
        0
 91
        1
 62
     0
 92
       -2
340
14
 93
        0
 40
0.045
309
GRIDFORMAT_END
309
TABLEFORMAT_END
  1
CELLSTYLE_BEGIN
 90
        3
 91
        2
300
_DATA
309
CELLSTYLE_END
  0
XRECORD
  5
342
102
{ACAD_REACTORS
330
341
102
}
330
341
100
AcDbXrecord
280
     1
102
ACAD_ROUNDTRIP_PRE2007_TABLESTYLE
 90
        4
 91
        0
  1

 92
        4
 93
        0
  2

 94
        4
 95
        0
  3

  0
XRECORD
  5
314
102
{ACAD_REACTORS
330
313
102
}
330
313
100
AcDbXrecord
280
     1
102
RTVSPropertyOp0
 70
     1
102
RTVSPropertyOp1
 70
     1
102
RTVSPropertyOp2
 70
     1
102
RTVSPropertyOp3
 70
     1
102
RTVSPropertyOp4
 70
     1
102
RTVSPropertyOp5
 70
     1
102
RTVSPropertyOp6
 70
     1
102
RTVSPropertyOp7
 70
     1
102
RTVSPropertyOp8
 70
     1
102
RTVSPropertyOp9
 70
     1
102
RTVSPropertyOp10
 70
     1
102
RTVSPropertyOp11
 70
     1
102
RTVSPropertyOp12
 70
     1
102
RTVSPropertyOp13
 70
     1
102
RTVSPropertyOp14
 70
     1
102
RTVSPropertyOp15
 70
     1
102
RTVSPropertyOp16
 70
     1
102
RTVSPropertyOp17
 70
     1
102
RTVSPropertyOp18
 70
     1
102
RTVSPropertyOp19
 70
     1
102
RTVSPropertyOp20
 70
     1
102
RTVSPropertyOp21
 70
     1
102
RTVSPropertyOp22
 70
     1
102
RTVSPropertyOp23
 70
     1
102
RTVSPropertyOp24
 70
     1
102
RTVSPropertyOp25
 70
     1
102
RTVSPropertyOp26
 70
     1
102
RTVSPropertyOp27
 70
     1
102
RTVSPropertyOp28
 70
     1
102
RTVSPropertyOp29
 70
     1
102
RTVSPropertyOp30
 70
     1
102
RTVSPropertyOp31
 70
     1
102
RTVSPropertyOp32
 70
     1
102
RTVSPropertyOp33
 70
     1
102
RTVSPropertyOp34
 70
     1
102
RTVSPropertyOp35
 70
     1
102
RTVSPropertyOp36
 70
     1
102
RTVSPropertyOp37
 70
     1
102
RTVSPropertyOp38
 70
     1
102
RTVSPropertyOp39
 70
     1
102
RTVSPropertyOp40
 70
     1
102
RTVSPropertyOp41
 70
     1
102
RTVSPropertyOp42
 70
     1
102
RTVSPropertyOp43
 70
     1
102
RTVSPropertyOp44
 70
     1
102
RTVSPropertyOp45
 70
     1
102
RTVSPropertyOp46
 70
     1
102
RTVSPropertyOp47
 70
     1
102
RTVSPropertyOp48
 70
     1
102
RTVSPropertyOp49
 70
     1
102
RTVSPropertyOp50
 70
     1
102
RTVSPropertyOp51
 70
     0
102
RTVSPropertyOp52
 70
     0
102
RTVSPropertyOp53
 70
     1
102
RTVSPropertyOp54
 70
     1
102
RTVSPropertyOp55
 70
     1
102
RTVSPropertyOp56
 70
     1
102
RTVSPropertyOp57
 70
     1
102
RTVSPost2010Prop28
280
     1
102
RTVSPost2010PropOp28
 70
     1
102
RTVSPost2010Prop29
280
     1
102
RTVSPost2010PropOp29
 70
     1
102
RTVSPost2010Prop30
280
     0
102
RTVSPost2010PropOp30
 70
     1
102
RTVSPost2010Prop31
280
     0
102
RTVSPost2010PropOp31
 70
     1
102
RTVSPost2010Prop32
280
     0
102
RTVSPost2010PropOp32
 70
     1
102
RTVSPost2010Prop33
280
     0
102
RTVSPost2010PropOp33
 70
     1
102
RTVSPost2010Prop34
280
     0
102
RTVSPost2010PropOp34
 70
     1
102
RTVSPost2010Prop35
280
     0
102
RTVSPost2010PropOp35
 70
     1
102
RTVSPost2010Prop36
280
     0
102
RTVSPost2010PropOp36
 70
     1
102
RTVSPost2010Prop37
 90
       50
102
RTVSPost2010PropOp37
 70
     1
102
RTVSPost2010Prop38
140
0.0
102
RTVSPost2010PropOp38
 70
     1
102
RTVSPost2010Prop39
140
1.0
102
RTVSPost2010PropOp39
 70
     1
102
RTVSPost2010Prop40
 90
        0
102
RTVSPost2010PropOp40
 70
     1
102
RTVSPost2010Prop41ColorIndex
 90
       18
102
RTVSPost2010Prop41ColorRGB
 90
        0
102
RTVSPost2010PropOp41
 70
     1
102
RTVSPost2010Prop42
 90
       50
102
RTVSPost2010PropOp42
 70
     1
102
RTVSPost2010Prop43
 90
        3
102
RTVSPost2010PropOp43
 70
     1
102
RTVSPost2010Prop44ColorIndex
 90
        5
102
RTVSPost2010Prop44ColorRGB
 90
      255
102
RTVSPost2010PropOp44
 70
     1
102
RTVSPost2010Prop45
280
     0
102
RTVSPost2010PropOp45
 70
     1
102
RTVSPost2010Prop46
 90
       50
102
RTVSPost2010PropOp46
 70
     1
102
RTVSPost2010Prop47
 90
       50
102
RTVSPost2010PropOp47
 70
     1
102
RTVSPost2010Prop48
 90
       50
102
RTVSPost2010PropOp48
 70
     1
102
RTVSPost2010Prop49
280
     0
102
RTVSPost2010PropOp49
 70
     1
102
RTVSPost2010Prop50
 90
       50
102
RTVSPost2010PropOp50
 70
     1
102
RTVSPost2010Prop51ColorIndex
 90
      256
102
RTVSPost2010Prop51ColorRGB
 90
-16777216
102
RTVSPost2010PropOp51
 70
     0
102
RTVSPost2010Prop52
140
1.0
102
RTVSPost2010PropOp52
 70
     0
102
RTVSPost2010Prop53
 90
        2
102
RTVSPost2010PropOp53
 70
     1
102
RTVSPost2010Prop54
  1
strokes_ogs.tif
102
RTVSPost2010PropOp54
 70
     1
102
RTVSPost2010Prop55
280
     0
102
RTVSPost2010PropOp55
 70
     1
102
RTVSPost2010Prop56
140
1.0
102
RTVSPost2010PropOp56
 70
     1
102
RTVSPost2010Prop57
140
1.0
102
RTVSPost2010PropOp57
 70
     1
  0
XRECORD
  5
31A
102
{ACAD_REACTORS
330
319
102
}
330
319
100
AcDbXrecord
280
     1
102
RTVSPropertyOp0
 70
     1
102
RTVSPropertyOp1
 70
     1
102
RTVSPropertyOp2
 70
     1
102
RTVSPropertyOp3
 70
     1
102
RTVSPropertyOp4
 70
     1
102
RTVSPropertyOp5
 70
     1
102
RTVSPropertyOp6
 70
     1
102
RTVSPropertyOp7
 70
     1
102
RTVSPropertyOp8
 70
     1
102
RTVSPropertyOp9
 70
     1
102
RTVSPropertyOp10
 70
     1
102
RTVSPropertyOp11
 70
     1
102
RTVSPropertyOp12
 70
     1
102
RTVSPropertyOp13
 70
     1
102
RTVSPropertyOp14
 70
     1
102
RTVSPropertyOp15
 70
     1
102
RTVSPropertyOp16
 70
     1
102
RTVSPropertyOp17
 70
     1
102
RTVSPropertyOp18
 70
     1
102
RTVSPropertyOp19
 70
     1
102
RTVSPropertyOp20
 70
     1
102
RTVSPropertyOp21
 70
     1
102
RTVSPropertyOp22
 70
     1
102
RTVSPropertyOp23
 70
     1
102
RTVSPropertyOp24
 70
     1
102
RTVSPropertyOp25
 70
     1
102
RTVSPropertyOp26
 70
     1
102
RTVSPropertyOp27
 70
     1
102
RTVSPropertyOp28
 70
     1
102
RTVSPropertyOp29
 70
     1
102
RTVSPropertyOp30
 70
     1
102
RTVSPropertyOp31
 70
     1
102
RTVSPropertyOp32
 70
     1
102
RTVSPropertyOp33
 70
     1
102
RTVSPropertyOp34
 70
     1
102
RTVSPropertyOp35
 70
     1
102
RTVSPropertyOp36
 70
     1
102
RTVSPropertyOp37
 70
     1
102
RTVSPropertyOp38
 70
     1
102
RTVSPropertyOp39
 70
     1
102
RTVSPropertyOp40
 70
     1
102
RTVSPropertyOp41
 70
     1
102
RTVSPropertyOp42
 70
     1
102
RTVSPropertyOp43
 70
     1
102
RTVSPropertyOp44
 70
     1
102
RTVSPropertyOp45
 70
     1
102
RTVSPropertyOp46
 70
     1
102
RTVSPropertyOp47
 70
     1
102
RTVSPropertyOp48
 70
     1
102
RTVSPropertyOp49
 70
     1
102
RTVSPropertyOp50
 70
     1
102
RTVSPropertyOp51
 70
     0
102
RTVSPropertyOp52
 70
     0
102
RTVSPropertyOp53
 70
     1
102
RTVSPropertyOp54
 70
     1
102
RTVSPropertyOp55
 70
     1
102
RTVSPropertyOp56
 70
     1
102
RTVSPropertyOp57
 70
     1
102
RTVSPost2010Prop28
280
     0
102
RTVSPost2010PropOp28
 70
     1
102
RTVSPost2010Prop29
280
     1
102
RTVSPost2010PropOp29
 70
     1
102
RTVSPost2010Prop30
280
     1
102
RTVSPost2010PropOp30
 70
     1
102
RTVSPost2010Prop31
280
     0
102
RTVSPost2010PropOp31
 70
     1
102
RTVSPost2010Prop32
280
     0
102
RTVSPost2010PropOp32
 70
     1
102
RTVSPost2010Prop33
280
     0
102
RTVSPost2010PropOp33
 70
     1
102
RTVSPost2010Prop34
280
     0
102
RTVSPost2010PropOp34
 70
     1
102
RTVSPost2010Prop35
280
     0
102
RTVSPost2010PropOp35
 70
     1
102
RTVSPost2010Prop36
280
     0
102
RTVSPost2010PropOp36
 70
     1
102
RTVSPost2010Prop37
 90
       50
102
RTVSPost2010PropOp37
 70
     1
102
RTVSPost2010Prop38
140
0.0
102
RTVSPost2010PropOp38
 70
     1
102
RTVSPost2010Prop39
140
1.0
102
RTVSPost2010PropOp39
 70
     1
102
RTVSPost2010Prop40
 90
        0
102
RTVSPost2010PropOp40
 70
     1
102
RTVSPost2010Prop41ColorIndex
 90
       18
102
RTVSPost2010Prop41ColorRGB
 90
        0
102
RTVSPost2010PropOp41
 70
     1
102
RTVSPost2010Prop42
 90
       50
102
RTVSPost2010PropOp42
 70
     1
102
RTVSPost2010Prop43
 90
        3
102
RTVSPost2010PropOp43
 70
     1
102
RTVSPost2010Prop44ColorIndex
 90
        5
102
RTVSPost2010Prop44ColorRGB
 90
      255
102
RTVSPost2010PropOp44
 70
     1
102
RTVSPost2010Prop45
280
     0
102
RTVSPost2010PropOp45
 70
     1
102
RTVSPost2010Prop46
 90
       50
102
RTVSPost2010PropOp46
 70
     1
102
RTVSPost2010Prop47
 90
       50
102
RTVSPost2010PropOp47
 70
     1
102
RTVSPost2010Prop48
 90
       50
102
RTVSPost2010PropOp48
 70
     1
102
RTVSPost2010Prop49
280
     0
102
RTVSPost2010PropOp49
 70
     1
102
RTVSPost2010Prop50
 90
       50
102
RTVSPost2010PropOp50
 70
     1
102
RTVSPost2010Prop51ColorIndex
 90
      256
102
RTVSPost2010Prop51ColorRGB
 90
-16777216
102
RTVSPost2010PropOp51
 70
     0
102
RTVSPost2010Prop52
140
1.0
102
RTVSPost2010PropOp52
 70
     0
102
RTVSPost2010Prop53
 90
        2
102
RTVSPost2010PropOp53
 70
     1
102
RTVSPost2010Prop54
  1
strokes_ogs.tif
102
RTVSPost2010PropOp54
 70
     1
102
RTVSPost2010Prop55
280
     0
102
RTVSPost2010PropOp55
 70
     1
102
RTVSPost2010Prop56
140
1.0
102
RTVSPost2010PropOp56
 70
     1
102
RTVSPost2010Prop57
140
1.0
102
RTVSPost2010PropOp57
 70
     1
  0
XRECORD
  5
322
102
{ACAD_REACTORS
330
321
102
}
330
321
100
AcDbXrecord
280
     1
102
RTVSPropertyOp0
 70
     1
102
RTVSPropertyOp1
 70
     1
102
RTVSPropertyOp2
 70
     1
102
RTVSPropertyOp3
 70
     1
102
RTVSPropertyOp4
 70
     1
102
RTVSPropertyOp5
 70
     1
102
RTVSPropertyOp6
 70
     1
102
RTVSPropertyOp7
 70
     1
102
RTVSPropertyOp8
 70
     1
102
RTVSPropertyOp9
 70
     1
102
RTVSPropertyOp10
 70
     1
102
RTVSPropertyOp11
 70
     1
102
RTVSPropertyOp12
 70
     1
102
RTVSPropertyOp13
 70
     1
102
RTVSPropertyOp14
 70
     1
102
RTVSPropertyOp15
 70
     1
102
RTVSPropertyOp16
 70
     1
102
RTVSPropertyOp17
 70
     1
102
RTVSPropertyOp18
 70
     1
102
RTVSPropertyOp19
 70
     1
102
RTVSPropertyOp20
 70
     1
102
RTVSPropertyOp21
 70
     1
102
RTVSPropertyOp22
 70
     1
102
RTVSPropertyOp23
 70
     1
102
RTVSPropertyOp24
 70
     1
102
RTVSPropertyOp25
 70
     1
102
RTVSPropertyOp26
 70
     1
102
RTVSPropertyOp27
 70
     1
102
RTVSPropertyOp28
 70
     1
102
RTVSPropertyOp29
 70
     1
102
RTVSPropertyOp30
 70
     1
102
RTVSPropertyOp31
 70
     1
102
RTVSPropertyOp32
 70
     1
102
RTVSPropertyOp33
 70
     1
102
RTVSPropertyOp34
 70
     1
102
RTVSPropertyOp35
 70
     1
102
RTVSPropertyOp36
 70
     1
102
RTVSPropertyOp37
 70
     1
102
RTVSPropertyOp38
 70
     1
102
RTVSPropertyOp39
 70
     1
102
RTVSPropertyOp40
 70
     1
102
RTVSPropertyOp41
 70
     1
102
RTVSPropertyOp42
 70
     1
102
RTVSPropertyOp43
 70
     1
102
RTVSPropertyOp44
 70
     1
102
RTVSPropertyOp45
 70
     1
102
RTVSPropertyOp46
 70
     1
102
RTVSPropertyOp47
 70
     1
102
RTVSPropertyOp48
 70
     1
102
RTVSPropertyOp49
 70
     1
102
RTVSPropertyOp50
 70
     1
102
RTVSPropertyOp51
 70
     0
102
RTVSPropertyOp52
 70
     0
102
RTVSPropertyOp53
 70
     1
102
RTVSPropertyOp54
 70
     1
102
RTVSPropertyOp55
 70
     1
102
RTVSPropertyOp56
 70
     1
102
RTVSPropertyOp57
 70
     1
102
RTVSPost2010Prop28
280
     0
102
RTVSPost2010PropOp28
 70
     1
102
RTVSPost2010Prop29
280
     1
102
RTVSPost2010PropOp29
 70
     1
102
RTVSPost2010Prop30
280
     1
102
RTVSPost2010PropOp30
 70
     1
102
RTVSPost2010Prop31
280
     0
102
RTVSPost2010PropOp31
 70
     1
102
RTVSPost2010Prop32
280
     0
102
RTVSPost2010PropOp32
 70
     1
102
RTVSPost2010Prop33
280
     0
102
RTVSPost2010PropOp33
 70
     1
102
RTVSPost2010Prop34
280
     0
102
RTVSPost2010PropOp34
 70
     1
102
RTVSPost2010Prop35
280
     0
102
RTVSPost2010PropOp35
 70
     1
102
RTVSPost2010Prop36
280
     0
102
RTVSPost2010PropOp36
 70
     1
102
RTVSPost2010Prop37
 90
       50
102
RTVSPost2010PropOp37
 70
     1
102
RTVSPost2010Prop38
140
0.0
102
RTVSPost2010PropOp38
 70
     1
102
RTVSPost2010Prop39
140
1.0
102
RTVSPost2010PropOp39
 70
     1
102
RTVSPost2010Prop40
 90
        0
102
RTVSPost2010PropOp40
 70
     1
102
RTVSPost2010Prop41ColorIndex
 90
       18
102
RTVSPost2010Prop41ColorRGB
 90
        0
102
RTVSPost2010PropOp41
 70
     1
102
RTVSPost2010Prop42
 90
       50
102
RTVSPost2010PropOp42
 70
     1
102
RTVSPost2010Prop43
 90
        3
102
RTVSPost2010PropOp43
 70
     1
102
RTVSPost2010Prop44ColorIndex
 90
        5
102
RTVSPost2010Prop44ColorRGB
 90
      255
102
RTVSPost2010PropOp44
 70
     1
102
RTVSPost2010Prop45
280
     0
102
RTVSPost2010PropOp45
 70
     1
102
RTVSPost2010Prop46
 90
       50
102
RTVSPost2010PropOp46
 70
     1
102
RTVSPost2010Prop47
 90
       50
102
RTVSPost2010PropOp47
 70
     1
102
RTVSPost2010Prop48
 90
       50
102
RTVSPost2010PropOp48
 70
     1
102
RTVSPost2010Prop49
280
     0
102
RTVSPost2010PropOp49
 70
     1
102
RTVSPost2010Prop50
 90
       50
102
RTVSPost2010PropOp50
 70
     1
102
RTVSPost2010Prop51ColorIndex
 90
      256
102
RTVSPost2010Prop51ColorRGB
 90
-16777216
102
RTVSPost2010PropOp51
 70
     0
102
RTVSPost2010Prop52
140
1.0
102
RTVSPost2010PropOp52
 70
     0
102
RTVSPost2010Prop53
 90
        2
102
RTVSPost2010PropOp53
 70
     1
102
RTVSPost2010Prop54
  1
strokes_ogs.tif
102
RTVSPost2010PropOp54
 70
     1
102
RTVSPost2010Prop55
280
     0
102
RTVSPost2010PropOp55
 70
     1
102
RTVSPost2010Prop56
140
1.0
102
RTVSPost2010PropOp56
 70
     1
102
RTVSPost2010Prop57
140
1.0
102
RTVSPost2010PropOp57
 70
     1
  0
XRECORD
  5
32A
102
{ACAD_REACTORS
330
329
102
}
330
329
100
AcDbXrecord
280
     1
102
RTVSPropertyOp0
 70
     1
102
RTVSPropertyOp1
 70
     1
102
RTVSPropertyOp2
 70
     1
102
RTVSPropertyOp3
 70
     1
102
RTVSPropertyOp4
 70
     1
102
RTVSPropertyOp5
 70
     1
102
RTVSPropertyOp6
 70
     1
102
RTVSPropertyOp7
 70
     1
102
RTVSPropertyOp8
 70
     1
102
RTVSPropertyOp9
 70
     1
102
RTVSPropertyOp10
 70
     1
102
RTVSPropertyOp11
 70
     1
102
RTVSPropertyOp12
 70
     1
102
RTVSPropertyOp13
 70
     1
102
RTVSPropertyOp14
 70
     1
102
RTVSPropertyOp15
 70
     1
102
RTVSPropertyOp16
 70
     1
102
RTVSPropertyOp17
 70
     1
102
RTVSPropertyOp18
 70
     1
102
RTVSPropertyOp19
 70
     1
102
RTVSPropertyOp20
 70
     1
102
RTVSPropertyOp21
 70
     1
102
RTVSPropertyOp22
 70
     1
102
RTVSPropertyOp23
 70
     1
102
RTVSPropertyOp24
 70
     1
102
RTVSPropertyOp25
 70
     1
102
RTVSPropertyOp26
 70
     1
102
RTVSPropertyOp27
 70
     1
102
RTVSPropertyOp28
 70
     1
102
RTVSPropertyOp29
 70
     1
102
RTVSPropertyOp30
 70
     1
102
RTVSPropertyOp31
 70
     1
102
RTVSPropertyOp32
 70
     1
102
RTVSPropertyOp33
 70
     1
102
RTVSPropertyOp34
 70
     1
102
RTVSPropertyOp35
 70
     1
102
RTVSPropertyOp36
 70
     1
102
RTVSPropertyOp37
 70
     1
102
RTVSPropertyOp38
 70
     1
102
RTVSPropertyOp39
 70
     1
102
RTVSPropertyOp40
 70
     1
102
RTVSPropertyOp41
 70
     1
102
RTVSPropertyOp42
 70
     1
102
RTVSPropertyOp43
 70
     1
102
RTVSPropertyOp44
 70
     1
102
RTVSPropertyOp45
 70
     1
102
RTVSPropertyOp46
 70
     1
102
RTVSPropertyOp47
 70
     1
102
RTVSPropertyOp48
 70
     1
102
RTVSPropertyOp49
 70
     1
102
RTVSPropertyOp50
 70
     1
102
RTVSPropertyOp51
 70
     0
102
RTVSPropertyOp52
 70
     0
102
RTVSPropertyOp53
 70
     1
102
RTVSPropertyOp54
 70
     1
102
RTVSPropertyOp55
 70
     1
102
RTVSPropertyOp56
 70
     1
102
RTVSPropertyOp57
 70
     1
102
RTVSPost2010Prop28
280
     0
102
RTVSPost2010PropOp28
 70
     1
102
RTVSPost2010Prop29
280
     1
102
RTVSPost2010PropOp29
 70
     1
102
RTVSPost2010Prop30
280
     1
102
RTVSPost2010PropOp30
 70
     1
102
RTVSPost2010Prop31
280
     0
102
RTVSPost2010PropOp31
 70
     1
102
RTVSPost2010Prop32
280
     0
102
RTVSPost2010PropOp32
 70
     1
102
RTVSPost2010Prop33
280
     0
102
RTVSPost2010PropOp33
 70
     1
102
RTVSPost2010Prop34
280
     0
102
RTVSPost2010PropOp34
 70
     1
102
RTVSPost2010Prop35
280
     0
102
RTVSPost2010PropOp35
 70
     1
102
RTVSPost2010Prop36
280
     0
102
RTVSPost2010PropOp36
 70
     1
102
RTVSPost2010Prop37
 90
       50
102
RTVSPost2010PropOp37
 70
     1
102
RTVSPost2010Prop38
140
0.0
102
RTVSPost2010PropOp38
 70
     1
102
RTVSPost2010Prop39
140
1.0
102
RTVSPost2010PropOp39
 70
     1
102
RTVSPost2010Prop40
 90
        0
102
RTVSPost2010PropOp40
 70
     1
102
RTVSPost2010Prop41ColorIndex
 90
       18
102
RTVSPost2010Prop41ColorRGB
 90
        0
102
RTVSPost2010PropOp41
 70
     1
102
RTVSPost2010Prop42
 90
       50
102
RTVSPost2010PropOp42
 70
     1
102
RTVSPost2010Prop43
 90
        3
102
RTVSPost2010PropOp43
 70
     1
102
RTVSPost2010Prop44ColorIndex
 90
        5
102
RTVSPost2010Prop44ColorRGB
 90
      255
102
RTVSPost2010PropOp44
 70
     1
102
RTVSPost2010Prop45
280
     0
102
RTVSPost2010PropOp45
 70
     1
102
RTVSPost2010Prop46
 90
       50
102
RTVSPost2010PropOp46
 70
     1
102
RTVSPost2010Prop47
 90
       50
102
RTVSPost2010PropOp47
 70
     1
102
RTVSPost2010Prop48
 90
       50
102
RTVSPost2010PropOp48
 70
     1
102
RTVSPost2010Prop49
280
     0
102
RTVSPost2010PropOp49
 70
     1
102
RTVSPost2010Prop50
 90
       50
102
RTVSPost2010PropOp50
 70
     1
102
RTVSPost2010Prop51ColorIndex
 90
      256
102
RTVSPost2010Prop51ColorRGB
 90
-16777216
102
RTVSPost2010PropOp51
 70
     0
102
RTVSPost2010Prop52
140
1.0
102
RTVSPost2010PropOp52
 70
     0
102
RTVSPost2010Prop53
 90
        2
102
RTVSPost2010PropOp53
 70
     1
102
RTVSPost2010Prop54
  1
strokes_ogs.tif
102
RTVSPost2010PropOp54
 70
     1
102
RTVSPost2010Prop55
280
     0
102
RTVSPost2010PropOp55
 70
     1
102
RTVSPost2010Prop56
140
1.0
102
RTVSPost2010PropOp56
 70
     1
102
RTVSPost2010Prop57
140
1.0
102
RTVSPost2010PropOp57
 70
     1
  0
XRECORD
  5
31E
102
{ACAD_REACTORS
330
31D
102
}
330
31D
100
AcDbXrecord
280
     1
102
RTVSPropertyOp0
 70
     1
102
RTVSPropertyOp1
 70
     1
102
RTVSPropertyOp2
 70
     1
102
RTVSPropertyOp3
 70
     1
102
RTVSPropertyOp4
 70
     1
102
RTVSPropertyOp5
 70
     1
102
RTVSPropertyOp6
 70
     1
102
RTVSPropertyOp7
 70
     1
102
RTVSPropertyOp8
 70
     1
102
RTVSPropertyOp9
 70
     1
102
RTVSPropertyOp10
 70
     1
102
RTVSPropertyOp11
 70
     1
102
RTVSPropertyOp12
 70
     1
102
RTVSPropertyOp13
 70
     1
102
RTVSPropertyOp14
 70
     1
102
RTVSPropertyOp15
 70
     1
102
RTVSPropertyOp16
 70
     1
102
RTVSPropertyOp17
 70
     1
102
RTVSPropertyOp18
 70
     1
102
RTVSPropertyOp19
 70
     1
102
RTVSPropertyOp20
 70
     1
102
RTVSPropertyOp21
 70
     1
102
RTVSPropertyOp22
 70
     1
102
RTVSPropertyOp23
 70
     1
102
RTVSPropertyOp24
 70
     1
102
RTVSPropertyOp25
 70
     1
102
RTVSPropertyOp26
 70
     1
102
RTVSPropertyOp27
 70
     1
102
RTVSPropertyOp28
 70
     1
102
RTVSPropertyOp29
 70
     1
102
RTVSPropertyOp30
 70
     1
102
RTVSPropertyOp31
 70
     1
102
RTVSPropertyOp32
 70
     1
102
RTVSPropertyOp33
 70
     1
102
RTVSPropertyOp34
 70
     1
102
RTVSPropertyOp35
 70
     1
102
RTVSPropertyOp36
 70
     1
102
RTVSPropertyOp37
 70
     1
102
RTVSPropertyOp38
 70
     1
102
RTVSPropertyOp39
 70
     1
102
RTVSPropertyOp40
 70
     1
102
RTVSPropertyOp41
 70
     1
102
RTVSPropertyOp42
 70
     1
102
RTVSPropertyOp43
 70
     1
102
RTVSPropertyOp44
 70
     1
102
RTVSPropertyOp45
 70
     1
102
RTVSPropertyOp46
 70
     1
102
RTVSPropertyOp47
 70
     1
102
RTVSPropertyOp48
 70
     1
102
RTVSPropertyOp49
 70
     1
102
RTVSPropertyOp50
 70
     1
102
RTVSPropertyOp51
 70
     0
102
RTVSPropertyOp52
 70
     0
102
RTVSPropertyOp53
 70
     1
102
RTVSPropertyOp54
 70
     1
102
RTVSPropertyOp55
 70
     1
102
RTVSPropertyOp56
 70
     1
102
RTVSPropertyOp57
 70
     1
102
RTVSPost2010Prop28
280
     0
102
RTVSPost2010PropOp28
 70
     1
102
RTVSPost2010Prop29
280
     1
102
RTVSPost2010PropOp29
 70
     1
102
RTVSPost2010Prop30
280
     1
102
RTVSPost2010PropOp30
 70
     1
102
RTVSPost2010Prop31
280
     0
102
RTVSPost2010PropOp31
 70
     1
102
RTVSPost2010Prop32
280
     0
102
RTVSPost2010PropOp32
 70
     1
102
RTVSPost2010Prop33
280
     0
102
RTVSPost2010PropOp33
 70
     1
102
RTVSPost2010Prop34
280
     0
102
RTVSPost2010PropOp34
 70
     1
102
RTVSPost2010Prop35
280
     0
102
RTVSPost2010PropOp35
 70
     1
102
RTVSPost2010Prop36
280
     0
102
RTVSPost2010PropOp36
 70
     1
102
RTVSPost2010Prop37
 90
       50
102
RTVSPost2010PropOp37
 70
     1
102
RTVSPost2010Prop38
140
0.0
102
RTVSPost2010PropOp38
 70
     1
102
RTVSPost2010Prop39
140
1.0
102
RTVSPost2010PropOp39
 70
     1
102
RTVSPost2010Prop40
 90
        0
102
RTVSPost2010PropOp40
 70
     1
102
RTVSPost2010Prop41ColorIndex
 90
       18
102
RTVSPost2010Prop41ColorRGB
 90
        0
102
RTVSPost2010PropOp41
 70
     1
102
RTVSPost2010Prop42
 90
       50
102
RTVSPost2010PropOp42
 70
     1
102
RTVSPost2010Prop43
 90
        3
102
RTVSPost2010PropOp43
 70
     1
102
RTVSPost2010Prop44ColorIndex
 90
        5
102
RTVSPost2010Prop44ColorRGB
 90
      255
102
RTVSPost2010PropOp44
 70
     1
102
RTVSPost2010Prop45
280
     0
102
RTVSPost2010PropOp45
 70
     1
102
RTVSPost2010Prop46
 90
       50
102
RTVSPost2010PropOp46
 70
     1
102
RTVSPost2010Prop47
 90
       50
102
RTVSPost2010PropOp47
 70
     1
102
RTVSPost2010Prop48
 90
       50
102
RTVSPost2010PropOp48
 70
     1
102
RTVSPost2010Prop49
280
     0
102
RTVSPost2010PropOp49
 70
     1
102
RTVSPost2010Prop50
 90
       50
102
RTVSPost2010PropOp50
 70
     1
102
RTVSPost2010Prop51ColorIndex
 90
      256
102
RTVSPost2010Prop51ColorRGB
 90
-16777216
102
RTVSPost2010PropOp51
 70
     0
102
RTVSPost2010Prop52
140
1.0
102
RTVSPost2010PropOp52
 70
     0
102
RTVSPost2010Prop53
 90
        2
102
RTVSPost2010PropOp53
 70
     1
102
RTVSPost2010Prop54
  1
strokes_ogs.tif
102
RTVSPost2010PropOp54
 70
     1
102
RTVSPost2010Prop55
280
     0
102
RTVSPost2010PropOp55
 70
     1
102
RTVSPost2010Prop56
140
1.0
102
RTVSPost2010PropOp56
 70
     1
102
RTVSPost2010Prop57
140
1.0
102
RTVSPost2010PropOp57
 70
     1
  0
XRECORD
  5
320
102
{ACAD_REACTORS
330
31F
102
}
330
31F
100
AcDbXrecord
280
     1
102
RTVSPropertyOp0
 70
     1
102
RTVSPropertyOp1
 70
     1
102
RTVSPropertyOp2
 70
     1
102
RTVSPropertyOp3
 70
     1
102
RTVSPropertyOp4
 70
     1
102
RTVSPropertyOp5
 70
     1
102
RTVSPropertyOp6
 70
     1
102
RTVSPropertyOp7
 70
     1
102
RTVSPropertyOp8
 70
     1
102
RTVSPropertyOp9
 70
     1
102
RTVSPropertyOp10
 70
     1
102
RTVSPropertyOp11
 70
     1
102
RTVSPropertyOp12
 70
     1
102
RTVSPropertyOp13
 70
     1
102
RTVSPropertyOp14
 70
     1
102
RTVSPropertyOp15
 70
     1
102
RTVSPropertyOp16
 70
     1
102
RTVSPropertyOp17
 70
     1
102
RTVSPropertyOp18
 70
     1
102
RTVSPropertyOp19
 70
     1
102
RTVSPropertyOp20
 70
     1
102
RTVSPropertyOp21
 70
     1
102
RTVSPropertyOp22
 70
     1
102
RTVSPropertyOp23
 70
     1
102
RTVSPropertyOp24
 70
     1
102
RTVSPropertyOp25
 70
     1
102
RTVSPropertyOp26
 70
     1
102
RTVSPropertyOp27
 70
     1
102
RTVSPropertyOp28
 70
     1
102
RTVSPropertyOp29
 70
     1
102
RTVSPropertyOp30
 70
     1
102
RTVSPropertyOp31
 70
     1
102
RTVSPropertyOp32
 70
     1
102
RTVSPropertyOp33
 70
     1
102
RTVSPropertyOp34
 70
     1
102
RTVSPropertyOp35
 70
     1
102
RTVSPropertyOp36
 70
     1
102
RTVSPropertyOp37
 70
     1
102
RTVSPropertyOp38
 70
     1
102
RTVSPropertyOp39
 70
     1
102
RTVSPropertyOp40
 70
     1
102
RTVSPropertyOp41
 70
     1
102
RTVSPropertyOp42
 70
     1
102
RTVSPropertyOp43
 70
     1
102
RTVSPropertyOp44
 70
     1
102
RTVSPropertyOp45
 70
     1
102
RTVSPropertyOp46
 70
     1
102
RTVSPropertyOp47
 70
     1
102
RTVSPropertyOp48
 70
     1
102
RTVSPropertyOp49
 70
     1
102
RTVSPropertyOp50
 70
     1
102
RTVSPropertyOp51
 70
     0
102
RTVSPropertyOp52
 70
     0
102
RTVSPropertyOp53
 70
     1
102
RTVSPropertyOp54
 70
     1
102
RTVSPropertyOp55
 70
     1
102
RTVSPropertyOp56
 70
     1
102
RTVSPropertyOp57
 70
     1
102
RTVSPost2010Prop28
280
     0
102
RTVSPost2010PropOp28
 70
     1
102
RTVSPost2010Prop29
280
     1
102
RTVSPost2010PropOp29
 70
     1
102
RTVSPost2010Prop30
280
     1
102
RTVSPost2010PropOp30
 70
     1
102
RTVSPost2010Prop31
280
     0
102
RTVSPost2010PropOp31
 70
     1
102
RTVSPost2010Prop32
280
     0
102
RTVSPost2010PropOp32
 70
     1
102
RTVSPost2010Prop33
280
     0
102
RTVSPost2010PropOp33
 70
     1
102
RTVSPost2010Prop34
280
     0
102
RTVSPost2010PropOp34
 70
     1
102
RTVSPost2010Prop35
280
     0
102
RTVSPost2010PropOp35
 70
     1
102
RTVSPost2010Prop36
280
     0
102
RTVSPost2010PropOp36
 70
     1
102
RTVSPost2010Prop37
 90
       50
102
RTVSPost2010PropOp37
 70
     1
102
RTVSPost2010Prop38
140
0.0
102
RTVSPost2010PropOp38
 70
     1
102
RTVSPost2010Prop39
140
1.0
102
RTVSPost2010PropOp39
 70
     1
102
RTVSPost2010Prop40
 90
        0
102
RTVSPost2010PropOp40
 70
     1
102
RTVSPost2010Prop41ColorIndex
 90
       18
102
RTVSPost2010Prop41ColorRGB
 90
        0
102
RTVSPost2010PropOp41
 70
     1
102
RTVSPost2010Prop42
 90
       50
102
RTVSPost2010PropOp42
 70
     1
102
RTVSPost2010Prop43
 90
        3
102
RTVSPost2010PropOp43
 70
     1
102
RTVSPost2010Prop44ColorIndex
 90
        5
102
RTVSPost2010Prop44ColorRGB
 90
      255
102
RTVSPost2010PropOp44
 70
     1
102
RTVSPost2010Prop45
280
     0
102
RTVSPost2010PropOp45
 70
     1
102
RTVSPost2010Prop46
 90
       50
102
RTVSPost2010PropOp46
 70
     1
102
RTVSPost2010Prop47
 90
       50
102
RTVSPost2010PropOp47
 70
     1
102
RTVSPost2010Prop48
 90
       50
102
RTVSPost2010PropOp48
 70
     1
102
RTVSPost2010Prop49
280
     0
102
RTVSPost2010PropOp49
 70
     1
102
RTVSPost2010Prop50
 90
       50
102
RTVSPost2010PropOp50
 70
     1
102
RTVSPost2010Prop51ColorIndex
 90
      256
102
RTVSPost2010Prop51ColorRGB
 90
-16777216
102
RTVSPost2010PropOp51
 70
     0
102
RTVSPost2010Prop52
140
1.0
102
RTVSPost2010PropOp52
 70
     0
102
RTVSPost2010Prop53
 90
        2
102
RTVSPost2010PropOp53
 70
     1
102
RTVSPost2010Prop54
  1
strokes_ogs.tif
102
RTVSPost2010PropOp54
 70
     1
102
RTVSPost2010Prop55
280
     0
102
RTVSPost2010PropOp55
 70
     1
102
RTVSPost2010Prop56
140
1.0
102
RTVSPost2010PropOp56
 70
     1
102
RTVSPost2010Prop57
140
1.0
102
RTVSPost2010PropOp57
 70
     1
  0
XRECORD
  5
330
102
{ACAD_REACTORS
330
32F
102
}
330
32F
100
AcDbXrecord
280
     1
102
RTVSPropertyOp0
 70
     0
102
RTVSPropertyOp1
 70
     0
102
RTVSPropertyOp2
 70
     0
102
RTVSPropertyOp3
 70
     0
102
RTVSPropertyOp4
 70
     0
102
RTVSPropertyOp5
 70
     0
102
RTVSPropertyOp6
 70
     0
102
RTVSPropertyOp7
 70
     0
102
RTVSPropertyOp8
 70
     0
102
RTVSPropertyOp9
 70
     0
102
RTVSPropertyOp10
 70
     0
102
RTVSPropertyOp11
 70
     0
102
RTVSPropertyOp12
 70
     0
102
RTVSPropertyOp13
 70
     0
102
RTVSPropertyOp14
 70
     2
102
RTVSPropertyOp15
 70
     0
102
RTVSPropertyOp16
 70
     0
102
RTVSPropertyOp17
 70
     0
102
RTVSPropertyOp18
 70
     0
102
RTVSPropertyOp19
 70
     0
102
RTVSPropertyOp20
 70
     0
102
RTVSPropertyOp21
 70
     0
102
RTVSPropertyOp22
 70
     0
102
RTVSPropertyOp23
 70
     0
102
RTVSPropertyOp24
 70
     0
102
RTVSPropertyOp25
 70
     0
102
RTVSPropertyOp26
 70
     0
102
RTVSPropertyOp27
 70
     0
102
RTVSPropertyOp28
 70
     0
102
RTVSPropertyOp29
 70
     0
102
RTVSPropertyOp30
 70
     0
102
RTVSPropertyOp31
 70
     0
102
RTVSPropertyOp32
 70
     0
102
RTVSPropertyOp33
 70
     0
102
RTVSPropertyOp34
 70
     0
102
RTVSPropertyOp35
 70
     0
102
RTVSPropertyOp36
 70
     0
102
RTVSPropertyOp37
 70
     0
102
RTVSPropertyOp38
 70
     0
102
RTVSPropertyOp39
 70
     0
102
RTVSPropertyOp40
 70
     0
102
RTVSPropertyOp41
 70
     0
102
RTVSPropertyOp42
 70
     0
102
RTVSPropertyOp43
 70
     0
102
RTVSPropertyOp44
 70
     0
102
RTVSPropertyOp45
 70
     0
102
RTVSPropertyOp46
 70
     0
102
RTVSPropertyOp47
 70
     0
102
RTVSPropertyOp48
 70
     0
102
RTVSPropertyOp49
 70
     0
102
RTVSPropertyOp50
 70
     0
102
RTVSPropertyOp51
 70
     0
102
RTVSPropertyOp52
 70
     0
102
RTVSPropertyOp53
 70
     0
102
RTVSPropertyOp54
 70
     0
102
RTVSPropertyOp55
 70
     0
102
RTVSPropertyOp56
 70
     0
102
RTVSPropertyOp57
 70
     0
102
RTVSPost2010Prop28
280
     0
102
RTVSPost2010PropOp28
 70
     0
102
RTVSPost2010Prop29
280
     1
102
RTVSPost2010PropOp29
 70
     0
102
RTVSPost2010Prop30
280
     1
102
RTVSPost2010PropOp30
 70
     0
102
RTVSPost2010Prop31
280
     0
102
RTVSPost2010PropOp31
 70
     0
102
RTVSPost2010Prop32
280
     0
102
RTVSPost2010PropOp32
 70
     0
102
RTVSPost2010Prop33
280
     0
102
RTVSPost2010PropOp33
 70
     0
102
RTVSPost2010Prop34
280
     0
102
RTVSPost2010PropOp34
 70
     0
102
RTVSPost2010Prop35
280
     0
102
RTVSPost2010PropOp35
 70
     0
102
RTVSPost2010Prop36
280
     0
102
RTVSPost2010PropOp36
 70
     0
102
RTVSPost2010Prop37
 90
       50
102
RTVSPost2010PropOp37
 70
     0
102
RTVSPost2010Prop38
140
0.0
102
RTVSPost2010PropOp38
 70
     0
102
RTVSPost2010Prop39
140
1.0
102
RTVSPost2010PropOp39
 70
     0
102
RTVSPost2010Prop40
 90
        0
102
RTVSPost2010PropOp40
 70
     0
102
RTVSPost2010Prop41ColorIndex
 90
       18
102
RTVSPost2010Prop41ColorRGB
 90
        0
102
RTVSPost2010PropOp41
 70
     0
102
RTVSPost2010Prop42
 90
       50
102
RTVSPost2010PropOp42
 70
     0
102
RTVSPost2010Prop43
 90
        3
102
RTVSPost2010PropOp43
 70
     0
102
RTVSPost2010Prop44ColorIndex
 90
        5
102
RTVSPost2010Prop44ColorRGB
 90
      255
102
RTVSPost2010PropOp44
 70
     0
102
RTVSPost2010Prop45
280
     0
102
RTVSPost2010PropOp45
 70
     0
102
RTVSPost2010Prop46
 90
       50
102
RTVSPost2010PropOp46
 70
     0
102
RTVSPost2010Prop47
 90
       50
102
RTVSPost2010PropOp47
 70
     0
102
RTVSPost2010Prop48
 90
       50
102
RTVSPost2010PropOp48
 70
     0
102
RTVSPost2010Prop49
280
     0
102
RTVSPost2010PropOp49
 70
     0
102
RTVSPost2010Prop50
 90
       50
102
RTVSPost2010PropOp50
 70
     0
102
RTVSPost2010Prop51ColorIndex
 90
      256
102
RTVSPost2010Prop51ColorRGB
 90
-16777216
102
RTVSPost2010PropOp51
 70
     0
102
RTVSPost2010Prop52
140
1.0
102
RTVSPost2010PropOp52
 70
     0
102
RTVSPost2010Prop53
 90
        2
102
RTVSPost2010PropOp53
 70
     0
102
RTVSPost2010Prop54
  1
strokes_ogs.tif
102
RTVSPost2010PropOp54
 70
     0
102
RTVSPost2010Prop55
280
     0
102
RTVSPost2010PropOp55
 70
     0
102
RTVSPost2010Prop56
140
1.0
102
RTVSPost2010PropOp56
 70
     0
102
RTVSPost2010Prop57
140
1.0
102
RTVSPost2010PropOp57
 70
     0
  0
XRECORD
  5
328
102
{ACAD_REACTORS
330
327
102
}
330
327
100
AcDbXrecord
280
     1
102
RTVSPropertyOp0
 70
     1
102
RTVSPropertyOp1
 70
     1
102
RTVSPropertyOp2
 70
     1
102
RTVSPropertyOp3
 70
     1
102
RTVSPropertyOp4
 70
     1
102
RTVSPropertyOp5
 70
     1
102
RTVSPropertyOp6
 70
     1
102
RTVSPropertyOp7
 70
     1
102
RTVSPropertyOp8
 70
     1
102
RTVSPropertyOp9
 70
     1
102
RTVSPropertyOp10
 70
     1
102
RTVSPropertyOp11
 70
     1
102
RTVSPropertyOp12
 70
     1
102
RTVSPropertyOp13
 70
     1
102
RTVSPropertyOp14
 70
     1
102
RTVSPropertyOp15
 70
     1
102
RTVSPropertyOp16
 70
     1
102
RTVSPropertyOp17
 70
     1
102
RTVSPropertyOp18
 70
     1
102
RTVSPropertyOp19
 70
     1
102
RTVSPropertyOp20
 70
     1
102
RTVSPropertyOp21
 70
     1
102
RTVSPropertyOp22
 70
     1
102
RTVSPropertyOp23
 70
     1
102
RTVSPropertyOp24
 70
     1
102
RTVSPropertyOp25
 70
     1
102
RTVSPropertyOp26
 70
     1
102
RTVSPropertyOp27
 70
     1
102
RTVSPropertyOp28
 70
     1
102
RTVSPropertyOp29
 70
     1
102
RTVSPropertyOp30
 70
     1
102
RTVSPropertyOp31
 70
     1
102
RTVSPropertyOp32
 70
     1
102
RTVSPropertyOp33
 70
     1
102
RTVSPropertyOp34
 70
     1
102
RTVSPropertyOp35
 70
     1
102
RTVSPropertyOp36
 70
     1
102
RTVSPropertyOp37
 70
     1
102
RTVSPropertyOp38
 70
     1
102
RTVSPropertyOp39
 70
     1
102
RTVSPropertyOp40
 70
     1
102
RTVSPropertyOp41
 70
     1
102
RTVSPropertyOp42
 70
     1
102
RTVSPropertyOp43
 70
     1
102
RTVSPropertyOp44
 70
     1
102
RTVSPropertyOp45
 70
     1
102
RTVSPropertyOp46
 70
     1
102
RTVSPropertyOp47
 70
     1
102
RTVSPropertyOp48
 70
     1
102
RTVSPropertyOp49
 70
     1
102
RTVSPropertyOp50
 70
     1
102
RTVSPropertyOp51
 70
     0
102
RTVSPropertyOp52
 70
     0
102
RTVSPropertyOp53
 70
     1
102
RTVSPropertyOp54
 70
     1
102
RTVSPropertyOp55
 70
     1
102
RTVSPropertyOp56
 70
     1
102
RTVSPropertyOp57
 70
     1
102
RTVSPost2010Prop28
280
     0
102
RTVSPost2010PropOp28
 70
     1
102
RTVSPost2010Prop29
280
     1
102
RTVSPost2010PropOp29
 70
     1
102
RTVSPost2010Prop30
280
     1
102
RTVSPost2010PropOp30
 70
     1
102
RTVSPost2010Prop31
280
     0
102
RTVSPost2010PropOp31
 70
     1
102
RTVSPost2010Prop32
280
     0
102
RTVSPost2010PropOp32
 70
     1
102
RTVSPost2010Prop33
280
     0
102
RTVSPost2010PropOp33
 70
     1
102
RTVSPost2010Prop34
280
     0
102
RTVSPost2010PropOp34
 70
     1
102
RTVSPost2010Prop35
280
     0
102
RTVSPost2010PropOp35
 70
     1
102
RTVSPost2010Prop36
280
     0
102
RTVSPost2010PropOp36
 70
     1
102
RTVSPost2010Prop37
 90
       50
102
RTVSPost2010PropOp37
 70
     1
102
RTVSPost2010Prop38
140
0.0
102
RTVSPost2010PropOp38
 70
     1
102
RTVSPost2010Prop39
140
1.0
102
RTVSPost2010PropOp39
 70
     1
102
RTVSPost2010Prop40
 90
        0
102
RTVSPost2010PropOp40
 70
     1
102
RTVSPost2010Prop41ColorIndex
 90
       18
102
RTVSPost2010Prop41ColorRGB
 90
        0
102
RTVSPost2010PropOp41
 70
     1
102
RTVSPost2010Prop42
 90
       50
102
RTVSPost2010PropOp42
 70
     1
102
RTVSPost2010Prop43
 90
        3
102
RTVSPost2010PropOp43
 70
     1
102
RTVSPost2010Prop44ColorIndex
 90
        5
102
RTVSPost2010Prop44ColorRGB
 90
      255
102
RTVSPost2010PropOp44
 70
     1
102
RTVSPost2010Prop45
280
     0
102
RTVSPost2010PropOp45
 70
     1
102
RTVSPost2010Prop46
 90
       50
102
RTVSPost2010PropOp46
 70
     1
102
RTVSPost2010Prop47
 90
       50
102
RTVSPost2010PropOp47
 70
     1
102
RTVSPost2010Prop48
 90
       50
102
RTVSPost2010PropOp48
 70
     1
102
RTVSPost2010Prop49
280
     0
102
RTVSPost2010PropOp49
 70
     1
102
RTVSPost2010Prop50
 90
       50
102
RTVSPost2010PropOp50
 70
     1
102
RTVSPost2010Prop51ColorIndex
 90
      256
102
RTVSPost2010Prop51ColorRGB
 90
-16777216
102
RTVSPost2010PropOp51
 70
     0
102
RTVSPost2010Prop52
140
1.0
102
RTVSPost2010PropOp52
 70
     0
102
RTVSPost2010Prop53
 90
        2
102
RTVSPost2010PropOp53
 70
     1
102
RTVSPost2010Prop54
  1
strokes_ogs.tif
102
RTVSPost2010PropOp54
 70
     1
102
RTVSPost2010Prop55
280
     0
102
RTVSPost2010PropOp55
 70
     1
102
RTVSPost2010Prop56
140
1.0
102
RTVSPost2010PropOp56
 70
     1
102
RTVSPost2010Prop57
140
1.0
102
RTVSPost2010PropOp57
 70
     1
  0
XRECORD
  5
30C
102
{ACAD_REACTORS
330
30B
102
}
330
30B
100
AcDbXrecord
280
     1
102
RTVSPropertyOp0
 70
     1
102
RTVSPropertyOp1
 70
     1
102
RTVSPropertyOp2
 70
     1
102
RTVSPropertyOp3
 70
     1
102
RTVSPropertyOp4
 70
     1
102
RTVSPropertyOp5
 70
     1
102
RTVSPropertyOp6
 70
     1
102
RTVSPropertyOp7
 70
     1
102
RTVSPropertyOp8
 70
     1
102
RTVSPropertyOp9
 70
     1
102
RTVSPropertyOp10
 70
     1
102
RTVSPropertyOp11
 70
     1
102
RTVSPropertyOp12
 70
     1
102
RTVSPropertyOp13
 70
     1
102
RTVSPropertyOp14
 70
     1
102
RTVSPropertyOp15
 70
     1
102
RTVSPropertyOp16
 70
     1
102
RTVSPropertyOp17
 70
     1
102
RTVSPropertyOp18
 70
     1
102
RTVSPropertyOp19
 70
     1
102
RTVSPropertyOp20
 70
     1
102
RTVSPropertyOp21
 70
     1
102
RTVSPropertyOp22
 70
     1
102
RTVSPropertyOp23
 70
     1
102
RTVSPropertyOp24
 70
     1
102
RTVSPropertyOp25
 70
     1
102
RTVSPropertyOp26
 70
     1
102
RTVSPropertyOp27
 70
     1
102
RTVSPropertyOp28
 70
     1
102
RTVSPropertyOp29
 70
     1
102
RTVSPropertyOp30
 70
     1
102
RTVSPropertyOp31
 70
     1
102
RTVSPropertyOp32
 70
     1
102
RTVSPropertyOp33
 70
     1
102
RTVSPropertyOp34
 70
     1
102
RTVSPropertyOp35
 70
     1
102
RTVSPropertyOp36
 70
     1
102
RTVSPropertyOp37
 70
     1
102
RTVSPropertyOp38
 70
     1
102
RTVSPropertyOp39
 70
     1
102
RTVSPropertyOp40
 70
     1
102
RTVSPropertyOp41
 70
     1
102
RTVSPropertyOp42
 70
     1
102
RTVSPropertyOp43
 70
     1
102
RTVSPropertyOp44
 70
     1
102
RTVSPropertyOp45
 70
     1
102
RTVSPropertyOp46
 70
     1
102
RTVSPropertyOp47
 70
     1
102
RTVSPropertyOp48
 70
     1
102
RTVSPropertyOp49
 70
     1
102
RTVSPropertyOp50
 70
     1
102
RTVSPropertyOp51
 70
     0
102
RTVSPropertyOp52
 70
     0
102
RTVSPropertyOp53
 70
     1
102
RTVSPropertyOp54
 70
     1
102
RTVSPropertyOp55
 70
     1
102
RTVSPropertyOp56
 70
     1
102
RTVSPropertyOp57
 70
     1
102
RTVSPost2010Prop28
280
     0
102
RTVSPost2010PropOp28
 70
     1
102
RTVSPost2010Prop29
280
     1
102
RTVSPost2010PropOp29
 70
     1
102
RTVSPost2010Prop30
280
     1
102
RTVSPost2010PropOp30
 70
     1
102
RTVSPost2010Prop31
280
     0
102
RTVSPost2010PropOp31
 70
     1
102
RTVSPost2010Prop32
280
     0
102
RTVSPost2010PropOp32
 70
     1
102
RTVSPost2010Prop33
280
     0
102
RTVSPost2010PropOp33
 70
     1
102
RTVSPost2010Prop34
280
     0
102
RTVSPost2010PropOp34
 70
     1
102
RTVSPost2010Prop35
280
     0
102
RTVSPost2010PropOp35
 70
     1
102
RTVSPost2010Prop36
280
     0
102
RTVSPost2010PropOp36
 70
     1
102
RTVSPost2010Prop37
 90
       50
102
RTVSPost2010PropOp37
 70
     1
102
RTVSPost2010Prop38
140
0.0
102
RTVSPost2010PropOp38
 70
     1
102
RTVSPost2010Prop39
140
1.0
102
RTVSPost2010PropOp39
 70
     1
102
RTVSPost2010Prop40
 90
        0
102
RTVSPost2010PropOp40
 70
     1
102
RTVSPost2010Prop41ColorIndex
 90
       18
102
RTVSPost2010Prop41ColorRGB
 90
        0
102
RTVSPost2010PropOp41
 70
     1
102
RTVSPost2010Prop42
 90
       50
102
RTVSPost2010PropOp42
 70
     1
102
RTVSPost2010Prop43
 90
        3
102
RTVSPost2010PropOp43
 70
     1
102
RTVSPost2010Prop44ColorIndex
 90
        5
102
RTVSPost2010Prop44ColorRGB
 90
      255
102
RTVSPost2010PropOp44
 70
     1
102
RTVSPost2010Prop45
280
     0
102
RTVSPost2010PropOp45
 70
     1
102
RTVSPost2010Prop46
 90
       50
102
RTVSPost2010PropOp46
 70
     1
102
RTVSPost2010Prop47
 90
       50
102
RTVSPost2010PropOp47
 70
     1
102
RTVSPost2010Prop48
 90
       50
102
RTVSPost2010PropOp48
 70
     1
102
RTVSPost2010Prop49
280
     0
102
RTVSPost2010PropOp49
 70
     1
102
RTVSPost2010Prop50
 90
       50
102
RTVSPost2010PropOp50
 70
     1
102
RTVSPost2010Prop51ColorIndex
 90
      256
102
RTVSPost2010Prop51ColorRGB
 90
-16777216
102
RTVSPost2010PropOp51
 70
     0
102
RTVSPost2010Prop52
140
1.0
102
RTVSPost2010PropOp52
 70
     0
102
RTVSPost2010Prop53
 90
        2
102
RTVSPost2010PropOp53
 70
     1
102
RTVSPost2010Prop54
  1
strokes_ogs.tif
102
RTVSPost2010PropOp54
 70
     1
102
RTVSPost2010Prop55
280
     0
102
RTVSPost2010PropOp55
 70
     1
102
RTVSPost2010Prop56
140
1.0
102
RTVSPost2010PropOp56
 70
     1
102
RTVSPost2010Prop57
140
1.0
102
RTVSPost2010PropOp57
 70
     1
  0
XRECORD
  5
30E
102
{ACAD_REACTORS
330
30D
102
}
330
30D
100
AcDbXrecord
280
     1
102
RTVSPropertyOp0
 70
     1
102
RTVSPropertyOp1
 70
     1
102
RTVSPropertyOp2
 70
     1
102
RTVSPropertyOp3
 70
     1
102
RTVSPropertyOp4
 70
     1
102
RTVSPropertyOp5
 70
     1
102
RTVSPropertyOp6
 70
     1
102
RTVSPropertyOp7
 70
     1
102
RTVSPropertyOp8
 70
     1
102
RTVSPropertyOp9
 70
     1
102
RTVSPropertyOp10
 70
     1
102
RTVSPropertyOp11
 70
     1
102
RTVSPropertyOp12
 70
     1
102
RTVSPropertyOp13
 70
     1
102
RTVSPropertyOp14
 70
     1
102
RTVSPropertyOp15
 70
     1
102
RTVSPropertyOp16
 70
     1
102
RTVSPropertyOp17
 70
     1
102
RTVSPropertyOp18
 70
     1
102
RTVSPropertyOp19
 70
     1
102
RTVSPropertyOp20
 70
     1
102
RTVSPropertyOp21
 70
     1
102
RTVSPropertyOp22
 70
     1
102
RTVSPropertyOp23
 70
     1
102
RTVSPropertyOp24
 70
     1
102
RTVSPropertyOp25
 70
     1
102
RTVSPropertyOp26
 70
     1
102
RTVSPropertyOp27
 70
     1
102
RTVSPropertyOp28
 70
     1
102
RTVSPropertyOp29
 70
     1
102
RTVSPropertyOp30
 70
     1
102
RTVSPropertyOp31
 70
     1
102
RTVSPropertyOp32
 70
     1
102
RTVSPropertyOp33
 70
     1
102
RTVSPropertyOp34
 70
     1
102
RTVSPropertyOp35
 70
     1
102
RTVSPropertyOp36
 70
     1
102
RTVSPropertyOp37
 70
     1
102
RTVSPropertyOp38
 70
     1
102
RTVSPropertyOp39
 70
     1
102
RTVSPropertyOp40
 70
     1
102
RTVSPropertyOp41
 70
     1
102
RTVSPropertyOp42
 70
     1
102
RTVSPropertyOp43
 70
     1
102
RTVSPropertyOp44
 70
     1
102
RTVSPropertyOp45
 70
     1
102
RTVSPropertyOp46
 70
     1
102
RTVSPropertyOp47
 70
     1
102
RTVSPropertyOp48
 70
     1
102
RTVSPropertyOp49
 70
     1
102
RTVSPropertyOp50
 70
     1
102
RTVSPropertyOp51
 70
     0
102
RTVSPropertyOp52
 70
     0
102
RTVSPropertyOp53
 70
     1
102
RTVSPropertyOp54
 70
     1
102
RTVSPropertyOp55
 70
     1
102
RTVSPropertyOp56
 70
     1
102
RTVSPropertyOp57
 70
     1
102
RTVSPost2010Prop28
280
     0
102
RTVSPost2010PropOp28
 70
     1
102
RTVSPost2010Prop29
280
     1
102
RTVSPost2010PropOp29
 70
     1
102
RTVSPost2010Prop30
280
     1
102
RTVSPost2010PropOp30
 70
     1
102
RTVSPost2010Prop31
280
     0
102
RTVSPost2010PropOp31
 70
     1
102
RTVSPost2010Prop32
280
     0
102
RTVSPost2010PropOp32
 70
     1
102
RTVSPost2010Prop33
280
     0
102
RTVSPost2010PropOp33
 70
     1
102
RTVSPost2010Prop34
280
     0
102
RTVSPost2010PropOp34
 70
     1
102
RTVSPost2010Prop35
280
     0
102
RTVSPost2010PropOp35
 70
     1
102
RTVSPost2010Prop36
280
     0
102
RTVSPost2010PropOp36
 70
     1
102
RTVSPost2010Prop37
 90
       50
102
RTVSPost2010PropOp37
 70
     1
102
RTVSPost2010Prop38
140
0.0
102
RTVSPost2010PropOp38
 70
     1
102
RTVSPost2010Prop39
140
1.0
102
RTVSPost2010PropOp39
 70
     1
102
RTVSPost2010Prop40
 90
        0
102
RTVSPost2010PropOp40
 70
     1
102
RTVSPost2010Prop41ColorIndex
 90
       18
102
RTVSPost2010Prop41ColorRGB
 90
        0
102
RTVSPost2010PropOp41
 70
     1
102
RTVSPost2010Prop42
 90
       50
102
RTVSPost2010PropOp42
 70
     1
102
RTVSPost2010Prop43
 90
        3
102
RTVSPost2010PropOp43
 70
     1
102
RTVSPost2010Prop44ColorIndex
 90
        5
102
RTVSPost2010Prop44ColorRGB
 90
      255
102
RTVSPost2010PropOp44
 70
     1
102
RTVSPost2010Prop45
280
     0
102
RTVSPost2010PropOp45
 70
     1
102
RTVSPost2010Prop46
 90
       50
102
RTVSPost2010PropOp46
 70
     1
102
RTVSPost2010Prop47
 90
       50
102
RTVSPost2010PropOp47
 70
     1
102
RTVSPost2010Prop48
 90
       50
102
RTVSPost2010PropOp48
 70
     1
102
RTVSPost2010Prop49
280
     0
102
RTVSPost2010PropOp49
 70
     1
102
RTVSPost2010Prop50
 90
       50
102
RTVSPost2010PropOp50
 70
     1
102
RTVSPost2010Prop51ColorIndex
 90
      256
102
RTVSPost2010Prop51ColorRGB
 90
-16777216
102
RTVSPost2010PropOp51
 70
     0
102
RTVSPost2010Prop52
140
1.0
102
RTVSPost2010PropOp52
 70
     0
102
RTVSPost2010Prop53
 90
        2
102
RTVSPost2010PropOp53
 70
     1
102
RTVSPost2010Prop54
  1
strokes_ogs.tif
102
RTVSPost2010PropOp54
 70
     1
102
RTVSPost2010Prop55
280
     0
102
RTVSPost2010PropOp55
 70
     1
102
RTVSPost2010Prop56
140
1.0
102
RTVSPost2010PropOp56
 70
     1
102
RTVSPost2010Prop57
140
1.0
102
RTVSPost2010PropOp57
 70
     1
  0
XRECORD
  5
310
102
{ACAD_REACTORS
330
30F
102
}
330
30F
100
AcDbXrecord
280
     1
102
RTVSPropertyOp0
 70
     1
102
RTVSPropertyOp1
 70
     1
102
RTVSPropertyOp2
 70
     1
102
RTVSPropertyOp3
 70
     1
102
RTVSPropertyOp4
 70
     1
102
RTVSPropertyOp5
 70
     1
102
RTVSPropertyOp6
 70
     1
102
RTVSPropertyOp7
 70
     1
102
RTVSPropertyOp8
 70
     1
102
RTVSPropertyOp9
 70
     1
102
RTVSPropertyOp10
 70
     1
102
RTVSPropertyOp11
 70
     1
102
RTVSPropertyOp12
 70
     1
102
RTVSPropertyOp13
 70
     1
102
RTVSPropertyOp14
 70
     1
102
RTVSPropertyOp15
 70
     1
102
RTVSPropertyOp16
 70
     1
102
RTVSPropertyOp17
 70
     1
102
RTVSPropertyOp18
 70
     1
102
RTVSPropertyOp19
 70
     1
102
RTVSPropertyOp20
 70
     1
102
RTVSPropertyOp21
 70
     1
102
RTVSPropertyOp22
 70
     1
102
RTVSPropertyOp23
 70
     1
102
RTVSPropertyOp24
 70
     1
102
RTVSPropertyOp25
 70
     1
102
RTVSPropertyOp26
 70
     1
102
RTVSPropertyOp27
 70
     1
102
RTVSPropertyOp28
 70
     1
102
RTVSPropertyOp29
 70
     1
102
RTVSPropertyOp30
 70
     1
102
RTVSPropertyOp31
 70
     1
102
RTVSPropertyOp32
 70
     1
102
RTVSPropertyOp33
 70
     1
102
RTVSPropertyOp34
 70
     1
102
RTVSPropertyOp35
 70
     1
102
RTVSPropertyOp36
 70
     1
102
RTVSPropertyOp37
 70
     1
102
RTVSPropertyOp38
 70
     1
102
RTVSPropertyOp39
 70
     1
102
RTVSPropertyOp40
 70
     1
102
RTVSPropertyOp41
 70
     1
102
RTVSPropertyOp42
 70
     1
102
RTVSPropertyOp43
 70
     1
102
RTVSPropertyOp44
 70
     1
102
RTVSPropertyOp45
 70
     1
102
RTVSPropertyOp46
 70
     1
102
RTVSPropertyOp47
 70
     1
102
RTVSPropertyOp48
 70
     1
102
RTVSPropertyOp49
 70
     1
102
RTVSPropertyOp50
 70
     1
102
RTVSPropertyOp51
 70
     0
102
RTVSPropertyOp52
 70
     0
102
RTVSPropertyOp53
 70
     1
102
RTVSPropertyOp54
 70
     1
102
RTVSPropertyOp55
 70
     1
102
RTVSPropertyOp56
 70
     1
102
RTVSPropertyOp57
 70
     1
102
RTVSPost2010Prop28
280
     0
102
RTVSPost2010PropOp28
 70
     1
102
RTVSPost2010Prop29
280
     1
102
RTVSPost2010PropOp29
 70
     1
102
RTVSPost2010Prop30
280
     1
102
RTVSPost2010PropOp30
 70
     1
102
RTVSPost2010Prop31
280
     0
102
RTVSPost2010PropOp31
 70
     1
102
RTVSPost2010Prop32
280
     0
102
RTVSPost2010PropOp32
 70
     1
102
RTVSPost2010Prop33
280
     0
102
RTVSPost2010PropOp33
 70
     1
102
RTVSPost2010Prop34
280
     0
102
RTVSPost2010PropOp34
 70
     1
102
RTVSPost2010Prop35
280
     0
102
RTVSPost2010PropOp35
 70
     1
102
RTVSPost2010Prop36
280
     0
102
RTVSPost2010PropOp36
 70
     1
102
RTVSPost2010Prop37
 90
       50
102
RTVSPost2010PropOp37
 70
     1
102
RTVSPost2010Prop38
140
0.0
102
RTVSPost2010PropOp38
 70
     1
102
RTVSPost2010Prop39
140
1.0
102
RTVSPost2010PropOp39
 70
     1
102
RTVSPost2010Prop40
 90
        0
102
RTVSPost2010PropOp40
 70
     1
102
RTVSPost2010Prop41ColorIndex
 90
       18
102
RTVSPost2010Prop41ColorRGB
 90
        0
102
RTVSPost2010PropOp41
 70
     1
102
RTVSPost2010Prop42
 90
       50
102
RTVSPost2010PropOp42
 70
     1
102
RTVSPost2010Prop43
 90
        3
102
RTVSPost2010PropOp43
 70
     1
102
RTVSPost2010Prop44ColorIndex
 90
        5
102
RTVSPost2010Prop44ColorRGB
 90
      255
102
RTVSPost2010PropOp44
 70
     1
102
RTVSPost2010Prop45
280
     0
102
RTVSPost2010PropOp45
 70
     1
102
RTVSPost2010Prop46
 90
       50
102
RTVSPost2010PropOp46
 70
     1
102
RTVSPost2010Prop47
 90
       50
102
RTVSPost2010PropOp47
 70
     1
102
RTVSPost2010Prop48
 90
       50
102
RTVSPost2010PropOp48
 70
     1
102
RTVSPost2010Prop49
280
     0
102
RTVSPost2010PropOp49
 70
     1
102
RTVSPost2010Prop50
 90
       50
102
RTVSPost2010PropOp50
 70
     1
102
RTVSPost2010Prop51ColorIndex
 90
      256
102
RTVSPost2010Prop51ColorRGB
 90
-16777216
102
RTVSPost2010PropOp51
 70
     0
102
RTVSPost2010Prop52
140
1.0
102
RTVSPost2010PropOp52
 70
     0
102
RTVSPost2010Prop53
 90
        2
102
RTVSPost2010PropOp53
 70
     1
102
RTVSPost2010Prop54
  1
strokes_ogs.tif
102
RTVSPost2010PropOp54
 70
     1
102
RTVSPost2010Prop55
280
     0
102
RTVSPost2010PropOp55
 70
     1
102
RTVSPost2010Prop56
140
1.0
102
RTVSPost2010PropOp56
 70
     1
102
RTVSPost2010Prop57
140
1.0
102
RTVSPost2010PropOp57
 70
     1
  0
XRECORD
  5
312
102
{ACAD_REACTORS
330
311
102
}
330
311
100
AcDbXrecord
280
     1
102
RTVSPropertyOp0
 70
     1
102
RTVSPropertyOp1
 70
     1
102
RTVSPropertyOp2
 70
     1
102
RTVSPropertyOp3
 70
     1
102
RTVSPropertyOp4
 70
     1
102
RTVSPropertyOp5
 70
     1
102
RTVSPropertyOp6
 70
     1
102
RTVSPropertyOp7
 70
     1
102
RTVSPropertyOp8
 70
     1
102
RTVSPropertyOp9
 70
     1
102
RTVSPropertyOp10
 70
     1
102
RTVSPropertyOp11
 70
     1
102
RTVSPropertyOp12
 70
     1
102
RTVSPropertyOp13
 70
     1
102
RTVSPropertyOp14
 70
     1
102
RTVSPropertyOp15
 70
     1
102
RTVSPropertyOp16
 70
     1
102
RTVSPropertyOp17
 70
     1
102
RTVSPropertyOp18
 70
     1
102
RTVSPropertyOp19
 70
     1
102
RTVSPropertyOp20
 70
     1
102
RTVSPropertyOp21
 70
     1
102
RTVSPropertyOp22
 70
     1
102
RTVSPropertyOp23
 70
     1
102
RTVSPropertyOp24
 70
     1
102
RTVSPropertyOp25
 70
     1
102
RTVSPropertyOp26
 70
     1
102
RTVSPropertyOp27
 70
     1
102
RTVSPropertyOp28
 70
     1
102
RTVSPropertyOp29
 70
     1
102
RTVSPropertyOp30
 70
     1
102
RTVSPropertyOp31
 70
     1
102
RTVSPropertyOp32
 70
     1
102
RTVSPropertyOp33
 70
     1
102
RTVSPropertyOp34
 70
     1
102
RTVSPropertyOp35
 70
     1
102
RTVSPropertyOp36
 70
     1
102
RTVSPropertyOp37
 70
     1
102
RTVSPropertyOp38
 70
     1
102
RTVSPropertyOp39
 70
     1
102
RTVSPropertyOp40
 70
     1
102
RTVSPropertyOp41
 70
     1
102
RTVSPropertyOp42
 70
     1
102
RTVSPropertyOp43
 70
     1
102
RTVSPropertyOp44
 70
     1
102
RTVSPropertyOp45
 70
     1
102
RTVSPropertyOp46
 70
     1
102
RTVSPropertyOp47
 70
     1
102
RTVSPropertyOp48
 70
     1
102
RTVSPropertyOp49
 70
     1
102
RTVSPropertyOp50
 70
     1
102
RTVSPropertyOp51
 70
     0
102
RTVSPropertyOp52
 70
     0
102
RTVSPropertyOp53
 70
     1
102
RTVSPropertyOp54
 70
     1
102
RTVSPropertyOp55
 70
     1
102
RTVSPropertyOp56
 70
     1
102
RTVSPropertyOp57
 70
     1
102
RTVSPost2010Prop28
280
     0
102
RTVSPost2010PropOp28
 70
     1
102
RTVSPost2010Prop29
280
     1
102
RTVSPost2010PropOp29
 70
     1
102
RTVSPost2010Prop30
280
     1
102
RTVSPost2010PropOp30
 70
     1
102
RTVSPost2010Prop31
280
     0
102
RTVSPost2010PropOp31
 70
     1
102
RTVSPost2010Prop32
280
     0
102
RTVSPost2010PropOp32
 70
     1
102
RTVSPost2010Prop33
280
     0
102
RTVSPost2010PropOp33
 70
     1
102
RTVSPost2010Prop34
280
     0
102
RTVSPost2010PropOp34
 70
     1
102
RTVSPost2010Prop35
280
     0
102
RTVSPost2010PropOp35
 70
     1
102
RTVSPost2010Prop36
280
     0
102
RTVSPost2010PropOp36
 70
     1
102
RTVSPost2010Prop37
 90
       50
102
RTVSPost2010PropOp37
 70
     1
102
RTVSPost2010Prop38
140
0.0
102
RTVSPost2010PropOp38
 70
     1
102
RTVSPost2010Prop39
140
1.0
102
RTVSPost2010PropOp39
 70
     1
102
RTVSPost2010Prop40
 90
        0
102
RTVSPost2010PropOp40
 70
     1
102
RTVSPost2010Prop41ColorIndex
 90
       18
102
RTVSPost2010Prop41ColorRGB
 90
        0
102
RTVSPost2010PropOp41
 70
     1
102
RTVSPost2010Prop42
 90
       50
102
RTVSPost2010PropOp42
 70
     1
102
RTVSPost2010Prop43
 90
        3
102
RTVSPost2010PropOp43
 70
     1
102
RTVSPost2010Prop44ColorIndex
 90
        5
102
RTVSPost2010Prop44ColorRGB
 90
      255
102
RTVSPost2010PropOp44
 70
     1
102
RTVSPost2010Prop45
280
     0
102
RTVSPost2010PropOp45
 70
     1
102
RTVSPost2010Prop46
 90
       50
102
RTVSPost2010PropOp46
 70
     1
102
RTVSPost2010Prop47
 90
       50
102
RTVSPost2010PropOp47
 70
     1
102
RTVSPost2010Prop48
 90
       50
102
RTVSPost2010PropOp48
 70
     1
102
RTVSPost2010Prop49
280
     0
102
RTVSPost2010PropOp49
 70
     1
102
RTVSPost2010Prop50
 90
       50
102
RTVSPost2010PropOp50
 70
     1
102
RTVSPost2010Prop51ColorIndex
 90
      256
102
RTVSPost2010Prop51ColorRGB
 90
-16777216
102
RTVSPost2010PropOp51
 70
     0
102
RTVSPost2010Prop52
140
1.0
102
RTVSPost2010PropOp52
 70
     0
102
RTVSPost2010Prop53
 90
        2
102
RTVSPost2010PropOp53
 70
     1
102
RTVSPost2010Prop54
  1
strokes_ogs.tif
102
RTVSPost2010PropOp54
 70
     1
102
RTVSPost2010Prop55
280
     0
102
RTVSPost2010PropOp55
 70
     1
102
RTVSPost2010Prop56
140
1.0
102
RTVSPost2010PropOp56
 70
     1
102
RTVSPost2010Prop57
140
1.0
102
RTVSPost2010PropOp57
 70
     1
  0
XRECORD
  5
318
102
{ACAD_REACTORS
330
317
102
}
330
317
100
AcDbXrecord
280
     1
102
RTVSPropertyOp0
 70
     1
102
RTVSPropertyOp1
 70
     1
102
RTVSPropertyOp2
 70
     1
102
RTVSPropertyOp3
 70
     1
102
RTVSPropertyOp4
 70
     1
102
RTVSPropertyOp5
 70
     1
102
RTVSPropertyOp6
 70
     1
102
RTVSPropertyOp7
 70
     1
102
RTVSPropertyOp8
 70
     1
102
RTVSPropertyOp9
 70
     1
102
RTVSPropertyOp10
 70
     1
102
RTVSPropertyOp11
 70
     1
102
RTVSPropertyOp12
 70
     1
102
RTVSPropertyOp13
 70
     1
102
RTVSPropertyOp14
 70
     1
102
RTVSPropertyOp15
 70
     1
102
RTVSPropertyOp16
 70
     1
102
RTVSPropertyOp17
 70
     1
102
RTVSPropertyOp18
 70
     1
102
RTVSPropertyOp19
 70
     1
102
RTVSPropertyOp20
 70
     1
102
RTVSPropertyOp21
 70
     1
102
RTVSPropertyOp22
 70
     1
102
RTVSPropertyOp23
 70
     1
102
RTVSPropertyOp24
 70
     1
102
RTVSPropertyOp25
 70
     1
102
RTVSPropertyOp26
 70
     1
102
RTVSPropertyOp27
 70
     1
102
RTVSPropertyOp28
 70
     1
102
RTVSPropertyOp29
 70
     1
102
RTVSPropertyOp30
 70
     1
102
RTVSPropertyOp31
 70
     1
102
RTVSPropertyOp32
 70
     1
102
RTVSPropertyOp33
 70
     1
102
RTVSPropertyOp34
 70
     1
102
RTVSPropertyOp35
 70
     1
102
RTVSPropertyOp36
 70
     1
102
RTVSPropertyOp37
 70
     1
102
RTVSPropertyOp38
 70
     1
102
RTVSPropertyOp39
 70
     1
102
RTVSPropertyOp40
 70
     1
102
RTVSPropertyOp41
 70
     1
102
RTVSPropertyOp42
 70
     1
102
RTVSPropertyOp43
 70
     1
102
RTVSPropertyOp44
 70
     1
102
RTVSPropertyOp45
 70
     1
102
RTVSPropertyOp46
 70
     1
102
RTVSPropertyOp47
 70
     1
102
RTVSPropertyOp48
 70
     1
102
RTVSPropertyOp49
 70
     1
102
RTVSPropertyOp50
 70
     1
102
RTVSPropertyOp51
 70
     0
102
RTVSPropertyOp52
 70
     0
102
RTVSPropertyOp53
 70
     1
102
RTVSPropertyOp54
 70
     1
102
RTVSPropertyOp55
 70
     1
102
RTVSPropertyOp56
 70
     1
102
RTVSPropertyOp57
 70
     1
102
RTVSPost2010Prop28
280
     0
102
RTVSPost2010PropOp28
 70
     1
102
RTVSPost2010Prop29
280
     1
102
RTVSPost2010PropOp29
 70
     1
102
RTVSPost2010Prop30
280
     1
102
RTVSPost2010PropOp30
 70
     1
102
RTVSPost2010Prop31
280
     0
102
RTVSPost2010PropOp31
 70
     1
102
RTVSPost2010Prop32
280
     0
102
RTVSPost2010PropOp32
 70
     1
102
RTVSPost2010Prop33
280
     0
102
RTVSPost2010PropOp33
 70
     1
102
RTVSPost2010Prop34
280
     0
102
RTVSPost2010PropOp34
 70
     1
102
RTVSPost2010Prop35
280
     0
102
RTVSPost2010PropOp35
 70
     1
102
RTVSPost2010Prop36
280
     0
102
RTVSPost2010PropOp36
 70
     1
102
RTVSPost2010Prop37
 90
       50
102
RTVSPost2010PropOp37
 70
     1
102
RTVSPost2010Prop38
140
0.0
102
RTVSPost2010PropOp38
 70
     1
102
RTVSPost2010Prop39
140
1.0
102
RTVSPost2010PropOp39
 70
     1
102
RTVSPost2010Prop40
 90
        0
102
RTVSPost2010PropOp40
 70
     1
102
RTVSPost2010Prop41ColorIndex
 90
       18
102
RTVSPost2010Prop41ColorRGB
 90
        0
102
RTVSPost2010PropOp41
 70
     1
102
RTVSPost2010Prop42
 90
       50
102
RTVSPost2010PropOp42
 70
     1
102
RTVSPost2010Prop43
 90
        3
102
RTVSPost2010PropOp43
 70
     1
102
RTVSPost2010Prop44ColorIndex
 90
        5
102
RTVSPost2010Prop44ColorRGB
 90
      255
102
RTVSPost2010PropOp44
 70
     1
102
RTVSPost2010Prop45
280
     0
102
RTVSPost2010PropOp45
 70
     1
102
RTVSPost2010Prop46
 90
       50
102
RTVSPost2010PropOp46
 70
     1
102
RTVSPost2010Prop47
 90
       50
102
RTVSPost2010PropOp47
 70
     1
102
RTVSPost2010Prop48
 90
       50
102
RTVSPost2010PropOp48
 70
     1
102
RTVSPost2010Prop49
280
     0
102
RTVSPost2010PropOp49
 70
     1
102
RTVSPost2010Prop50
 90
       50
102
RTVSPost2010PropOp50
 70
     1
102
RTVSPost2010Prop51ColorIndex
 90
      256
102
RTVSPost2010Prop51ColorRGB
 90
-16777216
102
RTVSPost2010PropOp51
 70
     0
102
RTVSPost2010Prop52
140
1.0
102
RTVSPost2010PropOp52
 70
     0
102
RTVSPost2010Prop53
 90
        2
102
RTVSPost2010PropOp53
 70
     1
102
RTVSPost2010Prop54
  1
strokes_ogs.tif
102
RTVSPost2010PropOp54
 70
     1
102
RTVSPost2010Prop55
280
     0
102
RTVSPost2010PropOp55
 70
     1
102
RTVSPost2010Prop56
140
1.0
102
RTVSPost2010PropOp56
 70
     1
102
RTVSPost2010Prop57
140
1.0
102
RTVSPost2010PropOp57
 70
     1
  0
XRECORD
  5
32C
102
{ACAD_REACTORS
330
32B
102
}
330
32B
100
AcDbXrecord
280
     1
102
RTVSPropertyOp0
 70
     0
102
RTVSPropertyOp1
 70
     0
102
RTVSPropertyOp2
 70
     0
102
RTVSPropertyOp3
 70
     0
102
RTVSPropertyOp4
 70
     0
102
RTVSPropertyOp5
 70
     0
102
RTVSPropertyOp6
 70
     0
102
RTVSPropertyOp7
 70
     0
102
RTVSPropertyOp8
 70
     0
102
RTVSPropertyOp9
 70
     0
102
RTVSPropertyOp10
 70
     0
102
RTVSPropertyOp11
 70
     0
102
RTVSPropertyOp12
 70
     0
102
RTVSPropertyOp13
 70
     0
102
RTVSPropertyOp14
 70
     2
102
RTVSPropertyOp15
 70
     0
102
RTVSPropertyOp16
 70
     0
102
RTVSPropertyOp17
 70
     0
102
RTVSPropertyOp18
 70
     0
102
RTVSPropertyOp19
 70
     0
102
RTVSPropertyOp20
 70
     0
102
RTVSPropertyOp21
 70
     0
102
RTVSPropertyOp22
 70
     0
102
RTVSPropertyOp23
 70
     0
102
RTVSPropertyOp24
 70
     0
102
RTVSPropertyOp25
 70
     0
102
RTVSPropertyOp26
 70
     0
102
RTVSPropertyOp27
 70
     0
102
RTVSPropertyOp28
 70
     0
102
RTVSPropertyOp29
 70
     0
102
RTVSPropertyOp30
 70
     0
102
RTVSPropertyOp31
 70
     0
102
RTVSPropertyOp32
 70
     0
102
RTVSPropertyOp33
 70
     0
102
RTVSPropertyOp34
 70
     0
102
RTVSPropertyOp35
 70
     0
102
RTVSPropertyOp36
 70
     0
102
RTVSPropertyOp37
 70
     0
102
RTVSPropertyOp38
 70
     0
102
RTVSPropertyOp39
 70
     0
102
RTVSPropertyOp40
 70
     0
102
RTVSPropertyOp41
 70
     0
102
RTVSPropertyOp42
 70
     0
102
RTVSPropertyOp43
 70
     0
102
RTVSPropertyOp44
 70
     0
102
RTVSPropertyOp45
 70
     0
102
RTVSPropertyOp46
 70
     0
102
RTVSPropertyOp47
 70
     0
102
RTVSPropertyOp48
 70
     0
102
RTVSPropertyOp49
 70
     0
102
RTVSPropertyOp50
 70
     0
102
RTVSPropertyOp51
 70
     0
102
RTVSPropertyOp52
 70
     0
102
RTVSPropertyOp53
 70
     0
102
RTVSPropertyOp54
 70
     0
102
RTVSPropertyOp55
 70
     0
102
RTVSPropertyOp56
 70
     0
102
RTVSPropertyOp57
 70
     0
102
RTVSPost2010Prop28
280
     0
102
RTVSPost2010PropOp28
 70
     0
102
RTVSPost2010Prop29
280
     1
102
RTVSPost2010PropOp29
 70
     0
102
RTVSPost2010Prop30
280
     1
102
RTVSPost2010PropOp30
 70
     0
102
RTVSPost2010Prop31
280
     0
102
RTVSPost2010PropOp31
 70
     0
102
RTVSPost2010Prop32
280
     0
102
RTVSPost2010PropOp32
 70
     0
102
RTVSPost2010Prop33
280
     0
102
RTVSPost2010PropOp33
 70
     0
102
RTVSPost2010Prop34
280
     0
102
RTVSPost2010PropOp34
 70
     0
102
RTVSPost2010Prop35
280
     0
102
RTVSPost2010PropOp35
 70
     0
102
RTVSPost2010Prop36
280
     0
102
RTVSPost2010PropOp36
 70
     0
102
RTVSPost2010Prop37
 90
       50
102
RTVSPost2010PropOp37
 70
     0
102
RTVSPost2010Prop38
140
0.0
102
RTVSPost2010PropOp38
 70
     0
102
RTVSPost2010Prop39
140
1.0
102
RTVSPost2010PropOp39
 70
     0
102
RTVSPost2010Prop40
 90
        0
102
RTVSPost2010PropOp40
 70
     0
102
RTVSPost2010Prop41ColorIndex
 90
       18
102
RTVSPost2010Prop41ColorRGB
 90
        0
102
RTVSPost2010PropOp41
 70
     0
102
RTVSPost2010Prop42
 90
       50
102
RTVSPost2010PropOp42
 70
     0
102
RTVSPost2010Prop43
 90
        3
102
RTVSPost2010PropOp43
 70
     0
102
RTVSPost2010Prop44ColorIndex
 90
        5
102
RTVSPost2010Prop44ColorRGB
 90
      255
102
RTVSPost2010PropOp44
 70
     0
102
RTVSPost2010Prop45
280
     0
102
RTVSPost2010PropOp45
 70
     0
102
RTVSPost2010Prop46
 90
       50
102
RTVSPost2010PropOp46
 70
     0
102
RTVSPost2010Prop47
 90
       50
102
RTVSPost2010PropOp47
 70
     0
102
RTVSPost2010Prop48
 90
       50
102
RTVSPost2010PropOp48
 70
     0
102
RTVSPost2010Prop49
280
     0
102
RTVSPost2010PropOp49
 70
     0
102
RTVSPost2010Prop50
 90
       50
102
RTVSPost2010PropOp50
 70
     0
102
RTVSPost2010Prop51ColorIndex
 90
      256
102
RTVSPost2010Prop51ColorRGB
 90
-16777216
102
RTVSPost2010PropOp51
 70
     0
102
RTVSPost2010Prop52
140
1.0
102
RTVSPost2010PropOp52
 70
     0
102
RTVSPost2010Prop53
 90
        2
102
RTVSPost2010PropOp53
 70
     0
102
RTVSPost2010Prop54
  1
strokes_ogs.tif
102
RTVSPost2010PropOp54
 70
     0
102
RTVSPost2010Prop55
280
     0
102
RTVSPost2010PropOp55
 70
     0
102
RTVSPost2010Prop56
140
1.0
102
RTVSPost2010PropOp56
 70
     0
102
RTVSPost2010Prop57
140
1.0
102
RTVSPost2010PropOp57
 70
     0
  0
XRECORD
  5
326
102
{ACAD_REACTORS
330
325
102
}
330
325
100
AcDbXrecord
280
     1
102
RTVSPropertyOp0
 70
     1
102
RTVSPropertyOp1
 70
     1
102
RTVSPropertyOp2
 70
     1
102
RTVSPropertyOp3
 70
     1
102
RTVSPropertyOp4
 70
     1
102
RTVSPropertyOp5
 70
     1
102
RTVSPropertyOp6
 70
     1
102
RTVSPropertyOp7
 70
     1
102
RTVSPropertyOp8
 70
     1
102
RTVSPropertyOp9
 70
     1
102
RTVSPropertyOp10
 70
     1
102
RTVSPropertyOp11
 70
     1
102
RTVSPropertyOp12
 70
     1
102
RTVSPropertyOp13
 70
     1
102
RTVSPropertyOp14
 70
     1
102
RTVSPropertyOp15
 70
     1
102
RTVSPropertyOp16
 70
     1
102
RTVSPropertyOp17
 70
     1
102
RTVSPropertyOp18
 70
     1
102
RTVSPropertyOp19
 70
     1
102
RTVSPropertyOp20
 70
     1
102
RTVSPropertyOp21
 70
     1
102
RTVSPropertyOp22
 70
     1
102
RTVSPropertyOp23
 70
     1
102
RTVSPropertyOp24
 70
     1
102
RTVSPropertyOp25
 70
     1
102
RTVSPropertyOp26
 70
     1
102
RTVSPropertyOp27
 70
     1
102
RTVSPropertyOp28
 70
     1
102
RTVSPropertyOp29
 70
     1
102
RTVSPropertyOp30
 70
     1
102
RTVSPropertyOp31
 70
     1
102
RTVSPropertyOp32
 70
     1
102
RTVSPropertyOp33
 70
     1
102
RTVSPropertyOp34
 70
     1
102
RTVSPropertyOp35
 70
     1
102
RTVSPropertyOp36
 70
     1
102
RTVSPropertyOp37
 70
     1
102
RTVSPropertyOp38
 70
     1
102
RTVSPropertyOp39
 70
     1
102
RTVSPropertyOp40
 70
     1
102
RTVSPropertyOp41
 70
     1
102
RTVSPropertyOp42
 70
     1
102
RTVSPropertyOp43
 70
     1
102
RTVSPropertyOp44
 70
     1
102
RTVSPropertyOp45
 70
     1
102
RTVSPropertyOp46
 70
     1
102
RTVSPropertyOp47
 70
     1
102
RTVSPropertyOp48
 70
     1
102
RTVSPropertyOp49
 70
     1
102
RTVSPropertyOp50
 70
     1
102
RTVSPropertyOp51
 70
     0
102
RTVSPropertyOp52
 70
     0
102
RTVSPropertyOp53
 70
     1
102
RTVSPropertyOp54
 70
     1
102
RTVSPropertyOp55
 70
     1
102
RTVSPropertyOp56
 70
     1
102
RTVSPropertyOp57
 70
     1
102
RTVSPost2010Prop28
280
     0
102
RTVSPost2010PropOp28
 70
     1
102
RTVSPost2010Prop29
280
     1
102
RTVSPost2010PropOp29
 70
     1
102
RTVSPost2010Prop30
280
     1
102
RTVSPost2010PropOp30
 70
     1
102
RTVSPost2010Prop31
280
     0
102
RTVSPost2010PropOp31
 70
     1
102
RTVSPost2010Prop32
280
     0
102
RTVSPost2010PropOp32
 70
     1
102
RTVSPost2010Prop33
280
     0
102
RTVSPost2010PropOp33
 70
     1
102
RTVSPost2010Prop34
280
     0
102
RTVSPost2010PropOp34
 70
     1
102
RTVSPost2010Prop35
280
     0
102
RTVSPost2010PropOp35
 70
     1
102
RTVSPost2010Prop36
280
     0
102
RTVSPost2010PropOp36
 70
     1
102
RTVSPost2010Prop37
 90
       50
102
RTVSPost2010PropOp37
 70
     1
102
RTVSPost2010Prop38
140
0.0
102
RTVSPost2010PropOp38
 70
     1
102
RTVSPost2010Prop39
140
1.0
102
RTVSPost2010PropOp39
 70
     1
102
RTVSPost2010Prop40
 90
        0
102
RTVSPost2010PropOp40
 70
     1
102
RTVSPost2010Prop41ColorIndex
 90
       18
102
RTVSPost2010Prop41ColorRGB
 90
        0
102
RTVSPost2010PropOp41
 70
     1
102
RTVSPost2010Prop42
 90
       50
102
RTVSPost2010PropOp42
 70
     1
102
RTVSPost2010Prop43
 90
        3
102
RTVSPost2010PropOp43
 70
     1
102
RTVSPost2010Prop44ColorIndex
 90
        5
102
RTVSPost2010Prop44ColorRGB
 90
      255
102
RTVSPost2010PropOp44
 70
     1
102
RTVSPost2010Prop45
280
     0
102
RTVSPost2010PropOp45
 70
     1
102
RTVSPost2010Prop46
 90
       50
102
RTVSPost2010PropOp46
 70
     1
102
RTVSPost2010Prop47
 90
       50
102
RTVSPost2010PropOp47
 70
     1
102
RTVSPost2010Prop48
 90
       50
102
RTVSPost2010PropOp48
 70
     1
102
RTVSPost2010Prop49
280
     0
102
RTVSPost2010PropOp49
 70
     1
102
RTVSPost2010Prop50
 90
       50
102
RTVSPost2010PropOp50
 70
     1
102
RTVSPost2010Prop51ColorIndex
 90
      256
102
RTVSPost2010Prop51ColorRGB
 90
-16777216
102
RTVSPost2010PropOp51
 70
     0
102
RTVSPost2010Prop52
140
1.0
102
RTVSPost2010PropOp52
 70
     0
102
RTVSPost2010Prop53
 90
        2
102
RTVSPost2010PropOp53
 70
     1
102
RTVSPost2010Prop54
  1
strokes_ogs.tif
102
RTVSPost2010PropOp54
 70
     1
102
RTVSPost2010Prop55
280
     0
102
RTVSPost2010PropOp55
 70
     1
102
RTVSPost2010Prop56
140
1.0
102
RTVSPost2010PropOp56
 70
     1
102
RTVSPost2010Prop57
140
1.0
102
RTVSPost2010PropOp57
 70
     1
  0
XRECORD
  5
32E
102
{ACAD_REACTORS
330
32D
102
}
330
32D
100
AcDbXrecord
280
     1
102
RTVSPropertyOp0
 70
     0
102
RTVSPropertyOp1
 70
     0
102
RTVSPropertyOp2
 70
     0
102
RTVSPropertyOp3
 70
     0
102
RTVSPropertyOp4
 70
     0
102
RTVSPropertyOp5
 70
     0
102
RTVSPropertyOp6
 70
     0
102
RTVSPropertyOp7
 70
     0
102
RTVSPropertyOp8
 70
     0
102
RTVSPropertyOp9
 70
     0
102
RTVSPropertyOp10
 70
     0
102
RTVSPropertyOp11
 70
     0
102
RTVSPropertyOp12
 70
     0
102
RTVSPropertyOp13
 70
     0
102
RTVSPropertyOp14
 70
     2
102
RTVSPropertyOp15
 70
     0
102
RTVSPropertyOp16
 70
     0
102
RTVSPropertyOp17
 70
     0
102
RTVSPropertyOp18
 70
     0
102
RTVSPropertyOp19
 70
     0
102
RTVSPropertyOp20
 70
     0
102
RTVSPropertyOp21
 70
     0
102
RTVSPropertyOp22
 70
     0
102
RTVSPropertyOp23
 70
     0
102
RTVSPropertyOp24
 70
     0
102
RTVSPropertyOp25
 70
     0
102
RTVSPropertyOp26
 70
     0
102
RTVSPropertyOp27
 70
     0
102
RTVSPropertyOp28
 70
     0
102
RTVSPropertyOp29
 70
     0
102
RTVSPropertyOp30
 70
     0
102
RTVSPropertyOp31
 70
     0
102
RTVSPropertyOp32
 70
     0
102
RTVSPropertyOp33
 70
     0
102
RTVSPropertyOp34
 70
     0
102
RTVSPropertyOp35
 70
     0
102
RTVSPropertyOp36
 70
     0
102
RTVSPropertyOp37
 70
     0
102
RTVSPropertyOp38
 70
     0
102
RTVSPropertyOp39
 70
     0
102
RTVSPropertyOp40
 70
     0
102
RTVSPropertyOp41
 70
     0
102
RTVSPropertyOp42
 70
     0
102
RTVSPropertyOp43
 70
     0
102
RTVSPropertyOp44
 70
     0
102
RTVSPropertyOp45
 70
     0
102
RTVSPropertyOp46
 70
     0
102
RTVSPropertyOp47
 70
     0
102
RTVSPropertyOp48
 70
     0
102
RTVSPropertyOp49
 70
     0
102
RTVSPropertyOp50
 70
     0
102
RTVSPropertyOp51
 70
     0
102
RTVSPropertyOp52
 70
     0
102
RTVSPropertyOp53
 70
     0
102
RTVSPropertyOp54
 70
     0
102
RTVSPropertyOp55
 70
     0
102
RTVSPropertyOp56
 70
     0
102
RTVSPropertyOp57
 70
     0
102
RTVSPost2010Prop28
280
     0
102
RTVSPost2010PropOp28
 70
     0
102
RTVSPost2010Prop29
280
     1
102
RTVSPost2010PropOp29
 70
     0
102
RTVSPost2010Prop30
280
     1
102
RTVSPost2010PropOp30
 70
     0
102
RTVSPost2010Prop31
280
     0
102
RTVSPost2010PropOp31
 70
     0
102
RTVSPost2010Prop32
280
     0
102
RTVSPost2010PropOp32
 70
     0
102
RTVSPost2010Prop33
280
     0
102
RTVSPost2010PropOp33
 70
     0
102
RTVSPost2010Prop34
280
     0
102
RTVSPost2010PropOp34
 70
     0
102
RTVSPost2010Prop35
280
     0
102
RTVSPost2010PropOp35
 70
     0
102
RTVSPost2010Prop36
280
     0
102
RTVSPost2010PropOp36
 70
     0
102
RTVSPost2010Prop37
 90
       50
102
RTVSPost2010PropOp37
 70
     0
102
RTVSPost2010Prop38
140
0.0
102
RTVSPost2010PropOp38
 70
     0
102
RTVSPost2010Prop39
140
1.0
102
RTVSPost2010PropOp39
 70
     0
102
RTVSPost2010Prop40
 90
        0
102
RTVSPost2010PropOp40
 70
     0
102
RTVSPost2010Prop41ColorIndex
 90
       18
102
RTVSPost2010Prop41ColorRGB
 90
        0
102
RTVSPost2010PropOp41
 70
     0
102
RTVSPost2010Prop42
 90
       50
102
RTVSPost2010PropOp42
 70
     0
102
RTVSPost2010Prop43
 90
        3
102
RTVSPost2010PropOp43
 70
     0
102
RTVSPost2010Prop44ColorIndex
 90
        5
102
RTVSPost2010Prop44ColorRGB
 90
      255
102
RTVSPost2010PropOp44
 70
     0
102
RTVSPost2010Prop45
280
     0
102
RTVSPost2010PropOp45
 70
     0
102
RTVSPost2010Prop46
 90
       50
102
RTVSPost2010PropOp46
 70
     0
102
RTVSPost2010Prop47
 90
       50
102
RTVSPost2010PropOp47
 70
     0
102
RTVSPost2010Prop48
 90
       50
102
RTVSPost2010PropOp48
 70
     0
102
RTVSPost2010Prop49
280
     0
102
RTVSPost2010PropOp49
 70
     0
102
RTVSPost2010Prop50
 90
       50
102
RTVSPost2010PropOp50
 70
     0
102
RTVSPost2010Prop51ColorIndex
 90
      256
102
RTVSPost2010Prop51ColorRGB
 90
-16777216
102
RTVSPost2010PropOp51
 70
     0
102
RTVSPost2010Prop52
140
1.0
102
RTVSPost2010PropOp52
 70
     0
102
RTVSPost2010Prop53
 90
        2
102
RTVSPost2010PropOp53
 70
     0
102
RTVSPost2010Prop54
  1
strokes_ogs.tif
102
RTVSPost2010PropOp54
 70
     0
102
RTVSPost2010Prop55
280
     0
102
RTVSPost2010PropOp55
 70
     0
102
RTVSPost2010Prop56
140
1.0
102
RTVSPost2010PropOp56
 70
     0
102
RTVSPost2010Prop57
140
1.0
102
RTVSPost2010PropOp57
 70
     0
  0
XRECORD
  5
31C
102
{ACAD_REACTORS
330
31B
102
}
330
31B
100
AcDbXrecord
280
     1
102
RTVSPropertyOp0
 70
     1
102
RTVSPropertyOp1
 70
     1
102
RTVSPropertyOp2
 70
     1
102
RTVSPropertyOp3
 70
     1
102
RTVSPropertyOp4
 70
     1
102
RTVSPropertyOp5
 70
     1
102
RTVSPropertyOp6
 70
     1
102
RTVSPropertyOp7
 70
     1
102
RTVSPropertyOp8
 70
     1
102
RTVSPropertyOp9
 70
     1
102
RTVSPropertyOp10
 70
     1
102
RTVSPropertyOp11
 70
     1
102
RTVSPropertyOp12
 70
     1
102
RTVSPropertyOp13
 70
     1
102
RTVSPropertyOp14
 70
     1
102
RTVSPropertyOp15
 70
     1
102
RTVSPropertyOp16
 70
     1
102
RTVSPropertyOp17
 70
     1
102
RTVSPropertyOp18
 70
     1
102
RTVSPropertyOp19
 70
     1
102
RTVSPropertyOp20
 70
     1
102
RTVSPropertyOp21
 70
     1
102
RTVSPropertyOp22
 70
     1
102
RTVSPropertyOp23
 70
     1
102
RTVSPropertyOp24
 70
     1
102
RTVSPropertyOp25
 70
     1
102
RTVSPropertyOp26
 70
     1
102
RTVSPropertyOp27
 70
     1
102
RTVSPropertyOp28
 70
     1
102
RTVSPropertyOp29
 70
     1
102
RTVSPropertyOp30
 70
     1
102
RTVSPropertyOp31
 70
     1
102
RTVSPropertyOp32
 70
     1
102
RTVSPropertyOp33
 70
     1
102
RTVSPropertyOp34
 70
     1
102
RTVSPropertyOp35
 70
     1
102
RTVSPropertyOp36
 70
     1
102
RTVSPropertyOp37
 70
     1
102
RTVSPropertyOp38
 70
     1
102
RTVSPropertyOp39
 70
     1
102
RTVSPropertyOp40
 70
     1
102
RTVSPropertyOp41
 70
     1
102
RTVSPropertyOp42
 70
     1
102
RTVSPropertyOp43
 70
     1
102
RTVSPropertyOp44
 70
     1
102
RTVSPropertyOp45
 70
     1
102
RTVSPropertyOp46
 70
     1
102
RTVSPropertyOp47
 70
     1
102
RTVSPropertyOp48
 70
     1
102
RTVSPropertyOp49
 70
     1
102
RTVSPropertyOp50
 70
     1
102
RTVSPropertyOp51
 70
     0
102
RTVSPropertyOp52
 70
     0
102
RTVSPropertyOp53
 70
     1
102
RTVSPropertyOp54
 70
     1
102
RTVSPropertyOp55
 70
     1
102
RTVSPropertyOp56
 70
     1
102
RTVSPropertyOp57
 70
     1
102
RTVSPost2010Prop28
280
     0
102
RTVSPost2010PropOp28
 70
     1
102
RTVSPost2010Prop29
280
     1
102
RTVSPost2010PropOp29
 70
     1
102
RTVSPost2010Prop30
280
     1
102
RTVSPost2010PropOp30
 70
     1
102
RTVSPost2010Prop31
280
     0
102
RTVSPost2010PropOp31
 70
     1
102
RTVSPost2010Prop32
280
     0
102
RTVSPost2010PropOp32
 70
     1
102
RTVSPost2010Prop33
280
     0
102
RTVSPost2010PropOp33
 70
     1
102
RTVSPost2010Prop34
280
     0
102
RTVSPost2010PropOp34
 70
     1
102
RTVSPost2010Prop35
280
     0
102
RTVSPost2010PropOp35
 70
     1
102
RTVSPost2010Prop36
280
     0
102
RTVSPost2010PropOp36
 70
     1
102
RTVSPost2010Prop37
 90
       50
102
RTVSPost2010PropOp37
 70
     1
102
RTVSPost2010Prop38
140
0.0
102
RTVSPost2010PropOp38
 70
     1
102
RTVSPost2010Prop39
140
1.0
102
RTVSPost2010PropOp39
 70
     1
102
RTVSPost2010Prop40
 90
        0
102
RTVSPost2010PropOp40
 70
     1
102
RTVSPost2010Prop41ColorIndex
 90
       18
102
RTVSPost2010Prop41ColorRGB
 90
        0
102
RTVSPost2010PropOp41
 70
     1
102
RTVSPost2010Prop42
 90
       50
102
RTVSPost2010PropOp42
 70
     1
102
RTVSPost2010Prop43
 90
        3
102
RTVSPost2010PropOp43
 70
     1
102
RTVSPost2010Prop44ColorIndex
 90
        5
102
RTVSPost2010Prop44ColorRGB
 90
      255
102
RTVSPost2010PropOp44
 70
     1
102
RTVSPost2010Prop45
280
     0
102
RTVSPost2010PropOp45
 70
     1
102
RTVSPost2010Prop46
 90
       50
102
RTVSPost2010PropOp46
 70
     1
102
RTVSPost2010Prop47
 90
       50
102
RTVSPost2010PropOp47
 70
     1
102
RTVSPost2010Prop48
 90
       50
102
RTVSPost2010PropOp48
 70
     1
102
RTVSPost2010Prop49
280
     0
102
RTVSPost2010PropOp49
 70
     1
102
RTVSPost2010Prop50
 90
       50
102
RTVSPost2010PropOp50
 70
     1
102
RTVSPost2010Prop51ColorIndex
 90
      256
102
RTVSPost2010Prop51ColorRGB
 90
-16777216
102
RTVSPost2010PropOp51
 70
     0
102
RTVSPost2010Prop52
140
1.0
102
RTVSPost2010PropOp52
 70
     0
102
RTVSPost2010Prop53
 90
        2
102
RTVSPost2010PropOp53
 70
     1
102
RTVSPost2010Prop54
  1
strokes_ogs.tif
102
RTVSPost2010PropOp54
 70
     1
102
RTVSPost2010Prop55
280
     0
102
RTVSPost2010PropOp55
 70
     1
102
RTVSPost2010Prop56
140
1.0
102
RTVSPost2010PropOp56
 70
     1
102
RTVSPost2010Prop57
140
1.0
102
RTVSPost2010PropOp57
 70
     1
  0
XRECORD
  5
33A
102
{ACAD_REACTORS
330
339
102
}
330
339
100
AcDbXrecord
280
     1
102
RTVSPropertyOp0
 70
     1
102
RTVSPropertyOp1
 70
     1
102
RTVSPropertyOp2
 70
     1
102
RTVSPropertyOp3
 70
     1
102
RTVSPropertyOp4
 70
     1
102
RTVSPropertyOp5
 70
     1
102
RTVSPropertyOp6
 70
     1
102
RTVSPropertyOp7
 70
     1
102
RTVSPropertyOp8
 70
     1
102
RTVSPropertyOp9
 70
     1
102
RTVSPropertyOp10
 70
     1
102
RTVSPropertyOp11
 70
     1
102
RTVSPropertyOp12
 70
     1
102
RTVSPropertyOp13
 70
     1
102
RTVSPropertyOp14
 70
     1
102
RTVSPropertyOp15
 70
     1
102
RTVSPropertyOp16
 70
     1
102
RTVSPropertyOp17
 70
     1
102
RTVSPropertyOp18
 70
     1
102
RTVSPropertyOp19
 70
     1
102
RTVSPropertyOp20
 70
     1
102
RTVSPropertyOp21
 70
     1
102
RTVSPropertyOp22
 70
     1
102
RTVSPropertyOp23
 70
     1
102
RTVSPropertyOp24
 70
     1
102
RTVSPropertyOp25
 70
     1
102
RTVSPropertyOp26
 70
     1
102
RTVSPropertyOp27
 70
     1
102
RTVSPropertyOp28
 70
     1
102
RTVSPropertyOp29
 70
     1
102
RTVSPropertyOp30
 70
     1
102
RTVSPropertyOp31
 70
     1
102
RTVSPropertyOp32
 70
     1
102
RTVSPropertyOp33
 70
     1
102
RTVSPropertyOp34
 70
     1
102
RTVSPropertyOp35
 70
     1
102
RTVSPropertyOp36
 70
     1
102
RTVSPropertyOp37
 70
     1
102
RTVSPropertyOp38
 70
     1
102
RTVSPropertyOp39
 70
     1
102
RTVSPropertyOp40
 70
     1
102
RTVSPropertyOp41
 70
     1
102
RTVSPropertyOp42
 70
     1
102
RTVSPropertyOp43
 70
     1
102
RTVSPropertyOp44
 70
     1
102
RTVSPropertyOp45
 70
     1
102
RTVSPropertyOp46
 70
     1
102
RTVSPropertyOp47
 70
     1
102
RTVSPropertyOp48
 70
     1
102
RTVSPropertyOp49
 70
     1
102
RTVSPropertyOp50
 70
     1
102
RTVSPropertyOp51
 70
     0
102
RTVSPropertyOp52
 70
     0
102
RTVSPropertyOp53
 70
     1
102
RTVSPropertyOp54
 70
     1
102
RTVSPropertyOp55
 70
     1
102
RTVSPropertyOp56
 70
     1
102
RTVSPropertyOp57
 70
     1
102
RTVSPost2010Prop28
280
     0
102
RTVSPost2010PropOp28
 70
     1
102
RTVSPost2010Prop29
280
     1
102
RTVSPost2010PropOp29
 70
     1
102
RTVSPost2010Prop30
280
     1
102
RTVSPost2010PropOp30
 70
     1
102
RTVSPost2010Prop31
280
     0
102
RTVSPost2010PropOp31
 70
     1
102
RTVSPost2010Prop32
280
     0
102
RTVSPost2010PropOp32
 70
     1
102
RTVSPost2010Prop33
280
     0
102
RTVSPost2010PropOp33
 70
     1
102
RTVSPost2010Prop34
280
     0
102
RTVSPost2010PropOp34
 70
     1
102
RTVSPost2010Prop35
280
     0
102
RTVSPost2010PropOp35
 70
     1
102
RTVSPost2010Prop36
280
     0
102
RTVSPost2010PropOp36
 70
     1
102
RTVSPost2010Prop37
 90
       50
102
RTVSPost2010PropOp37
 70
     1
102
RTVSPost2010Prop38
140
0.0
102
RTVSPost2010PropOp38
 70
     1
102
RTVSPost2010Prop39
140
1.0
102
RTVSPost2010PropOp39
 70
     1
102
RTVSPost2010Prop40
 90
        0
102
RTVSPost2010PropOp40
 70
     1
102
RTVSPost2010Prop41ColorIndex
 90
       18
102
RTVSPost2010Prop41ColorRGB
 90
        0
102
RTVSPost2010PropOp41
 70
     1
102
RTVSPost2010Prop42
 90
       50
102
RTVSPost2010PropOp42
 70
     1
102
RTVSPost2010Prop43
 90
        3
102
RTVSPost2010PropOp43
 70
     1
102
RTVSPost2010Prop44ColorIndex
 90
        5
102
RTVSPost2010Prop44ColorRGB
 90
      255
102
RTVSPost2010PropOp44
 70
     1
102
RTVSPost2010Prop45
280
     0
102
RTVSPost2010PropOp45
 70
     1
102
RTVSPost2010Prop46
 90
       50
102
RTVSPost2010PropOp46
 70
     1
102
RTVSPost2010Prop47
 90
       50
102
RTVSPost2010PropOp47
 70
     1
102
RTVSPost2010Prop48
 90
       50
102
RTVSPost2010PropOp48
 70
     1
102
RTVSPost2010Prop49
280
     0
102
RTVSPost2010PropOp49
 70
     1
102
RTVSPost2010Prop50
 90
       50
102
RTVSPost2010PropOp50
 70
     1
102
RTVSPost2010Prop51ColorIndex
 90
      256
102
RTVSPost2010Prop51ColorRGB
 90
-16777216
102
RTVSPost2010PropOp51
 70
     0
102
RTVSPost2010Prop52
140
1.0
102
RTVSPost2010PropOp52
 70
     0
102
RTVSPost2010Prop53
 90
        2
102
RTVSPost2010PropOp53
 70
     1
102
RTVSPost2010Prop54
  1
strokes_ogs.tif
102
RTVSPost2010PropOp54
 70
     1
102
RTVSPost2010Prop55
280
     0
102
RTVSPost2010PropOp55
 70
     1
102
RTVSPost2010Prop56
140
1.0
102
RTVSPost2010PropOp56
 70
     1
102
RTVSPost2010Prop57
140
1.0
102
RTVSPost2010PropOp57
 70
     1
  0
XRECORD
  5
338
102
{ACAD_REACTORS
330
337
102
}
330
337
100
AcDbXrecord
280
     1
102
RTVSPropertyOp0
 70
     1
102
RTVSPropertyOp1
 70
     1
102
RTVSPropertyOp2
 70
     1
102
RTVSPropertyOp3
 70
     1
102
RTVSPropertyOp4
 70
     1
102
RTVSPropertyOp5
 70
     1
102
RTVSPropertyOp6
 70
     1
102
RTVSPropertyOp7
 70
     1
102
RTVSPropertyOp8
 70
     1
102
RTVSPropertyOp9
 70
     1
102
RTVSPropertyOp10
 70
     1
102
RTVSPropertyOp11
 70
     1
102
RTVSPropertyOp12
 70
     1
102
RTVSPropertyOp13
 70
     1
102
RTVSPropertyOp14
 70
     1
102
RTVSPropertyOp15
 70
     1
102
RTVSPropertyOp16
 70
     1
102
RTVSPropertyOp17
 70
     1
102
RTVSPropertyOp18
 70
     1
102
RTVSPropertyOp19
 70
     1
102
RTVSPropertyOp20
 70
     1
102
RTVSPropertyOp21
 70
     1
102
RTVSPropertyOp22
 70
     1
102
RTVSPropertyOp23
 70
     1
102
RTVSPropertyOp24
 70
     1
102
RTVSPropertyOp25
 70
     1
102
RTVSPropertyOp26
 70
     1
102
RTVSPropertyOp27
 70
     1
102
RTVSPropertyOp28
 70
     1
102
RTVSPropertyOp29
 70
     1
102
RTVSPropertyOp30
 70
     1
102
RTVSPropertyOp31
 70
     1
102
RTVSPropertyOp32
 70
     1
102
RTVSPropertyOp33
 70
     1
102
RTVSPropertyOp34
 70
     1
102
RTVSPropertyOp35
 70
     1
102
RTVSPropertyOp36
 70
     1
102
RTVSPropertyOp37
 70
     1
102
RTVSPropertyOp38
 70
     1
102
RTVSPropertyOp39
 70
     1
102
RTVSPropertyOp40
 70
     1
102
RTVSPropertyOp41
 70
     1
102
RTVSPropertyOp42
 70
     1
102
RTVSPropertyOp43
 70
     1
102
RTVSPropertyOp44
 70
     1
102
RTVSPropertyOp45
 70
     1
102
RTVSPropertyOp46
 70
     1
102
RTVSPropertyOp47
 70
     1
102
RTVSPropertyOp48
 70
     1
102
RTVSPropertyOp49
 70
     1
102
RTVSPropertyOp50
 70
     1
102
RTVSPropertyOp51
 70
     0
102
RTVSPropertyOp52
 70
     0
102
RTVSPropertyOp53
 70
     1
102
RTVSPropertyOp54
 70
     1
102
RTVSPropertyOp55
 70
     1
102
RTVSPropertyOp56
 70
     1
102
RTVSPropertyOp57
 70
     1
102
RTVSPost2010Prop28
280
     0
102
RTVSPost2010PropOp28
 70
     1
102
RTVSPost2010Prop29
280
     1
102
RTVSPost2010PropOp29
 70
     1
102
RTVSPost2010Prop30
280
     1
102
RTVSPost2010PropOp30
 70
     1
102
RTVSPost2010Prop31
280
     0
102
RTVSPost2010PropOp31
 70
     1
102
RTVSPost2010Prop32
280
     0
102
RTVSPost2010PropOp32
 70
     1
102
RTVSPost2010Prop33
280
     0
102
RTVSPost2010PropOp33
 70
     1
102
RTVSPost2010Prop34
280
     0
102
RTVSPost2010PropOp34
 70
     1
102
RTVSPost2010Prop35
280
     0
102
RTVSPost2010PropOp35
 70
     1
102
RTVSPost2010Prop36
280
     0
102
RTVSPost2010PropOp36
 70
     1
102
RTVSPost2010Prop37
 90
       50
102
RTVSPost2010PropOp37
 70
     1
102
RTVSPost2010Prop38
140
0.0
102
RTVSPost2010PropOp38
 70
     1
102
RTVSPost2010Prop39
140
1.0
102
RTVSPost2010PropOp39
 70
     1
102
RTVSPost2010Prop40
 90
        0
102
RTVSPost2010PropOp40
 70
     1
102
RTVSPost2010Prop41ColorIndex
 90
       18
102
RTVSPost2010Prop41ColorRGB
 90
        0
102
RTVSPost2010PropOp41
 70
     1
102
RTVSPost2010Prop42
 90
       50
102
RTVSPost2010PropOp42
 70
     1
102
RTVSPost2010Prop43
 90
        3
102
RTVSPost2010PropOp43
 70
     1
102
RTVSPost2010Prop44ColorIndex
 90
        5
102
RTVSPost2010Prop44ColorRGB
 90
      255
102
RTVSPost2010PropOp44
 70
     1
102
RTVSPost2010Prop45
280
     0
102
RTVSPost2010PropOp45
 70
     1
102
RTVSPost2010Prop46
 90
       50
102
RTVSPost2010PropOp46
 70
     1
102
RTVSPost2010Prop47
 90
       50
102
RTVSPost2010PropOp47
 70
     1
102
RTVSPost2010Prop48
 90
       50
102
RTVSPost2010PropOp48
 70
     1
102
RTVSPost2010Prop49
280
     0
102
RTVSPost2010PropOp49
 70
     1
102
RTVSPost2010Prop50
 90
       50
102
RTVSPost2010PropOp50
 70
     1
102
RTVSPost2010Prop51ColorIndex
 90
      256
102
RTVSPost2010Prop51ColorRGB
 90
-16777216
102
RTVSPost2010PropOp51
 70
     0
102
RTVSPost2010Prop52
140
1.0
102
RTVSPost2010PropOp52
 70
     0
102
RTVSPost2010Prop53
 90
        2
102
RTVSPost2010PropOp53
 70
     1
102
RTVSPost2010Prop54
  1
strokes_ogs.tif
102
RTVSPost2010PropOp54
 70
     1
102
RTVSPost2010Prop55
280
     0
102
RTVSPost2010PropOp55
 70
     1
102
RTVSPost2010Prop56
140
1.0
102
RTVSPost2010PropOp56
 70
     1
102
RTVSPost2010Prop57
140
1.0
102
RTVSPost2010PropOp57
 70
     1
  0
XRECORD
  5
332
102
{ACAD_REACTORS
330
331
102
}
330
331
100
AcDbXrecord
280
     1
102
RTVSPropertyOp0
 70
     1
102
RTVSPropertyOp1
 70
     1
102
RTVSPropertyOp2
 70
     1
102
RTVSPropertyOp3
 70
     1
102
RTVSPropertyOp4
 70
     1
102
RTVSPropertyOp5
 70
     1
102
RTVSPropertyOp6
 70
     1
102
RTVSPropertyOp7
 70
     1
102
RTVSPropertyOp8
 70
     1
102
RTVSPropertyOp9
 70
     1
102
RTVSPropertyOp10
 70
     1
102
RTVSPropertyOp11
 70
     1
102
RTVSPropertyOp12
 70
     1
102
RTVSPropertyOp13
 70
     1
102
RTVSPropertyOp14
 70
     1
102
RTVSPropertyOp15
 70
     1
102
RTVSPropertyOp16
 70
     1
102
RTVSPropertyOp17
 70
     1
102
RTVSPropertyOp18
 70
     1
102
RTVSPropertyOp19
 70
     1
102
RTVSPropertyOp20
 70
     1
102
RTVSPropertyOp21
 70
     1
102
RTVSPropertyOp22
 70
     1
102
RTVSPropertyOp23
 70
     1
102
RTVSPropertyOp24
 70
     1
102
RTVSPropertyOp25
 70
     1
102
RTVSPropertyOp26
 70
     1
102
RTVSPropertyOp27
 70
     1
102
RTVSPropertyOp28
 70
     1
102
RTVSPropertyOp29
 70
     1
102
RTVSPropertyOp30
 70
     1
102
RTVSPropertyOp31
 70
     1
102
RTVSPropertyOp32
 70
     1
102
RTVSPropertyOp33
 70
     1
102
RTVSPropertyOp34
 70
     1
102
RTVSPropertyOp35
 70
     1
102
RTVSPropertyOp36
 70
     1
102
RTVSPropertyOp37
 70
     1
102
RTVSPropertyOp38
 70
     1
102
RTVSPropertyOp39
 70
     1
102
RTVSPropertyOp40
 70
     1
102
RTVSPropertyOp41
 70
     1
102
RTVSPropertyOp42
 70
     1
102
RTVSPropertyOp43
 70
     1
102
RTVSPropertyOp44
 70
     1
102
RTVSPropertyOp45
 70
     1
102
RTVSPropertyOp46
 70
     1
102
RTVSPropertyOp47
 70
     1
102
RTVSPropertyOp48
 70
     1
102
RTVSPropertyOp49
 70
     1
102
RTVSPropertyOp50
 70
     1
102
RTVSPropertyOp51
 70
     0
102
RTVSPropertyOp52
 70
     0
102
RTVSPropertyOp53
 70
     1
102
RTVSPropertyOp54
 70
     1
102
RTVSPropertyOp55
 70
     1
102
RTVSPropertyOp56
 70
     1
102
RTVSPropertyOp57
 70
     1
102
RTVSPost2010Prop28
280
     0
102
RTVSPost2010PropOp28
 70
     1
102
RTVSPost2010Prop29
280
     1
102
RTVSPost2010PropOp29
 70
     1
102
RTVSPost2010Prop30
280
     1
102
RTVSPost2010PropOp30
 70
     1
102
RTVSPost2010Prop31
280
     0
102
RTVSPost2010PropOp31
 70
     1
102
RTVSPost2010Prop32
280
     0
102
RTVSPost2010PropOp32
 70
     1
102
RTVSPost2010Prop33
280
     0
102
RTVSPost2010PropOp33
 70
     1
102
RTVSPost2010Prop34
280
     0
102
RTVSPost2010PropOp34
 70
     1
102
RTVSPost2010Prop35
280
     0
102
RTVSPost2010PropOp35
 70
     1
102
RTVSPost2010Prop36
280
     0
102
RTVSPost2010PropOp36
 70
     1
102
RTVSPost2010Prop37
 90
       50
102
RTVSPost2010PropOp37
 70
     1
102
RTVSPost2010Prop38
140
0.0
102
RTVSPost2010PropOp38
 70
     1
102
RTVSPost2010Prop39
140
1.0
102
RTVSPost2010PropOp39
 70
     1
102
RTVSPost2010Prop40
 90
        0
102
RTVSPost2010PropOp40
 70
     1
102
RTVSPost2010Prop41ColorIndex
 90
       18
102
RTVSPost2010Prop41ColorRGB
 90
        0
102
RTVSPost2010PropOp41
 70
     1
102
RTVSPost2010Prop42
 90
       50
102
RTVSPost2010PropOp42
 70
     1
102
RTVSPost2010Prop43
 90
        3
102
RTVSPost2010PropOp43
 70
     1
102
RTVSPost2010Prop44ColorIndex
 90
        5
102
RTVSPost2010Prop44ColorRGB
 90
      255
102
RTVSPost2010PropOp44
 70
     1
102
RTVSPost2010Prop45
280
     0
102
RTVSPost2010PropOp45
 70
     1
102
RTVSPost2010Prop46
 90
       50
102
RTVSPost2010PropOp46
 70
     1
102
RTVSPost2010Prop47
 90
       50
102
RTVSPost2010PropOp47
 70
     1
102
RTVSPost2010Prop48
 90
       50
102
RTVSPost2010PropOp48
 70
     1
102
RTVSPost2010Prop49
280
     0
102
RTVSPost2010PropOp49
 70
     1
102
RTVSPost2010Prop50
 90
       50
102
RTVSPost2010PropOp50
 70
     1
102
RTVSPost2010Prop51ColorIndex
 90
      256
102
RTVSPost2010Prop51ColorRGB
 90
-16777216
102
RTVSPost2010PropOp51
 70
     0
102
RTVSPost2010Prop52
140
1.0
102
RTVSPost2010PropOp52
 70
     0
102
RTVSPost2010Prop53
 90
        2
102
RTVSPost2010PropOp53
 70
     1
102
RTVSPost2010Prop54
  1
strokes_ogs.tif
102
RTVSPost2010PropOp54
 70
     1
102
RTVSPost2010Prop55
280
     0
102
RTVSPost2010PropOp55
 70
     1
102
RTVSPost2010Prop56
140
1.0
102
RTVSPost2010PropOp56
 70
     1
102
RTVSPost2010Prop57
140
1.0
102
RTVSPost2010PropOp57
 70
     1
  0
XRECORD
  5
334
102
{ACAD_REACTORS
330
333
102
}
330
333
100
AcDbXrecord
280
     1
102
RTVSPropertyOp0
 70
     1
102
RTVSPropertyOp1
 70
     1
102
RTVSPropertyOp2
 70
     1
102
RTVSPropertyOp3
 70
     1
102
RTVSPropertyOp4
 70
     1
102
RTVSPropertyOp5
 70
     1
102
RTVSPropertyOp6
 70
     1
102
RTVSPropertyOp7
 70
     1
102
RTVSPropertyOp8
 70
     1
102
RTVSPropertyOp9
 70
     1
102
RTVSPropertyOp10
 70
     1
102
RTVSPropertyOp11
 70
     1
102
RTVSPropertyOp12
 70
     1
102
RTVSPropertyOp13
 70
     1
102
RTVSPropertyOp14
 70
     1
102
RTVSPropertyOp15
 70
     1
102
RTVSPropertyOp16
 70
     1
102
RTVSPropertyOp17
 70
     1
102
RTVSPropertyOp18
 70
     1
102
RTVSPropertyOp19
 70
     1
102
RTVSPropertyOp20
 70
     1
102
RTVSPropertyOp21
 70
     1
102
RTVSPropertyOp22
 70
     1
102
RTVSPropertyOp23
 70
     1
102
RTVSPropertyOp24
 70
     1
102
RTVSPropertyOp25
 70
     1
102
RTVSPropertyOp26
 70
     1
102
RTVSPropertyOp27
 70
     1
102
RTVSPropertyOp28
 70
     1
102
RTVSPropertyOp29
 70
     1
102
RTVSPropertyOp30
 70
     1
102
RTVSPropertyOp31
 70
     1
102
RTVSPropertyOp32
 70
     1
102
RTVSPropertyOp33
 70
     1
102
RTVSPropertyOp34
 70
     1
102
RTVSPropertyOp35
 70
     1
102
RTVSPropertyOp36
 70
     1
102
RTVSPropertyOp37
 70
     1
102
RTVSPropertyOp38
 70
     1
102
RTVSPropertyOp39
 70
     1
102
RTVSPropertyOp40
 70
     1
102
RTVSPropertyOp41
 70
     1
102
RTVSPropertyOp42
 70
     1
102
RTVSPropertyOp43
 70
     1
102
RTVSPropertyOp44
 70
     1
102
RTVSPropertyOp45
 70
     1
102
RTVSPropertyOp46
 70
     1
102
RTVSPropertyOp47
 70
     1
102
RTVSPropertyOp48
 70
     1
102
RTVSPropertyOp49
 70
     1
102
RTVSPropertyOp50
 70
     1
102
RTVSPropertyOp51
 70
     0
102
RTVSPropertyOp52
 70
     0
102
RTVSPropertyOp53
 70
     1
102
RTVSPropertyOp54
 70
     1
102
RTVSPropertyOp55
 70
     1
102
RTVSPropertyOp56
 70
     1
102
RTVSPropertyOp57
 70
     1
102
RTVSPost2010Prop28
280
     0
102
RTVSPost2010PropOp28
 70
     1
102
RTVSPost2010Prop29
280
     1
102
RTVSPost2010PropOp29
 70
     1
102
RTVSPost2010Prop30
280
     1
102
RTVSPost2010PropOp30
 70
     1
102
RTVSPost2010Prop31
280
     0
102
RTVSPost2010PropOp31
 70
     1
102
RTVSPost2010Prop32
280
     0
102
RTVSPost2010PropOp32
 70
     1
102
RTVSPost2010Prop33
280
     0
102
RTVSPost2010PropOp33
 70
     1
102
RTVSPost2010Prop34
280
     0
102
RTVSPost2010PropOp34
 70
     1
102
RTVSPost2010Prop35
280
     0
102
RTVSPost2010PropOp35
 70
     1
102
RTVSPost2010Prop36
280
     0
102
RTVSPost2010PropOp36
 70
     1
102
RTVSPost2010Prop37
 90
       50
102
RTVSPost2010PropOp37
 70
     1
102
RTVSPost2010Prop38
140
0.0
102
RTVSPost2010PropOp38
 70
     1
102
RTVSPost2010Prop39
140
1.0
102
RTVSPost2010PropOp39
 70
     1
102
RTVSPost2010Prop40
 90
        0
102
RTVSPost2010PropOp40
 70
     1
102
RTVSPost2010Prop41ColorIndex
 90
       18
102
RTVSPost2010Prop41ColorRGB
 90
        0
102
RTVSPost2010PropOp41
 70
     1
102
RTVSPost2010Prop42
 90
       50
102
RTVSPost2010PropOp42
 70
     1
102
RTVSPost2010Prop43
 90
        3
102
RTVSPost2010PropOp43
 70
     1
102
RTVSPost2010Prop44ColorIndex
 90
        5
102
RTVSPost2010Prop44ColorRGB
 90
      255
102
RTVSPost2010PropOp44
 70
     1
102
RTVSPost2010Prop45
280
     0
102
RTVSPost2010PropOp45
 70
     1
102
RTVSPost2010Prop46
 90
       50
102
RTVSPost2010PropOp46
 70
     1
102
RTVSPost2010Prop47
 90
       50
102
RTVSPost2010PropOp47
 70
     1
102
RTVSPost2010Prop48
 90
       50
102
RTVSPost2010PropOp48
 70
     1
102
RTVSPost2010Prop49
280
     0
102
RTVSPost2010PropOp49
 70
     1
102
RTVSPost2010Prop50
 90
       50
102
RTVSPost2010PropOp50
 70
     1
102
RTVSPost2010Prop51ColorIndex
 90
      256
102
RTVSPost2010Prop51ColorRGB
 90
-16777216
102
RTVSPost2010PropOp51
 70
     0
102
RTVSPost2010Prop52
140
1.0
102
RTVSPost2010PropOp52
 70
     0
102
RTVSPost2010Prop53
 90
        2
102
RTVSPost2010PropOp53
 70
     1
102
RTVSPost2010Prop54
  1
strokes_ogs.tif
102
RTVSPost2010PropOp54
 70
     1
102
RTVSPost2010Prop55
280
     0
102
RTVSPost2010PropOp55
 70
     1
102
RTVSPost2010Prop56
140
1.0
102
RTVSPost2010PropOp56
 70
     1
102
RTVSPost2010Prop57
140
1.0
102
RTVSPost2010PropOp57
 70
     1
  0
XRECORD
  5
324
102
{ACAD_REACTORS
330
323
102
}
330
323
100
AcDbXrecord
280
     1
102
RTVSPropertyOp0
 70
     1
102
RTVSPropertyOp1
 70
     1
102
RTVSPropertyOp2
 70
     1
102
RTVSPropertyOp3
 70
     1
102
RTVSPropertyOp4
 70
     1
102
RTVSPropertyOp5
 70
     1
102
RTVSPropertyOp6
 70
     1
102
RTVSPropertyOp7
 70
     1
102
RTVSPropertyOp8
 70
     1
102
RTVSPropertyOp9
 70
     1
102
RTVSPropertyOp10
 70
     1
102
RTVSPropertyOp11
 70
     1
102
RTVSPropertyOp12
 70
     1
102
RTVSPropertyOp13
 70
     1
102
RTVSPropertyOp14
 70
     1
102
RTVSPropertyOp15
 70
     1
102
RTVSPropertyOp16
 70
     1
102
RTVSPropertyOp17
 70
     1
102
RTVSPropertyOp18
 70
     1
102
RTVSPropertyOp19
 70
     1
102
RTVSPropertyOp20
 70
     1
102
RTVSPropertyOp21
 70
     1
102
RTVSPropertyOp22
 70
     1
102
RTVSPropertyOp23
 70
     1
102
RTVSPropertyOp24
 70
     1
102
RTVSPropertyOp25
 70
     1
102
RTVSPropertyOp26
 70
     1
102
RTVSPropertyOp27
 70
     1
102
RTVSPropertyOp28
 70
     1
102
RTVSPropertyOp29
 70
     1
102
RTVSPropertyOp30
 70
     1
102
RTVSPropertyOp31
 70
     1
102
RTVSPropertyOp32
 70
     1
102
RTVSPropertyOp33
 70
     1
102
RTVSPropertyOp34
 70
     1
102
RTVSPropertyOp35
 70
     1
102
RTVSPropertyOp36
 70
     1
102
RTVSPropertyOp37
 70
     1
102
RTVSPropertyOp38
 70
     1
102
RTVSPropertyOp39
 70
     1
102
RTVSPropertyOp40
 70
     1
102
RTVSPropertyOp41
 70
     1
102
RTVSPropertyOp42
 70
     1
102
RTVSPropertyOp43
 70
     1
102
RTVSPropertyOp44
 70
     1
102
RTVSPropertyOp45
 70
     1
102
RTVSPropertyOp46
 70
     1
102
RTVSPropertyOp47
 70
     1
102
RTVSPropertyOp48
 70
     1
102
RTVSPropertyOp49
 70
     1
102
RTVSPropertyOp50
 70
     1
102
RTVSPropertyOp51
 70
     0
102
RTVSPropertyOp52
 70
     0
102
RTVSPropertyOp53
 70
     1
102
RTVSPropertyOp54
 70
     1
102
RTVSPropertyOp55
 70
     1
102
RTVSPropertyOp56
 70
     1
102
RTVSPropertyOp57
 70
     1
102
RTVSPost2010Prop28
280
     0
102
RTVSPost2010PropOp28
 70
     1
102
RTVSPost2010Prop29
280
     1
102
RTVSPost2010PropOp29
 70
     1
102
RTVSPost2010Prop30
280
     1
102
RTVSPost2010PropOp30
 70
     1
102
RTVSPost2010Prop31
280
     0
102
RTVSPost2010PropOp31
 70
     1
102
RTVSPost2010Prop32
280
     0
102
RTVSPost2010PropOp32
 70
     1
102
RTVSPost2010Prop33
280
     0
102
RTVSPost2010PropOp33
 70
     1
102
RTVSPost2010Prop34
280
     0
102
RTVSPost2010PropOp34
 70
     1
102
RTVSPost2010Prop35
280
     0
102
RTVSPost2010PropOp35
 70
     1
102
RTVSPost2010Prop36
280
     0
102
RTVSPost2010PropOp36
 70
     1
102
RTVSPost2010Prop37
 90
       50
102
RTVSPost2010PropOp37
 70
     1
102
RTVSPost2010Prop38
140
0.0
102
RTVSPost2010PropOp38
 70
     1
102
RTVSPost2010Prop39
140
1.0
102
RTVSPost2010PropOp39
 70
     1
102
RTVSPost2010Prop40
 90
        0
102
RTVSPost2010PropOp40
 70
     1
102
RTVSPost2010Prop41ColorIndex
 90
       18
102
RTVSPost2010Prop41ColorRGB
 90
        0
102
RTVSPost2010PropOp41
 70
     1
102
RTVSPost2010Prop42
 90
       50
102
RTVSPost2010PropOp42
 70
     1
102
RTVSPost2010Prop43
 90
        3
102
RTVSPost2010PropOp43
 70
     1
102
RTVSPost2010Prop44ColorIndex
 90
        5
102
RTVSPost2010Prop44ColorRGB
 90
      255
102
RTVSPost2010PropOp44
 70
     1
102
RTVSPost2010Prop45
280
     0
102
RTVSPost2010PropOp45
 70
     1
102
RTVSPost2010Prop46
 90
       50
102
RTVSPost2010PropOp46
 70
     1
102
RTVSPost2010Prop47
 90
       50
102
RTVSPost2010PropOp47
 70
     1
102
RTVSPost2010Prop48
 90
       50
102
RTVSPost2010PropOp48
 70
     1
102
RTVSPost2010Prop49
280
     0
102
RTVSPost2010PropOp49
 70
     1
102
RTVSPost2010Prop50
 90
       50
102
RTVSPost2010PropOp50
 70
     1
102
RTVSPost2010Prop51ColorIndex
 90
      256
102
RTVSPost2010Prop51ColorRGB
 90
-16777216
102
RTVSPost2010PropOp51
 70
     0
102
RTVSPost2010Prop52
140
1.0
102
RTVSPost2010PropOp52
 70
     0
102
RTVSPost2010Prop53
 90
        2
102
RTVSPost2010PropOp53
 70
     1
102
RTVSPost2010Prop54
  1
strokes_ogs.tif
102
RTVSPost2010PropOp54
 70
     1
102
RTVSPost2010Prop55
280
     0
102
RTVSPost2010PropOp55
 70
     1
102
RTVSPost2010Prop56
140
1.0
102
RTVSPost2010PropOp56
 70
     1
102
RTVSPost2010Prop57
140
1.0
102
RTVSPost2010PropOp57
 70
     1
  0
XRECORD
  5
316
102
{ACAD_REACTORS
330
315
102
}
330
315
100
AcDbXrecord
280
     1
102
RTVSPropertyOp0
 70
     1
102
RTVSPropertyOp1
 70
     1
102
RTVSPropertyOp2
 70
     1
102
RTVSPropertyOp3
 70
     1
102
RTVSPropertyOp4
 70
     1
102
RTVSPropertyOp5
 70
     1
102
RTVSPropertyOp6
 70
     1
102
RTVSPropertyOp7
 70
     1
102
RTVSPropertyOp8
 70
     1
102
RTVSPropertyOp9
 70
     1
102
RTVSPropertyOp10
 70
     1
102
RTVSPropertyOp11
 70
     1
102
RTVSPropertyOp12
 70
     1
102
RTVSPropertyOp13
 70
     1
102
RTVSPropertyOp14
 70
     1
102
RTVSPropertyOp15
 70
     1
102
RTVSPropertyOp16
 70
     1
102
RTVSPropertyOp17
 70
     1
102
RTVSPropertyOp18
 70
     1
102
RTVSPropertyOp19
 70
     1
102
RTVSPropertyOp20
 70
     1
102
RTVSPropertyOp21
 70
     1
102
RTVSPropertyOp22
 70
     1
102
RTVSPropertyOp23
 70
     1
102
RTVSPropertyOp24
 70
     1
102
RTVSPropertyOp25
 70
     1
102
RTVSPropertyOp26
 70
     1
102
RTVSPropertyOp27
 70
     1
102
RTVSPropertyOp28
 70
     1
102
RTVSPropertyOp29
 70
     1
102
RTVSPropertyOp30
 70
     1
102
RTVSPropertyOp31
 70
     1
102
RTVSPropertyOp32
 70
     1
102
RTVSPropertyOp33
 70
     1
102
RTVSPropertyOp34
 70
     1
102
RTVSPropertyOp35
 70
     1
102
RTVSPropertyOp36
 70
     1
102
RTVSPropertyOp37
 70
     1
102
RTVSPropertyOp38
 70
     1
102
RTVSPropertyOp39
 70
     1
102
RTVSPropertyOp40
 70
     1
102
RTVSPropertyOp41
 70
     1
102
RTVSPropertyOp42
 70
     1
102
RTVSPropertyOp43
 70
     1
102
RTVSPropertyOp44
 70
     1
102
RTVSPropertyOp45
 70
     1
102
RTVSPropertyOp46
 70
     1
102
RTVSPropertyOp47
 70
     1
102
RTVSPropertyOp48
 70
     1
102
RTVSPropertyOp49
 70
     1
102
RTVSPropertyOp50
 70
     1
102
RTVSPropertyOp51
 70
     0
102
RTVSPropertyOp52
 70
     0
102
RTVSPropertyOp53
 70
     1
102
RTVSPropertyOp54
 70
     1
102
RTVSPropertyOp55
 70
     1
102
RTVSPropertyOp56
 70
     1
102
RTVSPropertyOp57
 70
     1
102
RTVSPost2010Prop28
280
     0
102
RTVSPost2010PropOp28
 70
     1
102
RTVSPost2010Prop29
280
     1
102
RTVSPost2010PropOp29
 70
     1
102
RTVSPost2010Prop30
280
     1
102
RTVSPost2010PropOp30
 70
     1
102
RTVSPost2010Prop31
280
     0
102
RTVSPost2010PropOp31
 70
     1
102
RTVSPost2010Prop32
280
     0
102
RTVSPost2010PropOp32
 70
     1
102
RTVSPost2010Prop33
280
     0
102
RTVSPost2010PropOp33
 70
     1
102
RTVSPost2010Prop34
280
     0
102
RTVSPost2010PropOp34
 70
     1
102
RTVSPost2010Prop35
280
     0
102
RTVSPost2010PropOp35
 70
     1
102
RTVSPost2010Prop36
280
     0
102
RTVSPost2010PropOp36
 70
     1
102
RTVSPost2010Prop37
 90
       50
102
RTVSPost2010PropOp37
 70
     1
102
RTVSPost2010Prop38
140
0.0
102
RTVSPost2010PropOp38
 70
     1
102
RTVSPost2010Prop39
140
1.0
102
RTVSPost2010PropOp39
 70
     1
102
RTVSPost2010Prop40
 90
        0
102
RTVSPost2010PropOp40
 70
     1
102
RTVSPost2010Prop41ColorIndex
 90
       18
102
RTVSPost2010Prop41ColorRGB
 90
        0
102
RTVSPost2010PropOp41
 70
     1
102
RTVSPost2010Prop42
 90
       50
102
RTVSPost2010PropOp42
 70
     1
102
RTVSPost2010Prop43
 90
        3
102
RTVSPost2010PropOp43
 70
     1
102
RTVSPost2010Prop44ColorIndex
 90
        5
102
RTVSPost2010Prop44ColorRGB
 90
      255
102
RTVSPost2010PropOp44
 70
     1
102
RTVSPost2010Prop45
280
     0
102
RTVSPost2010PropOp45
 70
     1
102
RTVSPost2010Prop46
 90
       50
102
RTVSPost2010PropOp46
 70
     1
102
RTVSPost2010Prop47
 90
       50
102
RTVSPost2010PropOp47
 70
     1
102
RTVSPost2010Prop48
 90
       50
102
RTVSPost2010PropOp48
 70
     1
102
RTVSPost2010Prop49
280
     0
102
RTVSPost2010PropOp49
 70
     1
102
RTVSPost2010Prop50
 90
       50
102
RTVSPost2010PropOp50
 70
     1
102
RTVSPost2010Prop51ColorIndex
 90
      256
102
RTVSPost2010Prop51ColorRGB
 90
-16777216
102
RTVSPost2010PropOp51
 70
     0
102
RTVSPost2010Prop52
140
1.0
102
RTVSPost2010PropOp52
 70
     0
102
RTVSPost2010Prop53
 90
        2
102
RTVSPost2010PropOp53
 70
     1
102
RTVSPost2010Prop54
  1
strokes_ogs.tif
102
RTVSPost2010PropOp54
 70
     1
102
RTVSPost2010Prop55
280
     0
102
RTVSPost2010PropOp55
 70
     1
102
RTVSPost2010Prop56
140
1.0
102
RTVSPost2010PropOp56
 70
     1
102
RTVSPost2010Prop57
140
1.0
102
RTVSPost2010PropOp57
 70
     1
  0
XRECORD
  5
336
102
{ACAD_REACTORS
330
335
102
}
330
335
100
AcDbXrecord
280
     1
102
RTVSPropertyOp0
 70
     1
102
RTVSPropertyOp1
 70
     1
102
RTVSPropertyOp2
 70
     1
102
RTVSPropertyOp3
 70
     1
102
RTVSPropertyOp4
 70
     1
102
RTVSPropertyOp5
 70
     1
102
RTVSPropertyOp6
 70
     1
102
RTVSPropertyOp7
 70
     1
102
RTVSPropertyOp8
 70
     1
102
RTVSPropertyOp9
 70
     1
102
RTVSPropertyOp10
 70
     1
102
RTVSPropertyOp11
 70
     1
102
RTVSPropertyOp12
 70
     1
102
RTVSPropertyOp13
 70
     1
102
RTVSPropertyOp14
 70
     1
102
RTVSPropertyOp15
 70
     1
102
RTVSPropertyOp16
 70
     1
102
RTVSPropertyOp17
 70
     1
102
RTVSPropertyOp18
 70
     1
102
RTVSPropertyOp19
 70
     1
102
RTVSPropertyOp20
 70
     1
102
RTVSPropertyOp21
 70
     1
102
RTVSPropertyOp22
 70
     1
102
RTVSPropertyOp23
 70
     1
102
RTVSPropertyOp24
 70
     1
102
RTVSPropertyOp25
 70
     1
102
RTVSPropertyOp26
 70
     1
102
RTVSPropertyOp27
 70
     1
102
RTVSPropertyOp28
 70
     1
102
RTVSPropertyOp29
 70
     1
102
RTVSPropertyOp30
 70
     1
102
RTVSPropertyOp31
 70
     1
102
RTVSPropertyOp32
 70
     1
102
RTVSPropertyOp33
 70
     1
102
RTVSPropertyOp34
 70
     1
102
RTVSPropertyOp35
 70
     1
102
RTVSPropertyOp36
 70
     1
102
RTVSPropertyOp37
 70
     1
102
RTVSPropertyOp38
 70
     1
102
RTVSPropertyOp39
 70
     1
102
RTVSPropertyOp40
 70
     1
102
RTVSPropertyOp41
 70
     1
102
RTVSPropertyOp42
 70
     1
102
RTVSPropertyOp43
 70
     1
102
RTVSPropertyOp44
 70
     1
102
RTVSPropertyOp45
 70
     1
102
RTVSPropertyOp46
 70
     1
102
RTVSPropertyOp47
 70
     1
102
RTVSPropertyOp48
 70
     1
102
RTVSPropertyOp49
 70
     1
102
RTVSPropertyOp50
 70
     1
102
RTVSPropertyOp51
 70
     0
102
RTVSPropertyOp52
 70
     0
102
RTVSPropertyOp53
 70
     1
102
RTVSPropertyOp54
 70
     1
102
RTVSPropertyOp55
 70
     1
102
RTVSPropertyOp56
 70
     1
102
RTVSPropertyOp57
 70
     1
102
RTVSPost2010Prop28
280
     0
102
RTVSPost2010PropOp28
 70
     1
102
RTVSPost2010Prop29
280
     1
102
RTVSPost2010PropOp29
 70
     1
102
RTVSPost2010Prop30
280
     1
102
RTVSPost2010PropOp30
 70
     1
102
RTVSPost2010Prop31
280
     0
102
RTVSPost2010PropOp31
 70
     1
102
RTVSPost2010Prop32
280
     0
102
RTVSPost2010PropOp32
 70
     1
102
RTVSPost2010Prop33
280
     0
102
RTVSPost2010PropOp33
 70
     1
102
RTVSPost2010Prop34
280
     0
102
RTVSPost2010PropOp34
 70
     1
102
RTVSPost2010Prop35
280
     0
102
RTVSPost2010PropOp35
 70
     1
102
RTVSPost2010Prop36
280
     0
102
RTVSPost2010PropOp36
 70
     1
102
RTVSPost2010Prop37
 90
       50
102
RTVSPost2010PropOp37
 70
     1
102
RTVSPost2010Prop38
140
0.0
102
RTVSPost2010PropOp38
 70
     1
102
RTVSPost2010Prop39
140
1.0
102
RTVSPost2010PropOp39
 70
     1
102
RTVSPost2010Prop40
 90
        0
102
RTVSPost2010PropOp40
 70
     1
102
RTVSPost2010Prop41ColorIndex
 90
       18
102
RTVSPost2010Prop41ColorRGB
 90
        0
102
RTVSPost2010PropOp41
 70
     1
102
RTVSPost2010Prop42
 90
       50
102
RTVSPost2010PropOp42
 70
     1
102
RTVSPost2010Prop43
 90
        3
102
RTVSPost2010PropOp43
 70
     1
102
RTVSPost2010Prop44ColorIndex
 90
        5
102
RTVSPost2010Prop44ColorRGB
 90
      255
102
RTVSPost2010PropOp44
 70
     1
102
RTVSPost2010Prop45
280
     0
102
RTVSPost2010PropOp45
 70
     1
102
RTVSPost2010Prop46
 90
       50
102
RTVSPost2010PropOp46
 70
     1
102
RTVSPost2010Prop47
 90
       50
102
RTVSPost2010PropOp47
 70
     1
102
RTVSPost2010Prop48
 90
       50
102
RTVSPost2010PropOp48
 70
     1
102
RTVSPost2010Prop49
280
     0
102
RTVSPost2010PropOp49
 70
     1
102
RTVSPost2010Prop50
 90
       50
102
RTVSPost2010PropOp50
 70
     1
102
RTVSPost2010Prop51ColorIndex
 90
      256
102
RTVSPost2010Prop51ColorRGB
 90
-16777216
102
RTVSPost2010PropOp51
 70
     0
102
RTVSPost2010Prop52
140
1.0
102
RTVSPost2010PropOp52
 70
     0
102
RTVSPost2010Prop53
 90
        2
102
RTVSPost2010PropOp53
 70
     1
102
RTVSPost2010Prop54
  1
strokes_ogs.tif
102
RTVSPost2010PropOp54
 70
     1
102
RTVSPost2010Prop55
280
     0
102
RTVSPost2010PropOp55
 70
     1
102
RTVSPost2010Prop56
140
1.0
102
RTVSPost2010PropOp56
 70
     1
102
RTVSPost2010Prop57
140
1.0
102
RTVSPost2010PropOp57
 70
     1
  0
ENDSEC
  0
EOF
