  0
SECTION
  2
HEADER
  9
$ACADVER
  1
AC1014
  9
$HANDSEED
  5
FFFF
  9
$MEASUREMENT
 70
     1
  0
ENDSEC
  0
SECTION
  2
TABLES
  0
TABLE
  2
VPORT
  5
8
330
0
100
AcDbSymbolTable
 70
     4
  0
VPORT
  5
2E
330
8
100
AcDbSymbolTableRecord
100
AcDbViewportTableRecord
  2
*ACTIVE
 70
     0
 10
0.0
 20
0.0
 11
1.0
 21
1.0
 12
210.0
 22
148.5
 13
0.0
 23
0.0
 14
10.0
 24
10.0
 15
10.0
 25
10.0
 16
0.0
 26
0.0
 36
1.0
 17
0.0
 27
0.0
 37
0.0
 40
341.0
 41
1.24
 42
50.0
 43
0.0
 44
0.0
 50
0.0
 51
0.0
 71
     0
 72
   100
 73
     1
 74
     3
 75
     0
 76
     0
 77
     0
 78
     0
  0
ENDTAB
  0
TABLE
  2
LTYPE
  5
5
330
0
100
AcDbSymbolTable
 70
     1
  0
LTYPE
  5
14
330
5
100
AcDbSymbolTableRecord
100
AcDbLinetypeTableRecord
  2
BYBLOCK
 70
     0
  3

 72
    65
 73
     0
 40
0.0
  0
LTYPE
  5
15
330
5
100
AcDbSymbolTableRecord
100
AcDbLinetypeTableRecord
  2
BYLAYER
 70
     0
  3

 72
    65
 73
     0
 40
0.0
  0
LTYPE
  5
16
330
5
100
AcDbSymbolTableRecord
100
AcDbLinetypeTableRecord
  2
CONTINUOUS
 70
     0
  3
Solid line
 72
    65
 73
     0
 40
0.0
  0
ENDTAB
  0
TABLE
  2
LAYER
  5
2
100
AcDbSymbolTable
 70
2
  0
LAYER
  5
50
100
AcDbSymbolTableRecord
100
AcDbLayerTableRecord
  2
0
 70
0
  6
CONTINUOUS
  0
LAYER
  5
51
100
AcDbSymbolTableRecord
100
AcDbLayerTableRecord
  2
Ebene_1
 70
0
  6
CONTINUOUS
  0
ENDTAB
  0
TABLE
  2
STYLE
  5
3
330
0
100
AcDbSymbolTable
 70
     1
  0
STYLE
  5
11
330
3
100
AcDbSymbolTableRecord
100
AcDbTextStyleTableRecord
  2
STANDARD
 70
     0
 40
0.0
 41
1.0
 50
0.0
 71
     0
 42
2.5
  3
txt
  4

  0
ENDTAB
  0
TABLE
  2
VIEW
  5
6
330
0
100
AcDbSymbolTable
 70
     0
  0
ENDTAB
  0
TABLE
  2
UCS
  5
7
330
0
100
AcDbSymbolTable
 70
     0
  0
ENDTAB
  0
TABLE
  2
APPID
  5
9
330
0
100
AcDbSymbolTable
 70
     2
  0
APPID
  5
12
330
9
100
AcDbSymbolTableRecord
100
AcDbRegAppTableRecord
  2
ACAD
 70
     0
  0
ENDTAB
  0
TABLE
  2
DIMSTYLE
  5
A
330
0
100
AcDbSymbolTable
 70
     1
  0
DIMSTYLE
105
27
330
A
100
AcDbSymbolTableRecord
100
AcDbDimStyleTableRecord
  2
ISO-25
 70
     0
  3

  4

  5

  6

  7

 40
1.0
 41
2.5
 42
0.625
 43
3.75
 44
1.25
 45
0.0
 46
0.0
 47
0.0
 48
0.0
140
2.5
141
2.5
142
0.0
143
0.03937007874016
144
1.0
145
0.0
146
1.0
147
0.625
 71
     0
 72
     0
 73
     0
 74
     0
 75
     0
 76
     0
 77
     1
 78
     8
170
     0
171
     3
172
     1
173
     0
174
     0
175
     0
176
     0
177
     0
178
     0
270
     2
271
     2
272
     2
273
     2
274
     3
340
11
275
     0
280
     0
281
     0
282
     0
283
     0
284
     8
285
     0
286
     0
287
     3
288
     0
  0
ENDTAB
  0
TABLE
  2
BLOCK_RECORD
  5
1
330
0
100
AcDbSymbolTable
 70
     1
  0
BLOCK_RECORD
  5
1F
330
1
100
AcDbSymbolTableRecord
100
AcDbBlockTableRecord
  2
*MODEL_SPACE
  0
BLOCK_RECORD
  5
1B
330
1
100
AcDbSymbolTableRecord
100
AcDbBlockTableRecord
  2
*PAPER_SPACE
  0
ENDTAB
  0
ENDSEC
  0
SECTION
  2
BLOCKS
  0
BLOCK
  5
20
330
1F
100
AcDbEntity
  8
0
100
AcDbBlockBegin
  2
*MODEL_SPACE
 70
     0
 10
0.0
 20
0.0
 30
0.0
  3
*MODEL_SPACE
  1

  0
ENDBLK
  5
21
330
1F
100
AcDbEntity
  8
0
100
AcDbBlockEnd
  0
BLOCK
  5
1C
330
1B
100
AcDbEntity
 67
     1
  8
0
100
AcDbBlockBegin
  2
*PAPER_SPACE
  1

  0
ENDBLK
  5
1D
330
1B
100
AcDbEntity
 67
     1
  8
0
100
AcDbBlockEnd
  0
ENDSEC
  0
SECTION
  2
ENTITIES
  0
SPLINE
  5
100
100
AcDbEntity
  8
Ebene_1
 62
1
100
AcDbSpline
 70
8
 71
3
 72
8
 73
4
 74
0
 40
0
 40
0
 40
0
 40
0
 40
1
 40
1
 40
1
 40
1
 10
-693.799512
 20
781.429199
 30
0.0
 10
-694.585396
 20
677.788633
 30
0.0
 10
-648.635955
 20
622.295880
 30
0.0
 10
-609.950309
 20
593.992022
 30
0.0
  0
SPLINE
  5
101
100
AcDbEntity
  8
Ebene_1
 62
1
100
AcDbSpline
 70
8
 71
3
 72
8
 73
4
 74
0
 40
0
 40
0
 40
0
 40
0
 40
1
 40
1
 40
1
 40
1
 10
-609.950309
 20
593.992022
 30
0.0
 10
-571.464515
 20
565.832418
 30
0.0
 10
-526.702164
 20
554.878122
 30
0.0
 10
-493.080439
 20
556.634716
 30
0.0
  0
SPLINE
  5
102
100
AcDbEntity
  8
Ebene_1
 62
1
100
AcDbSpline
 70
8
 71
3
 72
8
 73
4
 74
0
 40
0
 40
0
 40
0
 40
0
 40
1
 40
1
 40
1
 40
1
 10
-493.080439
 20
556.634716
 30
0.0
 10
-562.477183
 20
503.693459
 30
0.0
 10
-583.980061
 20
443.958734
 30
0.0
 10
-589.599961
 20
402.240746
 30
0.0
  0
SPLINE
  5
103
100
AcDbEntity
  8
Ebene_1
 62
1
100
AcDbSpline
 70
8
 71
3
 72
8
 73
4
 74
0
 40
0
 40
0
 40
0
 40
0
 40
1
 40
1
 40
1
 40
1
 10
-589.599961
 20
402.240746
 30
0.0
 10
-595.888538
 20
355.565526
 30
0.0
 10
-584.465416
 20
321.814573
 30
0.0
 10
-583.505225
 20
319.091777
 30
0.0
  0
SPLINE
  5
104
100
AcDbEntity
  8
Ebene_1
 62
1
100
AcDbSpline
 70
8
 71
3
 72
8
 73
4
 74
0
 40
0
 40
0
 40
0
 40
0
 40
1
 40
1
 40
1
 40
1
 10
-583.505225
 20
319.091777
 30
0.0
 10
-570.388619
 20
272.685531
 30
0.0
 10
-547.213295
 20
233.446911
 30
0.0
 10
-514.617878
 20
202.457822
 30
0.0
  0
SPLINE
  5
105
100
AcDbEntity
  8
Ebene_1
 62
1
100
AcDbSpline
 70
8
 71
3
 72
8
 73
4
 74
0
 40
0
 40
0
 40
0
 40
0
 40
1
 40
1
 40
1
 40
1
 10
-514.617878
 20
202.457822
 30
0.0
 10
-488.545450
 20
177.668656
 30
0.0
 10
-456.445906
 20
158.105695
 30
0.0
 10
-419.213319
 20
144.311396
 30
0.0
  0
SPLINE
  5
106
100
AcDbEntity
  8
Ebene_1
 62
1
100
AcDbSpline
 70
8
 71
3
 72
8
 73
4
 74
0
 40
0
 40
0
 40
0
 40
0
 40
1
 40
1
 40
1
 40
1
 10
-419.213319
 20
144.311396
 30
0.0
 10
-362.889603
 20
123.442635
 30
0.0
 10
-311.437469
 20
122.252538
 30
0.0
 10
-300.505712
 20
122.252538
 30
0.0
  0
SPLINE
  5
107
100
AcDbEntity
  8
Ebene_1
 62
1
100
AcDbSpline
 70
8
 71
3
 72
8
 73
4
 74
0
 40
0
 40
0
 40
0
 40
0
 40
1
 40
1
 40
1
 40
1
 10
-300.505712
 20
122.252538
 30
0.0
 10
-299.159340
 20
122.252538
 30
0.0
 10
-298.427551
 20
122.270570
 30
0.0
 10
-298.376461
 20
122.272073
 30
0.0
  0
SPLINE
  5
108
100
AcDbEntity
  8
Ebene_1
 62
1
100
AcDbSpline
 70
8
 71
3
 72
8
 73
4
 74
0
 40
0
 40
0
 40
0
 40
0
 40
1
 40
1
 40
1
 40
1
 10
-298.376461
 20
122.272073
 30
0.0
 10
-288.574695
 20
122.308136
 30
0.0
 10
675.495044
 20
125.950552
 30
0.0
 10
702.171535
 20
125.950552
 30
0.0
  0
SPLINE
  5
109
100
AcDbEntity
  8
Ebene_1
 62
1
100
AcDbSpline
 70
8
 71
3
 72
8
 73
4
 74
0
 40
0
 40
0
 40
0
 40
0
 40
1
 40
1
 40
1
 40
1
 10
702.171535
 20
125.950552
 30
0.0
 10
702.393927
 20
125.950552
 30
0.0
 10
702.532171
 20
125.952055
 30
0.0
 10
702.652382
 20
125.950552
 30
0.0
  0
SPLINE
  5
10a
100
AcDbEntity
  8
Ebene_1
 62
1
100
AcDbSpline
 70
8
 71
3
 72
8
 73
4
 74
0
 40
0
 40
0
 40
0
 40
0
 40
1
 40
1
 40
1
 40
1
 10
702.652382
 20
125.950552
 30
0.0
 10
710.131056
 20
125.950552
 30
0.0
 10
744.350836
 20
130.294705
 30
0.0
 10
778.228011
 20
151.781054
 30
0.0
  0
SPLINE
  5
10b
100
AcDbEntity
  8
Ebene_1
 62
1
100
AcDbSpline
 70
8
 71
3
 72
8
 73
4
 74
0
 40
0
 40
0
 40
0
 40
0
 40
1
 40
1
 40
1
 40
1
 10
778.228011
 20
151.781054
 30
0.0
 10
807.167489
 20
170.132881
 30
0.0
 10
842.493216
 20
205.862820
 30
0.0
 10
846.436162
 20
271.856070
 30
0.0
  0
SPLINE
  5
10c
100
AcDbEntity
  8
Ebene_1
 62
1
100
AcDbSpline
 70
8
 71
3
 72
8
 73
4
 74
0
 40
0
 40
0
 40
0
 40
0
 40
1
 40
1
 40
1
 40
1
 10
846.436162
 20
271.856070
 30
0.0
 10
853.677418
 20
393.006981
 30
0.0
 10
856.056108
 20
933.979421
 30
0.0
 10
856.078648
 20
939.429521
 30
0.0
  0
SPLINE
  5
10d
100
AcDbEntity
  8
Ebene_1
 62
1
100
AcDbSpline
 70
8
 71
3
 72
8
 73
4
 74
0
 40
0
 40
0
 40
0
 40
0
 40
1
 40
1
 40
1
 40
1
 10
633.697416
 20
848.483317
 30
0.0
 10
632.564420
 20
853.638898
 30
0.0
 10
631.260123
 20
858.615665
 30
0.0
 10
629.763486
 20
863.353511
 30
0.0
  0
SPLINE
  5
10e
100
AcDbEntity
  8
Ebene_1
 62
1
100
AcDbSpline
 70
8
 71
3
 72
8
 73
4
 74
0
 40
0
 40
0
 40
0
 40
0
 40
1
 40
1
 40
1
 40
1
 10
629.763486
 20
863.353511
 30
0.0
 10
614.418456
 20
911.892013
 30
0.0
 10
587.286662
 20
919.348147
 30
0.0
 10
528.292742
 20
918.488633
 30
0.0
  0
LWPOLYLINE
  5
10f
100
AcDbEntity
  8
Ebene_1
 62
1
100
AcDbPolyline
 90
4
 70
1
 10
856.078648
 20
939.429521
 30
0.0
 10
856.095177
 20
943.213186
 30
0.0
 10
636.489334
 20
942.634667
 30
0.0
 10
633.697416
 20
848.483317
 30
0.0
  0
SPLINE
  5
110
100
AcDbEntity
  8
Ebene_1
 62
1
100
AcDbSpline
 70
8
 71
3
 72
8
 73
4
 74
0
 40
0
 40
0
 40
0
 40
0
 40
1
 40
1
 40
1
 40
1
 10
528.107917
 20
918.481120
 30
0.0
 10
526.381376
 20
918.369924
 30
0.0
 10
353.055557
 20
907.453194
 30
0.0
 10
145.000561
 20
914.476566
 30
0.0
  0
SPLINE
  5
111
100
AcDbEntity
  8
Ebene_1
 62
1
100
AcDbSpline
 70
8
 71
3
 72
8
 73
4
 74
0
 40
0
 40
0
 40
0
 40
0
 40
1
 40
1
 40
1
 40
1
 10
145.000561
 20
914.476566
 30
0.0
 10
-46.824344
 20
920.951472
 30
0.0
 10
-308.163201
 20
944.419812
 30
0.0
 10
-463.948622
 20
1019.522107
 30
0.0
  0
SPLINE
  5
112
100
AcDbEntity
  8
Ebene_1
 62
1
100
AcDbSpline
 70
8
 71
3
 72
8
 73
4
 74
0
 40
0
 40
0
 40
0
 40
0
 40
1
 40
1
 40
1
 40
1
 10
-463.948622
 20
1019.522107
 30
0.0
 10
-467.221387
 20
1020.948119
 30
0.0
 10
-544.851134
 20
1053.961273
 30
0.0
 10
-609.938287
 20
1011.672279
 30
0.0
  0
SPLINE
  5
113
100
AcDbEntity
  8
Ebene_1
 62
1
100
AcDbSpline
 70
8
 71
3
 72
8
 73
4
 74
0
 40
0
 40
0
 40
0
 40
0
 40
1
 40
1
 40
1
 40
1
 10
-609.938287
 20
1011.672279
 30
0.0
 10
-664.696245
 20
976.097112
 30
0.0
 10
-692.911447
 20
898.631154
 30
0.0
 10
-693.799512
 20
781.429199
 30
0.0
  0
LWPOLYLINE
  5
114
100
AcDbEntity
  8
Ebene_1
 62
1
100
AcDbPolyline
 90
2
 70
1
 10
528.292742
 20
918.488633
 30
0.0
 10
528.107917
 20
918.481120
 30
0.0
  0
SPLINE
  5
115
100
AcDbEntity
  8
Ebene_1
 62
1
100
AcDbSpline
 70
8
 71
3
 72
8
 73
4
 74
0
 40
0
 40
0
 40
0
 40
0
 40
1
 40
1
 40
1
 40
1
 10
-686.286277
 20
781.372098
 30
0.0
 10
-687.048119
 20
680.914138
 30
0.0
 10
-642.783145
 20
627.322234
 30
0.0
 10
-605.514495
 20
600.055203
 30
0.0
  0
SPLINE
  5
116
100
AcDbEntity
  8
Ebene_1
 62
1
100
AcDbSpline
 70
8
 71
3
 72
8
 73
4
 74
0
 40
0
 40
0
 40
0
 40
0
 40
1
 40
1
 40
1
 40
1
 10
-605.514495
 20
600.055203
 30
0.0
 10
-558.313348
 20
565.521370
 30
0.0
 10
-501.686098
 20
557.862379
 30
0.0
 10
-470.144035
 20
568.138981
 30
0.0
  0
SPLINE
  5
117
100
AcDbEntity
  8
Ebene_1
 62
1
100
AcDbSpline
 70
8
 71
3
 72
8
 73
4
 74
0
 40
0
 40
0
 40
0
 40
0
 40
1
 40
1
 40
1
 40
1
 10
-470.144035
 20
568.138981
 30
0.0
 10
-469.418257
 20
568.356865
 30
0.0
 10
-404.989263
 20
587.900291
 30
0.0
 10
-332.029743
 20
626.560392
 30
0.0
  0
SPLINE
  5
118
100
AcDbEntity
  8
Ebene_1
 62
1
100
AcDbSpline
 70
8
 71
3
 72
8
 73
4
 74
0
 40
0
 40
0
 40
0
 40
0
 40
1
 40
1
 40
1
 40
1
 10
-332.029743
 20
626.560392
 30
0.0
 10
-259.029651
 20
665.244536
 30
0.0
 10
-205.648118
 20
684.983306
 30
0.0
 10
-149.395026
 20
695.658110
 30
0.0
  0
SPLINE
  5
119
100
AcDbEntity
  8
Ebene_1
 62
1
100
AcDbSpline
 70
8
 71
3
 72
8
 73
4
 74
0
 40
0
 40
0
 40
0
 40
0
 40
1
 40
1
 40
1
 40
1
 10
-149.395026
 20
695.658110
 30
0.0
 10
-178.080556
 20
696.239635
 30
0.0
 10
-206.104922
 20
698.495108
 30
0.0
 10
-225.852709
 20
703.936192
 30
0.0
  0
SPLINE
  5
11a
100
AcDbEntity
  8
Ebene_1
 62
1
100
AcDbSpline
 70
8
 71
3
 72
8
 73
4
 74
0
 40
0
 40
0
 40
0
 40
0
 40
1
 40
1
 40
1
 40
1
 10
-225.852709
 20
703.936192
 30
0.0
 10
-308.982144
 20
726.845548
 30
0.0
 10
-436.143643
 20
776.527564
 30
0.0
 10
-482.573931
 20
804.237877
 30
0.0
  0
LWPOLYLINE
  5
11b
100
AcDbEntity
  8
Ebene_1
 62
1
100
AcDbPolyline
 90
2
 70
1
 10
-693.799512
 20
781.429199
 30
0.0
 10
-693.799512
 20
781.429199
 30
0.0
  0
SPLINE
  5
11c
100
AcDbEntity
  8
Ebene_1
 62
1
100
AcDbSpline
 70
8
 71
3
 72
8
 73
4
 74
0
 40
0
 40
0
 40
0
 40
0
 40
1
 40
1
 40
1
 40
1
 10
-478.724150
 20
810.690243
 30
0.0
 10
-433.586138
 20
783.750788
 30
0.0
 10
-304.961060
 20
733.530824
 30
0.0
 10
-223.857193
 20
711.178951
 30
0.0
  0
SPLINE
  5
11d
100
AcDbEntity
  8
Ebene_1
 62
1
100
AcDbSpline
 70
8
 71
3
 72
8
 73
4
 74
0
 40
0
 40
0
 40
0
 40
0
 40
1
 40
1
 40
1
 40
1
 10
-223.857193
 20
711.178951
 30
0.0
 10
-190.236970
 20
701.916635
 30
0.0
 10
-130.037928
 20
702.281778
 30
0.0
 10
-85.887155
 20
704.178119
 30
0.0
  0
SPLINE
  5
11e
100
AcDbEntity
  8
Ebene_1
 62
1
100
AcDbSpline
 70
8
 71
3
 72
8
 73
4
 74
0
 40
0
 40
0
 40
0
 40
0
 40
1
 40
1
 40
1
 40
1
 10
-85.887155
 20
704.178119
 30
0.0
 10
-68.695371
 20
705.691284
 30
0.0
 10
-50.629047
 20
706.774693
 30
0.0
 10
-31.202827
 20
707.646228
 30
0.0
  0
LWPOLYLINE
  5
11f
100
AcDbEntity
  8
Ebene_1
 62
1
100
AcDbPolyline
 90
2
 70
1
 10
-482.573931
 20
804.237877
 30
0.0
 10
-478.724150
 20
810.690243
 30
0.0
  0
SPLINE
  5
120
100
AcDbEntity
  8
Ebene_1
 62
1
100
AcDbSpline
 70
8
 71
3
 72
8
 73
4
 74
0
 40
0
 40
0
 40
0
 40
0
 40
1
 40
1
 40
1
 40
1
 10
-30.690424
 20
700.152527
 30
0.0
 10
-32.959421
 20
699.945162
 30
0.0
 10
-56.191846
 20
697.847467
 30
0.0
 10
-86.859367
 20
696.540164
 30
0.0
  0
SPLINE
  5
121
100
AcDbEntity
  8
Ebene_1
 62
1
100
AcDbSpline
 70
8
 71
3
 72
8
 73
4
 74
0
 40
0
 40
0
 40
0
 40
0
 40
1
 40
1
 40
1
 40
1
 10
-86.859367
 20
696.540164
 30
0.0
 10
-168.630410
 20
689.162167
 30
0.0
 10
-230.812946
 20
671.692394
 30
0.0
 10
-328.512046
 20
619.921698
 30
0.0
  0
SPLINE
  5
122
100
AcDbEntity
  8
Ebene_1
 62
1
100
AcDbSpline
 70
8
 71
3
 72
8
 73
4
 74
0
 40
0
 40
0
 40
0
 40
0
 40
1
 40
1
 40
1
 40
1
 10
-328.512046
 20
619.921698
 30
0.0
 10
-402.158276
 20
580.897957
 30
0.0
 10
-467.251440
 20
561.163694
 30
0.0
 10
-467.900584
 20
560.968350
 30
0.0
  0
SPLINE
  5
123
100
AcDbEntity
  8
Ebene_1
 62
1
100
AcDbSpline
 70
8
 71
3
 72
8
 73
4
 74
0
 40
0
 40
0
 40
0
 40
0
 40
1
 40
1
 40
1
 40
1
 10
-467.900584
 20
560.968350
 30
0.0
 10
-471.021581
 20
559.951058
 30
0.0
 10
-474.373987
 20
559.099057
 30
0.0
 10
-477.927747
 20
558.418358
 30
0.0
  0
SPLINE
  5
124
100
AcDbEntity
  8
Ebene_1
 62
1
100
AcDbSpline
 70
8
 71
3
 72
8
 73
4
 74
0
 40
0
 40
0
 40
0
 40
0
 40
1
 40
1
 40
1
 40
1
 10
-477.927747
 20
558.418358
 30
0.0
 10
-553.728773
 20
505.158539
 30
0.0
 10
-576.451800
 20
443.565040
 30
0.0
 10
-582.154345
 20
401.236978
 30
0.0
  0
SPLINE
  5
125
100
AcDbEntity
  8
Ebene_1
 62
1
100
AcDbSpline
 70
8
 71
3
 72
8
 73
4
 74
0
 40
0
 40
0
 40
0
 40
0
 40
1
 40
1
 40
1
 40
1
 10
-582.154345
 20
401.236978
 30
0.0
 10
-588.333229
 20
355.380701
 30
0.0
 10
-576.510403
 20
321.843123
 30
0.0
 10
-576.390191
 20
321.509536
 30
0.0
  0
LWPOLYLINE
  5
126
100
AcDbEntity
  8
Ebene_1
 62
1
100
AcDbPolyline
 90
2
 70
1
 10
-31.202827
 20
707.646228
 30
0.0
 10
-30.690424
 20
700.152527
 30
0.0
  0
SPLINE
  5
127
100
AcDbEntity
  8
Ebene_1
 62
1
100
AcDbSpline
 70
8
 71
3
 72
8
 73
4
 74
0
 40
0
 40
0
 40
0
 40
0
 40
1
 40
1
 40
1
 40
1
 10
-576.310551
 20
321.255588
 30
0.0
 10
-553.177301
 20
239.284694
 30
0.0
 10
-499.522286
 20
182.152554
 30
0.0
 10
-416.839137
 20
151.444461
 30
0.0
  0
SPLINE
  5
128
100
AcDbEntity
  8
Ebene_1
 62
1
100
AcDbSpline
 70
8
 71
3
 72
8
 73
4
 74
0
 40
0
 40
0
 40
0
 40
0
 40
1
 40
1
 40
1
 40
1
 10
-416.839137
 20
151.444461
 30
0.0
 10
-354.921067
 20
128.449454
 30
0.0
 10
-299.061668
 20
129.773286
 30
0.0
 10
-298.498176
 20
129.783805
 30
0.0
  0
SPLINE
  5
129
100
AcDbEntity
  8
Ebene_1
 62
1
100
AcDbSpline
 70
8
 71
3
 72
8
 73
4
 74
0
 40
0
 40
0
 40
0
 40
0
 40
1
 40
1
 40
1
 40
1
 10
-298.498176
 20
129.783805
 30
0.0
 10
-288.604748
 20
129.821371
 30
0.0
 10
675.380843
 20
133.463787
 30
0.0
 10
702.198583
 20
133.463787
 30
0.0
  0
SPLINE
  5
12a
100
AcDbEntity
  8
Ebene_1
 62
1
100
AcDbSpline
 70
8
 71
3
 72
8
 73
4
 74
0
 40
0
 40
0
 40
0
 40
0
 40
1
 40
1
 40
1
 40
1
 10
702.198583
 20
133.463787
 30
0.0
 10
702.411959
 20
133.463787
 30
0.0
 10
702.550202
 20
133.462285
 30
0.0
 10
702.662901
 20
133.463787
 30
0.0
  0
SPLINE
  5
12b
100
AcDbEntity
  8
Ebene_1
 62
1
100
AcDbSpline
 70
8
 71
3
 72
8
 73
4
 74
0
 40
0
 40
0
 40
0
 40
0
 40
1
 40
1
 40
1
 40
1
 10
702.662901
 20
133.463787
 30
0.0
 10
709.242992
 20
133.463787
 30
0.0
 10
742.167490
 20
137.807940
 30
0.0
 10
774.203923
 20
158.123727
 30
0.0
  0
SPLINE
  5
12c
100
AcDbEntity
  8
Ebene_1
 62
1
100
AcDbSpline
 70
8
 71
3
 72
8
 73
4
 74
0
 40
0
 40
0
 40
0
 40
0
 40
1
 40
1
 40
1
 40
1
 10
774.203923
 20
158.123727
 30
0.0
 10
814.144279
 20
183.453846
 30
0.0
 10
835.922141
 20
221.869016
 30
0.0
 10
838.937954
 20
272.305361
 30
0.0
  0
SPLINE
  5
12d
100
AcDbEntity
  8
Ebene_1
 62
1
100
AcDbSpline
 70
8
 71
3
 72
8
 73
4
 74
0
 40
0
 40
0
 40
0
 40
0
 40
1
 40
1
 40
1
 40
1
 10
838.937954
 20
272.305361
 30
0.0
 10
845.845622
 20
387.897981
 30
0.0
 10
848.321984
 20
886.981132
 30
0.0
 10
848.547381
 20
935.678915
 30
0.0
  0
LWPOLYLINE
  5
12e
100
AcDbEntity
  8
Ebene_1
 62
1
100
AcDbPolyline
 90
2
 70
1
 10
-576.390191
 20
321.509536
 30
0.0
 10
-576.310551
 20
321.255588
 30
0.0
  0
SPLINE
  5
12f
100
AcDbEntity
  8
Ebene_1
 62
1
100
AcDbSpline
 70
8
 71
3
 72
8
 73
4
 74
0
 40
0
 40
0
 40
0
 40
0
 40
1
 40
1
 40
1
 40
1
 10
639.781634
 20
800.206275
 30
0.0
 10
642.351160
 20
753.475457
 30
0.0
 10
637.288742
 20
708.651499
 30
0.0
 10
636.971684
 20
705.918184
 30
0.0
  0
LWPOLYLINE
  5
130
100
AcDbEntity
  8
Ebene_1
 62
1
100
AcDbPolyline
 90
3
 70
1
 10
848.547381
 20
935.678915
 30
0.0
 10
643.783182
 20
935.140967
 30
0.0
 10
639.781634
 20
800.206275
 30
0.0
  0
SPLINE
  5
131
100
AcDbEntity
  8
Ebene_1
 62
1
100
AcDbSpline
 70
8
 71
3
 72
8
 73
4
 74
0
 40
0
 40
0
 40
0
 40
0
 40
1
 40
1
 40
1
 40
1
 10
632.233838
 20
799.149914
 30
0.0
 10
631.093329
 20
820.924771
 30
0.0
 10
628.307421
 20
843.027206
 30
0.0
 10
622.598866
 20
861.089022
 30
0.0
  0
SPLINE
  5
132
100
AcDbEntity
  8
Ebene_1
 62
1
100
AcDbSpline
 70
8
 71
3
 72
8
 73
4
 74
0
 40
0
 40
0
 40
0
 40
0
 40
1
 40
1
 40
1
 40
1
 10
622.598866
 20
861.089022
 30
0.0
 10
607.997645
 20
907.275882
 30
0.0
 10
582.717113
 20
911.770299
 30
0.0
 10
528.498605
 20
910.976901
 30
0.0
  0
SPLINE
  5
133
100
AcDbEntity
  8
Ebene_1
 62
1
100
AcDbSpline
 70
8
 71
3
 72
8
 73
4
 74
0
 40
0
 40
0
 40
0
 40
0
 40
1
 40
1
 40
1
 40
1
 10
528.498605
 20
910.976901
 30
0.0
 10
523.655574
 20
910.671864
 30
0.0
 10
351.240359
 20
900.003070
 30
0.0
 10
144.746614
 20
906.967839
 30
0.0
  0
SPLINE
  5
134
100
AcDbEntity
  8
Ebene_1
 62
1
100
AcDbSpline
 70
8
 71
3
 72
8
 73
4
 74
0
 40
0
 40
0
 40
0
 40
0
 40
1
 40
1
 40
1
 40
1
 10
144.746614
 20
906.967839
 30
0.0
 10
22.301924
 20
911.100118
 30
0.0
 10
-88.013400
 20
920.535238
 30
0.0
 10
-183.130953
 20
935.011739
 30
0.0
  0
SPLINE
  5
135
100
AcDbEntity
  8
Ebene_1
 62
1
100
AcDbSpline
 70
8
 71
3
 72
8
 73
4
 74
0
 40
0
 40
0
 40
0
 40
0
 40
1
 40
1
 40
1
 40
1
 10
-183.130953
 20
935.011739
 30
0.0
 10
-302.217227
 20
953.135164
 30
0.0
 10
-397.751013
 20
979.270703
 30
0.0
 10
-467.080138
 20
1012.694079
 30
0.0
  0
SPLINE
  5
136
100
AcDbEntity
  8
Ebene_1
 62
1
100
AcDbSpline
 70
8
 71
3
 72
8
 73
4
 74
0
 40
0
 40
0
 40
0
 40
0
 40
1
 40
1
 40
1
 40
1
 10
-467.080138
 20
1012.694079
 30
0.0
 10
-467.714255
 20
1012.966058
 30
0.0
 10
-544.241060
 20
1045.439762
 30
0.0
 10
-605.896167
 20
1005.338622
 30
0.0
  0
SPLINE
  5
137
100
AcDbEntity
  8
Ebene_1
 62
1
100
AcDbSpline
 70
8
 71
3
 72
8
 73
4
 74
0
 40
0
 40
0
 40
0
 40
0
 40
1
 40
1
 40
1
 40
1
 10
-605.896167
 20
1005.338622
 30
0.0
 10
-658.371604
 20
971.207499
 30
0.0
 10
-685.419250
 20
895.854262
 30
0.0
 10
-686.286277
 20
781.372098
 30
0.0
  0
LWPOLYLINE
  5
138
100
AcDbEntity
  8
Ebene_1
 62
1
100
AcDbPolyline
 90
3
 70
1
 10
636.971684
 20
705.918184
 30
0.0
 10
629.483994
 20
706.462142
 30
0.0
 10
632.233838
 20
799.149914
 30
0.0
  0
SPLINE
  5
139
100
AcDbEntity
  8
Ebene_1
 62
1
100
AcDbSpline
 70
8
 71
3
 72
8
 73
4
 74
0
 40
0
 40
0
 40
0
 40
0
 40
1
 40
1
 40
1
 40
1
 10
36.888268
 20
795.221695
 30
0.0
 10
53.303183
 20
783.361302
 30
0.0
 10
83.420736
 20
754.989825
 30
0.0
 10
87.177354
 20
704.512908
 30
0.0
  0
SPLINE
  5
13a
100
AcDbEntity
  8
Ebene_1
 62
1
100
AcDbSpline
 70
8
 71
3
 72
8
 73
4
 74
0
 40
0
 40
0
 40
0
 40
0
 40
1
 40
1
 40
1
 40
1
 10
87.177354
 20
704.512908
 30
0.0
 10
91.512490
 20
646.247772
 30
0.0
 10
63.234177
 20
626.986844
 30
0.0
 10
48.040914
 20
616.638114
 30
0.0
  0
SPLINE
  5
13b
100
AcDbEntity
  8
Ebene_1
 62
1
100
AcDbSpline
 70
8
 71
3
 72
8
 73
4
 74
0
 40
0
 40
0
 40
0
 40
0
 40
1
 40
1
 40
1
 40
1
 10
48.040914
 20
616.638114
 30
0.0
 10
46.548785
 20
615.622325
 30
0.0
 10
45.176869
 20
614.687678
 30
0.0
 10
43.968740
 20
613.805625
 30
0.0
  0
SPLINE
  5
13c
100
AcDbEntity
  8
Ebene_1
 62
1
100
AcDbSpline
 70
8
 71
3
 72
8
 73
4
 74
0
 40
0
 40
0
 40
0
 40
0
 40
1
 40
1
 40
1
 40
1
 10
43.968740
 20
613.805625
 30
0.0
 10
33.540371
 20
606.166167
 30
0.0
 10
-90.578268
 20
573.118453
 30
0.0
 10
-157.416005
 20
555.684743
 30
0.0
  0
SPLINE
  5
13d
100
AcDbEntity
  8
Ebene_1
 62
1
100
AcDbSpline
 70
8
 71
3
 72
8
 73
4
 74
0
 40
0
 40
0
 40
0
 40
0
 40
1
 40
1
 40
1
 40
1
 10
-157.416005
 20
555.684743
 30
0.0
 10
-113.200618
 20
557.273041
 30
0.0
 10
-58.986619
 20
554.153546
 30
0.0
 10
11.595714
 20
539.155626
 30
0.0
  0
SPLINE
  5
13e
100
AcDbEntity
  8
Ebene_1
 62
1
100
AcDbSpline
 70
8
 71
3
 72
8
 73
4
 74
0
 40
0
 40
0
 40
0
 40
0
 40
1
 40
1
 40
1
 40
1
 10
11.595714
 20
539.155626
 30
0.0
 10
45.872594
 20
531.873799
 30
0.0
 10
71.560344
 20
535.211178
 30
0.0
 10
87.940698
 20
549.079107
 30
0.0
  0
SPLINE
  5
13f
100
AcDbEntity
  8
Ebene_1
 62
1
100
AcDbSpline
 70
8
 71
3
 72
8
 73
4
 74
0
 40
0
 40
0
 40
0
 40
0
 40
1
 40
1
 40
1
 40
1
 10
87.940698
 20
549.079107
 30
0.0
 10
107.939427
 20
566.010933
 30
0.0
 10
106.995765
 20
593.204335
 30
0.0
 10
106.982241
 20
593.476314
 30
0.0
  0
LWPOLYLINE
  5
140
100
AcDbEntity
  8
Ebene_1
 62
1
100
AcDbPolyline
 90
2
 70
1
 10
-686.286277
 20
781.372098
 30
0.0
 10
-686.286277
 20
781.372098
 30
0.0
  0
SPLINE
  5
141
100
AcDbEntity
  8
Ebene_1
 62
1
100
AcDbSpline
 70
8
 71
3
 72
8
 73
4
 74
0
 40
0
 40
0
 40
0
 40
0
 40
1
 40
1
 40
1
 40
1
 10
124.436988
 20
745.967933
 30
0.0
 10
237.327849
 20
757.016896
 30
0.0
 10
329.008848
 20
755.243772
 30
0.0
 10
375.974078
 20
741.100859
 30
0.0
  0
SPLINE
  5
142
100
AcDbEntity
  8
Ebene_1
 62
1
100
AcDbSpline
 70
8
 71
3
 72
8
 73
4
 74
0
 40
0
 40
0
 40
0
 40
0
 40
1
 40
1
 40
1
 40
1
 10
375.974078
 20
741.100859
 30
0.0
 10
413.982031
 20
729.653695
 30
0.0
 10
431.949180
 20
704.087659
 30
0.0
 10
440.327940
 20
684.655429
 30
0.0
  0
SPLINE
  5
143
100
AcDbEntity
  8
Ebene_1
 62
1
100
AcDbSpline
 70
8
 71
3
 72
8
 73
4
 74
0
 40
0
 40
0
 40
0
 40
0
 40
1
 40
1
 40
1
 40
1
 10
440.327940
 20
684.655429
 30
0.0
 10
449.370869
 20
663.687493
 30
0.0
 10
449.450509
 20
645.603137
 30
0.0
 10
449.449007
 20
644.844300
 30
0.0
  0
SPLINE
  5
144
100
AcDbEntity
  8
Ebene_1
 62
1
100
AcDbSpline
 70
8
 71
3
 72
8
 73
4
 74
0
 40
0
 40
0
 40
0
 40
0
 40
1
 40
1
 40
1
 40
1
 10
449.449007
 20
644.844300
 30
0.0
 10
450.509875
 20
612.424692
 30
0.0
 10
440.838840
 20
585.658042
 30
0.0
 10
420.706376
 20
565.415885
 30
0.0
  0
SPLINE
  5
145
100
AcDbEntity
  8
Ebene_1
 62
1
100
AcDbSpline
 70
8
 71
3
 72
8
 73
4
 74
0
 40
0
 40
0
 40
0
 40
0
 40
1
 40
1
 40
1
 40
1
 10
420.706376
 20
565.415885
 30
0.0
 10
397.654269
 20
542.239058
 30
0.0
 10
365.431507
 20
531.917376
 30
0.0
 10
339.991694
 20
527.343318
 30
0.0
  0
SPLINE
  5
146
100
AcDbEntity
  8
Ebene_1
 62
1
100
AcDbSpline
 70
8
 71
3
 72
8
 73
4
 74
0
 40
0
 40
0
 40
0
 40
0
 40
1
 40
1
 40
1
 40
1
 10
339.991694
 20
527.343318
 30
0.0
 10
395.652743
 20
524.464247
 30
0.0
 10
436.279809
 20
534.443325
 30
0.0
 10
458.609143
 20
556.759135
 30
0.0
  0
SPLINE
  5
147
100
AcDbEntity
  8
Ebene_1
 62
1
100
AcDbSpline
 70
8
 71
3
 72
8
 73
4
 74
0
 40
0
 40
0
 40
0
 40
0
 40
1
 40
1
 40
1
 40
1
 10
458.609143
 20
556.759135
 30
0.0
 10
481.151852
 20
579.286819
 30
0.0
 10
477.587574
 20
607.096306
 30
0.0
 10
477.550008
 20
607.374296
 30
0.0
  0
LWPOLYLINE
  5
148
100
AcDbEntity
  8
Ebene_1
 62
1
100
AcDbPolyline
 90
5
 70
1
 10
106.982241
 20
593.476314
 30
0.0
 10
106.973225
 20
593.734769
 30
0.0
 10
106.995765
 20
593.993224
 30
0.0
 10
121.353556
 20
745.665901
 30
0.0
 10
124.436988
 20
745.967933
 30
0.0
  0
SPLINE
  5
149
100
AcDbEntity
  8
Ebene_1
 62
1
100
AcDbSpline
 70
8
 71
3
 72
8
 73
4
 74
0
 40
0
 40
0
 40
0
 40
0
 40
1
 40
1
 40
1
 40
1
 10
477.524463
 20
607.596687
 30
0.0
 10
469.806868
 20
702.953161
 30
0.0
 10
462.467940
 20
752.522479
 30
0.0
 10
441.632237
 20
776.330417
 30
0.0
  0
SPLINE
  5
14a
100
AcDbEntity
  8
Ebene_1
 62
1
100
AcDbSpline
 70
8
 71
3
 72
8
 73
4
 74
0
 40
0
 40
0
 40
0
 40
0
 40
1
 40
1
 40
1
 40
1
 10
441.632237
 20
776.330417
 30
0.0
 10
421.535837
 20
799.292365
 30
0.0
 10
387.705243
 20
798.966291
 30
0.0
 10
326.272527
 20
798.371243
 30
0.0
  0
SPLINE
  5
14b
100
AcDbEntity
  8
Ebene_1
 62
1
100
AcDbSpline
 70
8
 71
3
 72
8
 73
4
 74
0
 40
0
 40
0
 40
0
 40
0
 40
1
 40
1
 40
1
 40
1
 10
326.272527
 20
798.371243
 30
0.0
 10
307.200932
 20
798.187920
 30
0.0
 10
285.582350
 20
797.979052
 30
0.0
 10
260.959977
 20
798.443370
 30
0.0
  0
SPLINE
  5
14c
100
AcDbEntity
  8
Ebene_1
 62
1
100
AcDbSpline
 70
8
 71
3
 72
8
 73
4
 74
0
 40
0
 40
0
 40
0
 40
0
 40
1
 40
1
 40
1
 40
1
 10
260.959977
 20
798.443370
 30
0.0
 10
242.576594
 20
798.788979
 30
0.0
 10
163.287925
 20
797.412554
 30
0.0
 10
79.342553
 20
795.956489
 30
0.0
  0
SPLINE
  5
14d
100
AcDbEntity
  8
Ebene_1
 62
1
100
AcDbSpline
 70
8
 71
3
 72
8
 73
4
 74
0
 40
0
 40
0
 40
0
 40
0
 40
1
 40
1
 40
1
 40
1
 10
79.342553
 20
795.956489
 30
0.0
 10
65.234200
 20
795.711558
 30
0.0
 10
51.026673
 20
795.465123
 30
0.0
 10
36.888268
 20
795.221695
 30
0.0
  0
LWPOLYLINE
  5
14e
100
AcDbEntity
  8
Ebene_1
 62
1
100
AcDbPolyline
 90
2
 70
1
 10
477.550008
 20
607.374296
 30
0.0
 10
477.524463
 20
607.596687
 30
0.0
  0
SPLINE
  5
14f
100
AcDbEntity
  8
Ebene_1
 62
1
100
AcDbSpline
 70
8
 71
3
 72
8
 73
4
 74
0
 40
0
 40
0
 40
0
 40
0
 40
1
 40
1
 40
1
 40
1
 10
-434.011086
 20
481.228586
 30
0.0
 10
-452.815210
 20
470.359940
 30
0.0
 10
-467.306737
 20
458.129897
 30
0.0
 10
-474.690745
 20
444.527937
 30
0.0
  0
LWPOLYLINE
  5
150
100
AcDbEntity
  8
Ebene_1
 62
1
100
AcDbPolyline
 90
2
 70
1
 10
36.888268
 20
795.221695
 30
0.0
 10
36.888268
 20
795.221695
 30
0.0
  0
SPLINE
  5
151
100
AcDbEntity
  8
Ebene_1
 62
1
100
AcDbSpline
 70
8
 71
3
 72
8
 73
4
 74
0
 40
0
 40
0
 40
0
 40
0
 40
1
 40
1
 40
1
 40
1
 10
-474.792925
 20
444.353630
 30
0.0
 10
-475.225687
 20
443.648888
 30
0.0
 10
-517.691993
 20
373.419677
 30
0.0
 10
-488.279181
 20
325.809811
 30
0.0
  0
SPLINE
  5
152
100
AcDbEntity
  8
Ebene_1
 62
1
100
AcDbSpline
 70
8
 71
3
 72
8
 73
4
 74
0
 40
0
 40
0
 40
0
 40
0
 40
1
 40
1
 40
1
 40
1
 10
-488.279181
 20
325.809811
 30
0.0
 10
-472.968711
 20
301.028157
 30
0.0
 10
-441.211770
 20
286.371339
 30
0.0
 10
-393.564338
 20
281.928012
 30
0.0
  0
SPLINE
  5
153
100
AcDbEntity
  8
Ebene_1
 62
1
100
AcDbSpline
 70
8
 71
3
 72
8
 73
4
 74
0
 40
0
 40
0
 40
0
 40
0
 40
1
 40
1
 40
1
 40
1
 10
-393.564338
 20
281.928012
 30
0.0
 10
-416.702096
 20
294.177590
 30
0.0
 10
-433.294323
 20
311.824676
 30
0.0
 10
-442.962354
 20
334.639364
 30
0.0
  0
SPLINE
  5
154
100
AcDbEntity
  8
Ebene_1
 62
1
100
AcDbSpline
 70
8
 71
3
 72
8
 73
4
 74
0
 40
0
 40
0
 40
0
 40
0
 40
1
 40
1
 40
1
 40
1
 10
-442.962354
 20
334.639364
 30
0.0
 10
-466.142186
 20
389.338719
 30
0.0
 10
-443.494291
 20
457.295928
 30
0.0
 10
-434.011086
 20
481.228586
 30
0.0
  0
LWPOLYLINE
  5
155
100
AcDbEntity
  8
Ebene_1
 62
1
100
AcDbPolyline
 90
2
 70
1
 10
-474.690745
 20
444.527937
 30
0.0
 10
-474.792925
 20
444.353630
 30
0.0
  0
SPLINE
  5
156
100
AcDbEntity
  8
Ebene_1
 62
1
100
AcDbSpline
 70
8
 71
3
 72
8
 73
4
 74
0
 40
0
 40
0
 40
0
 40
0
 40
1
 40
1
 40
1
 40
1
 10
240.581981
 20
411.535970
 30
0.0
 10
237.668348
 20
413.414279
 30
0.0
 10
234.778758
 20
415.776440
 30
0.0
 10
231.986840
 20
418.750178
 30
0.0
  0
SPLINE
  5
157
100
AcDbEntity
  8
Ebene_1
 62
1
100
AcDbSpline
 70
8
 71
3
 72
8
 73
4
 74
0
 40
0
 40
0
 40
0
 40
0
 40
1
 40
1
 40
1
 40
1
 10
231.986840
 20
418.750178
 30
0.0
 10
207.296848
 20
445.057019
 30
0.0
 10
201.248694
 20
508.709144
 30
0.0
 10
214.015183
 20
607.940944
 30
0.0
  0
LWPOLYLINE
  5
158
100
AcDbEntity
  8
Ebene_1
 62
1
100
AcDbPolyline
 90
2
 70
1
 10
-434.011086
 20
481.228586
 30
0.0
 10
-434.011086
 20
481.228586
 30
0.0
  0
SPLINE
  5
159
100
AcDbEntity
  8
Ebene_1
 62
1
100
AcDbSpline
 70
8
 71
3
 72
8
 73
4
 74
0
 40
0
 40
0
 40
0
 40
0
 40
1
 40
1
 40
1
 40
1
 10
210.921233
 20
621.972661
 30
0.0
 10
210.533550
 20
606.065640
 30
0.0
 10
208.668765
 20
545.496947
 30
0.0
 10
201.861774
 20
496.397957
 30
0.0
  0
SPLINE
  5
15a
100
AcDbEntity
  8
Ebene_1
 62
1
100
AcDbSpline
 70
8
 71
3
 72
8
 73
4
 74
0
 40
0
 40
0
 40
0
 40
0
 40
1
 40
1
 40
1
 40
1
 10
201.861774
 20
496.397957
 30
0.0
 10
195.654339
 20
451.626591
 30
0.0
 10
176.325792
 20
423.095833
 30
0.0
 10
143.166881
 20
410.057366
 30
0.0
  0
SPLINE
  5
15b
100
AcDbEntity
  8
Ebene_1
 62
1
100
AcDbSpline
 70
8
 71
3
 72
8
 73
4
 74
0
 40
0
 40
0
 40
0
 40
0
 40
1
 40
1
 40
1
 40
1
 10
143.166881
 20
410.057366
 30
0.0
 10
176.315273
 20
410.560752
 30
0.0
 10
209.092511
 20
411.056626
 30
0.0
 10
240.581981
 20
411.535970
 30
0.0
  0
LWPOLYLINE
  5
15c
100
AcDbEntity
  8
Ebene_1
 62
1
100
AcDbPolyline
 90
4
 70
1
 10
214.015183
 20
607.940944
 30
0.0
 10
214.392347
 20
610.878619
 30
0.0
 10
274.513252
 20
617.367048
 30
0.0
 10
210.921233
 20
621.972661
 30
0.0
  0
LWPOLYLINE
  5
15d
100
AcDbEntity
  8
Ebene_1
 62
1
100
AcDbPolyline
 90
2
 70
1
 10
240.581981
 20
411.535970
 30
0.0
 10
240.581981
 20
411.535970
 30
0.0
  0
SPLINE
  5
15e
100
AcDbEntity
  8
Ebene_1
 62
1
100
AcDbSpline
 70
8
 71
3
 72
8
 73
4
 74
0
 40
0
 40
0
 40
0
 40
0
 40
1
 40
1
 40
1
 40
1
 10
722.520681
 20
458.262881
 30
0.0
 10
722.755094
 20
467.012794
 30
0.0
 10
722.882819
 20
476.524550
 30
0.0
 10
722.912872
 20
486.936390
 30
0.0
  0
LWPOLYLINE
  5
15f
100
AcDbEntity
  8
Ebene_1
 62
1
100
AcDbPolyline
 90
2
 70
1
 10
663.424581
 20
598.527462
 30
0.0
 10
722.520681
 20
458.262881
 30
0.0
  0
SPLINE
  5
160
100
AcDbEntity
  8
Ebene_1
 62
1
100
AcDbSpline
 70
8
 71
3
 72
8
 73
4
 74
0
 40
0
 40
0
 40
0
 40
0
 40
1
 40
1
 40
1
 40
1
 10
725.752875
 20
624.577349
 30
0.0
 10
710.238045
 20
602.309624
 30
0.0
 10
688.907971
 20
597.744583
 30
0.0
 10
674.076846
 20
597.744583
 30
0.0
  0
SPLINE
  5
161
100
AcDbEntity
  8
Ebene_1
 62
1
100
AcDbSpline
 70
8
 71
3
 72
8
 73
4
 74
0
 40
0
 40
0
 40
0
 40
0
 40
1
 40
1
 40
1
 40
1
 10
674.076846
 20
597.744583
 30
0.0
 10
669.920524
 20
597.744583
 30
0.0
 10
666.287124
 20
598.103715
 30
0.0
 10
663.424581
 20
598.527462
 30
0.0
  0
LWPOLYLINE
  5
162
100
AcDbEntity
  8
Ebene_1
 62
1
100
AcDbPolyline
 90
2
 70
1
 10
722.912872
 20
486.936390
 30
0.0
 10
725.752875
 20
624.577349
 30
0.0
  0
SPLINE
  5
163
100
AcDbEntity
  8
Ebene_1
 62
1
100
AcDbSpline
 70
8
 71
3
 72
8
 73
4
 74
0
 40
0
 40
0
 40
0
 40
0
 40
1
 40
1
 40
1
 40
1
 10
-574.135019
 20
753.287627
 30
0.0
 10
-565.820873
 20
716.732734
 30
0.0
 10
-548.427735
 20
690.857153
 30
0.0
 10
-522.436450
 20
676.379150
 30
0.0
  0
SPLINE
  5
164
100
AcDbEntity
  8
Ebene_1
 62
1
100
AcDbSpline
 70
8
 71
3
 72
8
 73
4
 74
0
 40
0
 40
0
 40
0
 40
0
 40
1
 40
1
 40
1
 40
1
 10
-522.436450
 20
676.379150
 30
0.0
 10
-477.289422
 20
651.230850
 30
0.0
 10
-422.955211
 20
669.414381
 30
0.0
 10
-420.665177
 20
670.203271
 30
0.0
  0
LWPOLYLINE
  5
165
100
AcDbEntity
  8
Ebene_1
 62
1
100
AcDbPolyline
 90
2
 70
1
 10
663.424581
 20
598.527462
 30
0.0
 10
663.424581
 20
598.527462
 30
0.0
  0
SPLINE
  5
166
100
AcDbEntity
  8
Ebene_1
 62
1
100
AcDbSpline
 70
8
 71
3
 72
8
 73
4
 74
0
 40
0
 40
0
 40
0
 40
0
 40
1
 40
1
 40
1
 40
1
 10
-423.105476
 20
677.307786
 30
0.0
 10
-423.634407
 20
677.127468
 30
0.0
 10
-476.529083
 20
659.409758
 30
0.0
 10
-518.780510
 20
682.942712
 30
0.0
  0
SPLINE
  5
167
100
AcDbEntity
  8
Ebene_1
 62
1
100
AcDbSpline
 70
8
 71
3
 72
8
 73
4
 74
0
 40
0
 40
0
 40
0
 40
0
 40
1
 40
1
 40
1
 40
1
 10
-518.780510
 20
682.942712
 30
0.0
 10
-542.828872
 20
696.338809
 30
0.0
 10
-558.986835
 20
720.567489
 30
0.0
 10
-566.808112
 20
754.954062
 30
0.0
  0
SPLINE
  5
168
100
AcDbEntity
  8
Ebene_1
 62
1
100
AcDbSpline
 70
8
 71
3
 72
8
 73
4
 74
0
 40
0
 40
0
 40
0
 40
0
 40
1
 40
1
 40
1
 40
1
 10
-566.808112
 20
754.954062
 30
0.0
 10
-583.368784
 20
827.755805
 30
0.0
 10
-583.371790
 20
867.657092
 30
0.0
 10
-566.818631
 20
884.331965
 30
0.0
  0
SPLINE
  5
169
100
AcDbEntity
  8
Ebene_1
 62
1
100
AcDbSpline
 70
8
 71
3
 72
8
 73
4
 74
0
 40
0
 40
0
 40
0
 40
0
 40
1
 40
1
 40
1
 40
1
 10
-566.818631
 20
884.331965
 30
0.0
 10
-556.629182
 20
894.599552
 30
0.0
 10
-539.317186
 20
896.619109
 30
0.0
 10
-512.337160
 20
890.689665
 30
0.0
  0
SPLINE
  5
16a
100
AcDbEntity
  8
Ebene_1
 62
1
100
AcDbSpline
 70
8
 71
3
 72
8
 73
4
 74
0
 40
0
 40
0
 40
0
 40
0
 40
1
 40
1
 40
1
 40
1
 10
-512.337160
 20
890.689665
 30
0.0
 10
-492.527765
 20
886.336496
 30
0.0
 10
-460.004474
 20
875.912634
 30
0.0
 10
-422.346639
 20
863.843374
 30
0.0
  0
SPLINE
  5
16b
100
AcDbEntity
  8
Ebene_1
 62
1
100
AcDbSpline
 70
8
 71
3
 72
8
 73
4
 74
0
 40
0
 40
0
 40
0
 40
0
 40
1
 40
1
 40
1
 40
1
 10
-422.346639
 20
863.843374
 30
0.0
 10
-327.669362
 20
833.495916
 30
0.0
 10
-197.980411
 20
791.944722
 30
0.0
 10
-110.542887
 20
792.959009
 30
0.0
  0
SPLINE
  5
16c
100
AcDbEntity
  8
Ebene_1
 62
1
100
AcDbSpline
 70
8
 71
3
 72
8
 73
4
 74
0
 40
0
 40
0
 40
0
 40
0
 40
1
 40
1
 40
1
 40
1
 10
-110.542887
 20
792.959009
 30
0.0
 10
-72.093156
 20
793.409803
 30
0.0
 10
-25.138444
 20
794.164132
 30
0.0
 10
23.309899
 20
794.989085
 30
0.0
  0
SPLINE
  5
16d
100
AcDbEntity
  8
Ebene_1
 62
1
100
AcDbSpline
 70
8
 71
3
 72
8
 73
4
 74
0
 40
0
 40
0
 40
0
 40
0
 40
1
 40
1
 40
1
 40
1
 10
23.309899
 20
794.989085
 30
0.0
 10
27.601459
 20
792.662987
 30
0.0
 10
75.103135
 20
765.526686
 30
0.0
 10
79.684705
 20
703.954224
 30
0.0
  0
SPLINE
  5
16e
100
AcDbEntity
  8
Ebene_1
 62
1
100
AcDbSpline
 70
8
 71
3
 72
8
 73
4
 74
0
 40
0
 40
0
 40
0
 40
0
 40
1
 40
1
 40
1
 40
1
 10
79.684705
 20
703.954224
 30
0.0
 10
83.698275
 20
650.016712
 30
0.0
 10
58.730293
 20
633.009753
 30
0.0
 10
43.812014
 20
622.848854
 30
0.0
  0
SPLINE
  5
16f
100
AcDbEntity
  8
Ebene_1
 62
1
100
AcDbSpline
 70
8
 71
3
 72
8
 73
4
 74
0
 40
0
 40
0
 40
0
 40
0
 40
1
 40
1
 40
1
 40
1
 10
43.812014
 20
622.848854
 30
0.0
 10
42.241748
 20
621.778970
 30
0.0
 10
40.799207
 20
620.796239
 30
0.0
 10
39.530973
 20
619.864598
 30
0.0
  0
SPLINE
  5
170
100
AcDbEntity
  8
Ebene_1
 62
1
100
AcDbSpline
 70
8
 71
3
 72
8
 73
4
 74
0
 40
0
 40
0
 40
0
 40
0
 40
1
 40
1
 40
1
 40
1
 10
39.530973
 20
619.864598
 30
0.0
 10
30.205546
 20
613.036570
 30
0.0
 10
-107.770503
 20
576.065444
 30
0.0
 10
-198.599501
 20
552.787940
 30
0.0
  0
SPLINE
  5
171
100
AcDbEntity
  8
Ebene_1
 62
1
100
AcDbSpline
 70
8
 71
3
 72
8
 73
4
 74
0
 40
0
 40
0
 40
0
 40
0
 40
1
 40
1
 40
1
 40
1
 10
-198.599501
 20
552.787940
 30
0.0
 10
-204.082660
 20
552.222945
 30
0.0
 10
-209.408041
 20
551.611367
 30
0.0
 10
-214.584660
 20
550.971240
 30
0.0
  0
SPLINE
  5
172
100
AcDbEntity
  8
Ebene_1
 62
1
100
AcDbSpline
 70
8
 71
3
 72
8
 73
4
 74
0
 40
0
 40
0
 40
0
 40
0
 40
1
 40
1
 40
1
 40
1
 10
-214.584660
 20
550.971240
 30
0.0
 10
-223.810912
 20
549.830731
 30
0.0
 10
-440.919355
 20
522.204566
 30
0.0
 10
-481.245892
 20
448.200706
 30
0.0
  0
SPLINE
  5
173
100
AcDbEntity
  8
Ebene_1
 62
1
100
AcDbSpline
 70
8
 71
3
 72
8
 73
4
 74
0
 40
0
 40
0
 40
0
 40
0
 40
1
 40
1
 40
1
 40
1
 10
-481.245892
 20
448.200706
 30
0.0
 10
-483.762825
 20
444.084956
 30
0.0
 10
-526.254676
 20
373.024782
 30
0.0
 10
-494.684063
 20
321.883695
 30
0.0
  0
SPLINE
  5
174
100
AcDbEntity
  8
Ebene_1
 62
1
100
AcDbSpline
 70
8
 71
3
 72
8
 73
4
 74
0
 40
0
 40
0
 40
0
 40
0
 40
1
 40
1
 40
1
 40
1
 10
-494.684063
 20
321.883695
 30
0.0
 10
-475.943051
 20
291.524216
 30
0.0
 10
-435.282926
 20
275.232517
 30
0.0
 10
-373.482062
 20
273.197933
 30
0.0
  0
SPLINE
  5
175
100
AcDbEntity
  8
Ebene_1
 62
1
100
AcDbSpline
 70
8
 71
3
 72
8
 73
4
 74
0
 40
0
 40
0
 40
0
 40
0
 40
1
 40
1
 40
1
 40
1
 10
-373.482062
 20
273.197933
 30
0.0
 10
-373.427967
 20
273.179902
 30
0.0
 10
-373.375374
 20
273.157362
 30
0.0
 10
-373.321279
 20
273.137827
 30
0.0
  0
LWPOLYLINE
  5
176
100
AcDbEntity
  8
Ebene_1
 62
1
100
AcDbPolyline
 90
2
 70
1
 10
-420.665177
 20
670.203271
 30
0.0
 10
-423.105476
 20
677.307786
 30
0.0
  0
SPLINE
  5
177
100
AcDbEntity
  8
Ebene_1
 62
1
100
AcDbSpline
 70
8
 71
3
 72
8
 73
4
 74
0
 40
0
 40
0
 40
0
 40
0
 40
1
 40
1
 40
1
 40
1
 10
-373.303247
 20
273.191923
 30
0.0
 10
-368.953084
 20
273.050674
 30
0.0
 10
-364.503747
 20
272.975542
 30
0.0
 10
-359.944716
 20
272.975542
 30
0.0
  0
SPLINE
  5
178
100
AcDbEntity
  8
Ebene_1
 62
1
100
AcDbSpline
 70
8
 71
3
 72
8
 73
4
 74
0
 40
0
 40
0
 40
0
 40
0
 40
1
 40
1
 40
1
 40
1
 10
-359.944716
 20
272.975542
 30
0.0
 10
-345.317950
 20
272.975542
 30
0.0
 10
-329.612284
 20
273.701320
 30
0.0
 10
-312.848755
 20
275.158888
 30
0.0
  0
SPLINE
  5
179
100
AcDbEntity
  8
Ebene_1
 62
1
100
AcDbSpline
 70
8
 71
3
 72
8
 73
4
 74
0
 40
0
 40
0
 40
0
 40
0
 40
1
 40
1
 40
1
 40
1
 10
-312.848755
 20
275.158888
 30
0.0
 10
-272.876843
 20
275.187438
 30
0.0
 10
606.637449
 20
275.844095
 30
0.0
 10
636.239594
 20
280.781793
 30
0.0
  0
SPLINE
  5
17a
100
AcDbEntity
  8
Ebene_1
 62
1
100
AcDbSpline
 70
8
 71
3
 72
8
 73
4
 74
0
 40
0
 40
0
 40
0
 40
0
 40
1
 40
1
 40
1
 40
1
 10
636.239594
 20
280.781793
 30
0.0
 10
643.577019
 20
281.447465
 30
0.0
 10
700.350027
 20
289.684976
 30
0.0
 10
722.583191
 20
385.313428
 30
0.0
  0
SPLINE
  5
17b
100
AcDbEntity
  8
Ebene_1
 62
1
100
AcDbSpline
 70
8
 71
3
 72
8
 73
4
 74
0
 40
0
 40
0
 40
0
 40
0
 40
1
 40
1
 40
1
 40
1
 10
722.583191
 20
385.313428
 30
0.0
 10
728.013757
 20
408.684097
 30
0.0
 10
730.287262
 20
438.120950
 30
0.0
 10
730.425506
 20
486.848786
 30
0.0
  0
LWPOLYLINE
  5
17c
100
AcDbEntity
  8
Ebene_1
 62
1
100
AcDbPolyline
 90
2
 70
1
 10
-373.321279
 20
273.137827
 30
0.0
 10
-373.303247
 20
273.191923
 30
0.0
  0
SPLINE
  5
17d
100
AcDbEntity
  8
Ebene_1
 62
1
100
AcDbSpline
 70
8
 71
3
 72
8
 73
4
 74
0
 40
0
 40
0
 40
0
 40
0
 40
1
 40
1
 40
1
 40
1
 10
725.878496
 20
639.789696
 30
0.0
 10
705.681418
 20
597.087475
 30
0.0
 10
666.810947
 20
605.022954
 30
0.0
 10
659.934834
 20
606.808098
 30
0.0
  0
LWPOLYLINE
  5
17e
100
AcDbEntity
  8
Ebene_1
 62
1
100
AcDbPolyline
 90
5
 70
1
 10
730.425506
 20
486.848786
 30
0.0
 10
737.755418
 20
841.967839
 30
0.0
 10
730.245188
 20
842.122612
 30
0.0
 10
726.066327
 20
639.701040
 30
0.0
 10
725.878496
 20
639.789696
 30
0.0
  0
SPLINE
  5
17f
100
AcDbEntity
  8
Ebene_1
 62
1
100
AcDbSpline
 70
8
 71
3
 72
8
 73
4
 74
0
 40
0
 40
0
 40
0
 40
0
 40
1
 40
1
 40
1
 40
1
 10
539.602866
 20
569.976719
 30
0.0
 10
539.668982
 20
569.797904
 30
0.0
 10
543.463166
 20
559.348497
 30
0.0
 10
546.962830
 20
539.546615
 30
0.0
  0
LWPOLYLINE
  5
180
100
AcDbEntity
  8
Ebene_1
 62
1
100
AcDbPolyline
 90
5
 70
1
 10
659.934834
 20
606.808098
 30
0.0
 10
657.682366
 20
612.154516
 30
0.0
 10
541.971037
 20
574.863326
 30
0.0
 10
538.236959
 20
573.656701
 30
0.0
 10
539.602866
 20
569.976719
 30
0.0
  0
SPLINE
  5
181
100
AcDbEntity
  8
Ebene_1
 62
1
100
AcDbSpline
 70
8
 71
3
 72
8
 73
4
 74
0
 40
0
 40
0
 40
0
 40
0
 40
1
 40
1
 40
1
 40
1
 10
546.896714
 20
539.566149
 30
0.0
 10
529.312739
 20
478.797604
 30
0.0
 10
497.186147
 20
448.030907
 30
0.0
 10
473.330124
 20
432.921792
 30
0.0
  0
SPLINE
  5
182
100
AcDbEntity
  8
Ebene_1
 62
1
100
AcDbSpline
 70
8
 71
3
 72
8
 73
4
 74
0
 40
0
 40
0
 40
0
 40
0
 40
1
 40
1
 40
1
 40
1
 10
473.330124
 20
432.921792
 30
0.0
 10
447.474078
 20
416.547448
 30
0.0
 10
425.442268
 20
414.475298
 30
0.0
 10
425.224384
 20
414.455763
 30
0.0
  0
LWPOLYLINE
  5
183
100
AcDbEntity
  8
Ebene_1
 62
1
100
AcDbPolyline
 90
2
 70
1
 10
546.962830
 20
539.546615
 30
0.0
 10
546.896714
 20
539.566149
 30
0.0
  0
SPLINE
  5
184
100
AcDbEntity
  8
Ebene_1
 62
1
100
AcDbSpline
 70
8
 71
3
 72
8
 73
4
 74
0
 40
0
 40
0
 40
0
 40
0
 40
1
 40
1
 40
1
 40
1
 10
425.231898
 20
414.362599
 30
0.0
 10
386.349405
 20
413.760038
 30
0.0
 10
335.819895
 20
412.986175
 30
0.0
 10
279.496179
 20
412.126661
 30
0.0
  0
LWPOLYLINE
  5
185
100
AcDbEntity
  8
Ebene_1
 62
1
100
AcDbPolyline
 90
2
 70
1
 10
425.224384
 20
414.455763
 30
0.0
 10
425.231898
 20
414.362599
 30
0.0
  0
SPLINE
  5
186
100
AcDbEntity
  8
Ebene_1
 62
1
100
AcDbSpline
 70
8
 71
3
 72
8
 73
4
 74
0
 40
0
 40
0
 40
0
 40
0
 40
1
 40
1
 40
1
 40
1
 10
279.541259
 20
412.350555
 30
0.0
 10
277.825236
 20
412.685645
 30
0.0
 10
275.750081
 20
412.551910
 30
0.0
 10
272.883030
 20
412.364079
 30
0.0
  0
SPLINE
  5
187
100
AcDbEntity
  8
Ebene_1
 62
1
100
AcDbSpline
 70
8
 71
3
 72
8
 73
4
 74
0
 40
0
 40
0
 40
0
 40
0
 40
1
 40
1
 40
1
 40
1
 10
272.883030
 20
412.364079
 30
0.0
 10
264.217265
 20
411.806597
 30
0.0
 10
249.697188
 20
410.861432
 30
0.0
 10
237.465641
 20
423.892386
 30
0.0
  0
SPLINE
  5
188
100
AcDbEntity
  8
Ebene_1
 62
1
100
AcDbSpline
 70
8
 71
3
 72
8
 73
4
 74
0
 40
0
 40
0
 40
0
 40
0
 40
1
 40
1
 40
1
 40
1
 10
237.465641
 20
423.892386
 30
0.0
 10
214.617894
 20
448.233765
 30
0.0
 10
209.112196
 20
508.835516
 30
0.0
 10
221.092800
 20
604.044730
 30
0.0
  0
LWPOLYLINE
  5
189
100
AcDbEntity
  8
Ebene_1
 62
1
100
AcDbPolyline
 90
2
 70
1
 10
279.496179
 20
412.126661
 30
0.0
 10
279.541259
 20
412.350555
 30
0.0
  0
SPLINE
  5
18a
100
AcDbEntity
  8
Ebene_1
 62
1
100
AcDbSpline
 70
8
 71
3
 72
8
 73
4
 74
0
 40
0
 40
0
 40
0
 40
0
 40
1
 40
1
 40
1
 40
1
 10
203.493799
 20
626.066022
 30
0.0
 10
203.483280
 20
625.350762
 30
0.0
 10
202.224062
 20
553.722586
 30
0.0
 10
194.419314
 20
497.430426
 30
0.0
  0
SPLINE
  5
18b
100
AcDbEntity
  8
Ebene_1
 62
1
100
AcDbSpline
 70
8
 71
3
 72
8
 73
4
 74
0
 40
0
 40
0
 40
0
 40
0
 40
1
 40
1
 40
1
 40
1
 10
194.419314
 20
497.430426
 30
0.0
 10
186.480830
 20
440.181079
 30
0.0
 10
157.236315
 20
412.240862
 30
0.0
 10
102.385193
 20
409.495526
 30
0.0
  0
LWPOLYLINE
  5
18c
100
AcDbEntity
  8
Ebene_1
 62
1
100
AcDbPolyline
 90
5
 70
1
 10
221.092800
 20
604.044730
 30
0.0
 10
316.748300
 20
614.370920
 30
0.0
 10
316.617570
 20
621.852600
 30
0.0
 10
203.559915
 20
630.039020
 30
0.0
 10
203.493799
 20
626.066022
 30
0.0
  0
SPLINE
  5
18d
100
AcDbEntity
  8
Ebene_1
 62
1
100
AcDbSpline
 70
8
 71
3
 72
8
 73
4
 74
0
 40
0
 40
0
 40
0
 40
0
 40
1
 40
1
 40
1
 40
1
 10
102.388198
 20
409.438425
 30
0.0
 10
-97.145286
 20
406.419608
 30
0.0
 10
-296.788464
 20
403.420324
 30
0.0
 10
-300.780997
 20
403.358716
 30
0.0
  0
LWPOLYLINE
  5
18e
100
AcDbEntity
  8
Ebene_1
 62
1
100
AcDbPolyline
 90
2
 70
1
 10
102.385193
 20
409.495526
 30
0.0
 10
102.388198
 20
409.438425
 30
0.0
  0
SPLINE
  5
18f
100
AcDbEntity
  8
Ebene_1
 62
1
100
AcDbSpline
 70
8
 71
3
 72
8
 73
4
 74
0
 40
0
 40
0
 40
0
 40
0
 40
1
 40
1
 40
1
 40
1
 10
-300.668299
 20
395.845481
 30
0.0
 10
-267.960182
 20
396.338349
 30
0.0
 10
500.464923
 20
407.884688
 30
0.0
 10
505.285414
 20
408.141641
 30
0.0
  0
SPLINE
  5
190
100
AcDbEntity
  8
Ebene_1
 62
1
100
AcDbSpline
 70
8
 71
3
 72
8
 73
4
 74
0
 40
0
 40
0
 40
0
 40
0
 40
1
 40
1
 40
1
 40
1
 10
505.285414
 20
408.141641
 30
0.0
 10
505.848907
 20
408.171694
 30
0.0
 10
561.660220
 20
412.998196
 30
0.0
 10
560.150060
 20
479.383636
 30
0.0
  0
SPLINE
  5
191
100
AcDbEntity
  8
Ebene_1
 62
1
100
AcDbSpline
 70
8
 71
3
 72
8
 73
4
 74
0
 40
0
 40
0
 40
0
 40
0
 40
1
 40
1
 40
1
 40
1
 10
560.150060
 20
479.383636
 30
0.0
 10
559.032091
 20
528.509673
 30
0.0
 10
551.025988
 20
558.778993
 30
0.0
 10
547.885456
 20
568.875278
 30
0.0
  0
LWPOLYLINE
  5
192
100
AcDbEntity
  8
Ebene_1
 62
1
100
AcDbPolyline
 90
2
 70
1
 10
-300.780997
 20
403.358716
 30
0.0
 10
-300.668299
 20
395.845481
 30
0.0
  0
SPLINE
  5
193
100
AcDbEntity
  8
Ebene_1
 62
1
100
AcDbSpline
 70
8
 71
3
 72
8
 73
4
 74
0
 40
0
 40
0
 40
0
 40
0
 40
1
 40
1
 40
1
 40
1
 10
721.845392
 20
440.517672
 30
0.0
 10
720.701877
 20
418.086159
 30
0.0
 10
718.590658
 20
401.331645
 30
0.0
 10
715.262295
 20
387.015927
 30
0.0
  0
SPLINE
  5
194
100
AcDbEntity
  8
Ebene_1
 62
1
100
AcDbSpline
 70
8
 71
3
 72
8
 73
4
 74
0
 40
0
 40
0
 40
0
 40
0
 40
1
 40
1
 40
1
 40
1
 10
715.262295
 20
387.015927
 30
0.0
 10
698.022427
 20
312.854289
 30
0.0
 10
656.970112
 20
290.041103
 30
0.0
 10
635.431170
 20
288.252953
 30
0.0
  0
LWPOLYLINE
  5
195
100
AcDbEntity
  8
Ebene_1
 62
1
100
AcDbPolyline
 90
3
 70
1
 10
547.885456
 20
568.875278
 30
0.0
 10
653.432881
 20
602.892200
 30
0.0
 10
721.845392
 20
440.517672
 30
0.0
  0
SPLINE
  5
196
100
AcDbEntity
  8
Ebene_1
 62
1
100
AcDbSpline
 70
8
 71
3
 72
8
 73
4
 74
0
 40
0
 40
0
 40
0
 40
0
 40
1
 40
1
 40
1
 40
1
 10
634.975868
 20
288.186837
 30
0.0
 10
616.400146
 20
284.319024
 30
0.0
 10
6.752232
 20
282.888504
 30
0.0
 10
-313.017051
 20
282.672122
 30
0.0
  0
LWPOLYLINE
  5
197
100
AcDbEntity
  8
Ebene_1
 62
1
100
AcDbPolyline
 90
2
 70
1
 10
635.431170
 20
288.252953
 30
0.0
 10
634.975868
 20
288.186837
 30
0.0
  0
SPLINE
  5
198
100
AcDbEntity
  8
Ebene_1
 62
1
100
AcDbSpline
 70
8
 71
3
 72
8
 73
4
 74
0
 40
0
 40
0
 40
0
 40
0
 40
1
 40
1
 40
1
 40
1
 10
-313.338618
 20
282.657096
 30
0.0
 10
-334.694236
 20
280.798322
 30
0.0
 10
-354.222636
 20
280.137157
 30
0.0
 10
-371.947860
 20
280.642046
 30
0.0
  0
SPLINE
  5
199
100
AcDbEntity
  8
Ebene_1
 62
1
100
AcDbSpline
 70
8
 71
3
 72
8
 73
4
 74
0
 40
0
 40
0
 40
0
 40
0
 40
1
 40
1
 40
1
 40
1
 10
-371.947860
 20
280.642046
 30
0.0
 10
-403.168356
 20
291.779666
 30
0.0
 10
-424.738853
 20
310.908361
 30
0.0
 10
-436.034250
 20
337.547287
 30
0.0
  0
SPLINE
  5
19a
100
AcDbEntity
  8
Ebene_1
 62
1
100
AcDbSpline
 70
8
 71
3
 72
8
 73
4
 74
0
 40
0
 40
0
 40
0
 40
0
 40
1
 40
1
 40
1
 40
1
 10
-436.034250
 20
337.547287
 30
0.0
 10
-462.775355
 20
400.604364
 30
0.0
 10
-423.906386
 20
485.932171
 30
0.0
 10
-423.511190
 20
486.787178
 30
0.0
  0
LWPOLYLINE
  5
19b
100
AcDbEntity
  8
Ebene_1
 62
1
100
AcDbPolyline
 90
2
 70
1
 10
-313.017051
 20
282.672122
 30
0.0
 10
-313.338618
 20
282.657096
 30
0.0
  0
SPLINE
  5
19c
100
AcDbEntity
  8
Ebene_1
 62
1
100
AcDbSpline
 70
8
 71
3
 72
8
 73
4
 74
0
 40
0
 40
0
 40
0
 40
0
 40
1
 40
1
 40
1
 40
1
 10
-423.668968
 20
486.860807
 30
0.0
 10
-363.283597
 20
517.845388
 30
0.0
 10
-268.777622
 20
536.700602
 30
0.0
 10
-213.663537
 20
543.513603
 30
0.0
  0
SPLINE
  5
19d
100
AcDbEntity
  8
Ebene_1
 62
1
100
AcDbSpline
 70
8
 71
3
 72
8
 73
4
 74
0
 40
0
 40
0
 40
0
 40
0
 40
1
 40
1
 40
1
 40
1
 10
-213.663537
 20
543.513603
 30
0.0
 10
-160.950682
 20
550.030583
 30
0.0
 10
-93.149748
 20
553.734608
 30
0.0
 10
10.034013
 20
531.806480
 30
0.0
  0
SPLINE
  5
19e
100
AcDbEntity
  8
Ebene_1
 62
1
100
AcDbSpline
 70
8
 71
3
 72
8
 73
4
 74
0
 40
0
 40
0
 40
0
 40
0
 40
1
 40
1
 40
1
 40
1
 10
10.034013
 20
531.806480
 30
0.0
 10
46.703107
 20
524.016759
 30
0.0
 10
74.548658
 20
527.898096
 30
0.0
 10
92.793797
 20
543.345306
 30
0.0
  0
SPLINE
  5
19f
100
AcDbEntity
  8
Ebene_1
 62
1
100
AcDbSpline
 70
8
 71
3
 72
8
 73
4
 74
0
 40
0
 40
0
 40
0
 40
0
 40
1
 40
1
 40
1
 40
1
 10
92.793797
 20
543.345306
 30
0.0
 10
114.681353
 20
561.874446
 30
0.0
 10
114.588189
 20
590.208357
 30
0.0
 10
114.499533
 20
593.523196
 30
0.0
  0
LWPOLYLINE
  5
1a0
100
AcDbEntity
  8
Ebene_1
 62
1
100
AcDbPolyline
 90
2
 70
1
 10
-423.511190
 20
486.787178
 30
0.0
 10
-423.668968
 20
486.860807
 30
0.0
  0
SPLINE
  5
1a1
100
AcDbEntity
  8
Ebene_1
 62
1
100
AcDbSpline
 70
8
 71
3
 72
8
 73
4
 74
0
 40
0
 40
0
 40
0
 40
0
 40
1
 40
1
 40
1
 40
1
 10
128.250255
 20
738.788586
 30
0.0
 10
238.777452
 20
749.415305
 30
0.0
 10
328.171422
 20
747.649695
 30
0.0
 10
373.808313
 20
733.906486
 30
0.0
  0
SPLINE
  5
1a2
100
AcDbEntity
  8
Ebene_1
 62
1
100
AcDbSpline
 70
8
 71
3
 72
8
 73
4
 74
0
 40
0
 40
0
 40
0
 40
0
 40
1
 40
1
 40
1
 40
1
 10
373.808313
 20
733.906486
 30
0.0
 10
402.000976
 20
725.415028
 30
0.0
 10
422.022244
 20
707.931731
 30
0.0
 10
433.316138
 20
681.943451
 30
0.0
  0
SPLINE
  5
1a3
100
AcDbEntity
  8
Ebene_1
 62
1
100
AcDbSpline
 70
8
 71
3
 72
8
 73
4
 74
0
 40
0
 40
0
 40
0
 40
0
 40
1
 40
1
 40
1
 40
1
 10
433.316138
 20
681.943451
 30
0.0
 10
441.822623
 20
662.366967
 30
0.0
 10
441.935321
 20
645.023416
 30
0.0
 10
441.936824
 20
644.725892
 30
0.0
  0
SPLINE
  5
1a4
100
AcDbEntity
  8
Ebene_1
 62
1
100
AcDbSpline
 70
8
 71
3
 72
8
 73
4
 74
0
 40
0
 40
0
 40
0
 40
0
 40
1
 40
1
 40
1
 40
1
 10
441.936824
 20
644.725892
 30
0.0
 10
442.928571
 20
614.343873
 30
0.0
 10
434.001345
 20
589.449521
 30
0.0
 10
415.403084
 20
570.737058
 30
0.0
  0
SPLINE
  5
1a5
100
AcDbEntity
  8
Ebene_1
 62
1
100
AcDbSpline
 70
8
 71
3
 72
8
 73
4
 74
0
 40
0
 40
0
 40
0
 40
0
 40
1
 40
1
 40
1
 40
1
 10
415.403084
 20
570.737058
 30
0.0
 10
374.687362
 20
529.773399
 30
0.0
 10
300.465618
 20
531.262522
 30
0.0
 10
299.721808
 20
531.279051
 30
0.0
  0
LWPOLYLINE
  5
1a6
100
AcDbEntity
  8
Ebene_1
 62
1
100
AcDbPolyline
 90
2
 70
1
 10
114.499533
 20
593.523196
 30
0.0
 10
128.250255
 20
738.788586
 30
0.0
  0
SPLINE
  5
1a7
100
AcDbEntity
  8
Ebene_1
 62
1
100
AcDbSpline
 70
8
 71
3
 72
8
 73
4
 74
0
 40
0
 40
0
 40
0
 40
0
 40
1
 40
1
 40
1
 40
1
 10
299.101214
 20
523.804885
 30
0.0
 10
379.082604
 20
512.643224
 30
0.0
 10
434.576859
 20
521.988185
 30
0.0
 10
464.045268
 20
551.567791
 30
0.0
  0
SPLINE
  5
1a8
100
AcDbEntity
  8
Ebene_1
 62
1
100
AcDbSpline
 70
8
 71
3
 72
8
 73
4
 74
0
 40
0
 40
0
 40
0
 40
0
 40
1
 40
1
 40
1
 40
1
 10
464.045268
 20
551.567791
 30
0.0
 10
488.636086
 20
576.254778
 30
0.0
 10
485.336273
 20
605.811843
 30
0.0
 10
485.005691
 20
608.306237
 30
0.0
  0
SPLINE
  5
1a9
100
AcDbEntity
  8
Ebene_1
 62
1
100
AcDbSpline
 70
8
 71
3
 72
8
 73
4
 74
0
 40
0
 40
0
 40
0
 40
0
 40
1
 40
1
 40
1
 40
1
 10
485.005691
 20
608.306237
 30
0.0
 10
477.154361
 20
705.267538
 30
0.0
 10
469.504385
 20
755.891714
 30
0.0
 10
447.286247
 20
781.278934
 30
0.0
  0
SPLINE
  5
1aa
100
AcDbEntity
  8
Ebene_1
 62
1
100
AcDbSpline
 70
8
 71
3
 72
8
 73
4
 74
0
 40
0
 40
0
 40
0
 40
0
 40
1
 40
1
 40
1
 40
1
 10
447.286247
 20
781.278934
 30
0.0
 10
424.916342
 20
806.838959
 30
0.0
 10
389.850572
 20
806.500863
 30
0.0
 10
326.201452
 20
805.884778
 30
0.0
  0
SPLINE
  5
1ab
100
AcDbEntity
  8
Ebene_1
 62
1
100
AcDbSpline
 70
8
 71
3
 72
8
 73
4
 74
0
 40
0
 40
0
 40
0
 40
0
 40
1
 40
1
 40
1
 40
1
 10
326.201452
 20
805.884778
 30
0.0
 10
307.176439
 20
805.699952
 30
0.0
 10
285.614958
 20
805.491085
 30
0.0
 10
261.100775
 20
805.955402
 30
0.0
  0
SPLINE
  5
1ac
100
AcDbEntity
  8
Ebene_1
 62
1
100
AcDbSpline
 70
8
 71
3
 72
8
 73
4
 74
0
 40
0
 40
0
 40
0
 40
0
 40
1
 40
1
 40
1
 40
1
 10
261.100775
 20
805.955402
 30
0.0
 10
242.579149
 20
806.305519
 30
0.0
 10
166.871287
 20
804.990703
 30
0.0
 10
79.212874
 20
803.468522
 30
0.0
  0
SPLINE
  5
1ad
100
AcDbEntity
  8
Ebene_1
 62
1
100
AcDbSpline
 70
8
 71
3
 72
8
 73
4
 74
0
 40
0
 40
0
 40
0
 40
0
 40
1
 40
1
 40
1
 40
1
 10
79.212874
 20
803.468522
 30
0.0
 10
12.025021
 20
802.300965
 30
0.0
 10
-57.448359
 20
801.094340
 30
0.0
 10
-110.631543
 20
800.472244
 30
0.0
  0
SPLINE
  5
1ae
100
AcDbEntity
  8
Ebene_1
 62
1
100
AcDbSpline
 70
8
 71
3
 72
8
 73
4
 74
0
 40
0
 40
0
 40
0
 40
0
 40
1
 40
1
 40
1
 40
1
 10
-110.631543
 20
800.472244
 30
0.0
 10
-196.857933
 20
799.457957
 30
0.0
 10
-325.867688
 20
840.809299
 30
0.0
 10
-420.053600
 20
870.997476
 30
0.0
  0
SPLINE
  5
1af
100
AcDbEntity
  8
Ebene_1
 62
1
100
AcDbSpline
 70
8
 71
3
 72
8
 73
4
 74
0
 40
0
 40
0
 40
0
 40
0
 40
1
 40
1
 40
1
 40
1
 10
-420.053600
 20
870.997476
 30
0.0
 10
-457.891753
 20
883.125340
 30
0.0
 10
-490.571319
 20
893.600292
 30
0.0
 10
-510.724820
 20
898.028592
 30
0.0
  0
SPLINE
  5
1b0
100
AcDbEntity
  8
Ebene_1
 62
1
100
AcDbSpline
 70
8
 71
3
 72
8
 73
4
 74
0
 40
0
 40
0
 40
0
 40
0
 40
1
 40
1
 40
1
 40
1
 10
-510.724820
 20
898.028592
 30
0.0
 10
-540.457695
 20
904.562101
 30
0.0
 10
-559.977079
 20
901.891898
 30
0.0
 10
-572.151525
 20
889.625790
 30
0.0
  0
SPLINE
  5
1b1
100
AcDbEntity
  8
Ebene_1
 62
1
100
AcDbSpline
 70
8
 71
3
 72
8
 73
4
 74
0
 40
0
 40
0
 40
0
 40
0
 40
1
 40
1
 40
1
 40
1
 10
-572.151525
 20
889.625790
 30
0.0
 10
-590.967670
 20
870.669899
 30
0.0
 10
-591.561216
 20
829.895574
 30
0.0
 10
-574.135019
 20
753.287627
 30
0.0
  0
LWPOLYLINE
  5
1b2
100
AcDbEntity
  8
Ebene_1
 62
1
100
AcDbPolyline
 90
2
 70
1
 10
299.721808
 20
531.279051
 30
0.0
 10
299.101214
 20
523.804885
 30
0.0
  0
SPLINE
  5
1b3
100
AcDbEntity
  8
Ebene_1
 62
1
100
AcDbSpline
 70
8
 71
3
 72
8
 73
4
 74
0
 40
0
 40
0
 40
0
 40
0
 40
1
 40
1
 40
1
 40
1
 10
549.459629
 20
523.001871
 30
0.0
 10
530.491716
 20
469.243173
 30
0.0
 10
500.070628
 20
440.870193
 30
0.0
 10
476.976447
 20
426.339597
 30
0.0
  0
SPLINE
  5
1b4
100
AcDbEntity
  8
Ebene_1
 62
1
100
AcDbSpline
 70
8
 71
3
 72
8
 73
4
 74
0
 40
0
 40
0
 40
0
 40
0
 40
1
 40
1
 40
1
 40
1
 10
476.976447
 20
426.339597
 30
0.0
 10
468.994387
 20
421.317751
 30
0.0
 10
461.406019
 20
417.592689
 30
0.0
 10
454.629082
 20
414.820306
 30
0.0
  0
SPLINE
  5
1b5
100
AcDbEntity
  8
Ebene_1
 62
1
100
AcDbSpline
 70
8
 71
3
 72
8
 73
4
 74
0
 40
0
 40
0
 40
0
 40
0
 40
1
 40
1
 40
1
 40
1
 10
454.629082
 20
414.820306
 30
0.0
 10
485.362720
 20
415.301153
 30
0.0
 10
503.860304
 20
415.601682
 30
0.0
 10
504.907649
 20
415.645259
 30
0.0
  0
SPLINE
  5
1b6
100
AcDbEntity
  8
Ebene_1
 62
1
100
AcDbSpline
 70
8
 71
3
 72
8
 73
4
 74
0
 40
0
 40
0
 40
0
 40
0
 40
1
 40
1
 40
1
 40
1
 10
504.907649
 20
415.645259
 30
0.0
 10
505.377977
 20
415.669301
 30
0.0
 10
553.988607
 20
419.914279
 30
0.0
 10
552.639230
 20
479.213236
 30
0.0
  0
SPLINE
  5
1b7
100
AcDbEntity
  8
Ebene_1
 62
1
100
AcDbSpline
 70
8
 71
3
 72
8
 73
4
 74
0
 40
0
 40
0
 40
0
 40
0
 40
1
 40
1
 40
1
 40
1
 10
552.639230
 20
479.213236
 30
0.0
 10
552.254552
 20
496.063919
 30
0.0
 10
551.022381
 20
510.690684
 30
0.0
 10
549.459629
 20
523.001871
 30
0.0
  0
LWPOLYLINE
  5
1b8
100
AcDbEntity
  8
Ebene_1
 62
1
100
AcDbPolyline
 90
2
 70
1
 10
-574.135019
 20
753.287627
 30
0.0
 10
-574.135019
 20
753.287627
 30
0.0
  0
LWPOLYLINE
  5
1b9
100
AcDbEntity
  8
Ebene_1
 62
1
100
AcDbPolyline
 90
2
 70
1
 10
549.459629
 20
523.001871
 30
0.0
 10
549.459629
 20
523.001871
 30
0.0
  0
LWPOLYLINE
  5
1ba
100
AcDbEntity
  8
Ebene_1
 62
1
100
AcDbPolyline
 90
6
 70
1
 10
-203.380473
 20
172.196917
 30
0.0
 10
-203.336896
 20
164.683682
 30
0.0
 10
602.335822
 20
169.468110
 30
0.0
 10
602.290742
 20
176.981345
 30
0.0
 10
-203.380473
 20
172.196917
 30
0.0
 10
-203.380473
 20
172.196917
 30
0.0
  0
ENDSEC
  0
SECTION
  2
OBJECTS
  0
DICTIONARY
  5
C
330
0
100
AcDbDictionary
  3
ACAD_GROUP
350
D
  3
ACAD_MLINESTYLE
350
17
  0
DICTIONARY
  5
D
330
C
100
AcDbDictionary
  0
DICTIONARY
  5
1A
330
C
100
AcDbDictionary
  0
DICTIONARY
  5
17
330
C
100
AcDbDictionary
  3
STANDARD
350
18
  0
DICTIONARY
  5
19
330
C
100
AcDbDictionary
  0
ENDSEC
  0
EOF
