  0
SECTION
  2
HEADER
  9
$LIMMIN
 10
95.750000
 20
-150.600000
  9
$LIMMAX
 10
1095.750000
 20
97.800000
  9
$EXTMIN
 10
95.750000
 20
-150.600000
  9
$EXTMAX
 10
1095.750000
 20
97.800000
  0
ENDSEC
  0
SECTION
  2
TABLES
  0
TABLE
  2
LTYPE
 70
     1
  0
LTYPE
  2
CONTINUOUS
 70
    64
  3

 72
    65
 73
  0
 40
0.000000
  0
ENDTAB
  0
TABLE
  2
LAYER
 70
     1
  0
LAYER
  2
Kontur
 70
    64
 62
     7
  6
CONTINUOUS
  0
ENDTAB
  0
ENDSEC
  0
SECTION
  2
BLOCKS
  0
ENDSEC
  0
SECTION
  2
ENTITIES
  0
LINE
  8
Kontur
 62
     7
  6
CONTINUOUS
 10
98.500000
 20
78.707107
 30
0.000000
 11
98.500000
 21
68.000000
 31
0.000000
  0
LINE
  8
Kontur
 62
     7
  6
CONTINUOUS
 10
100.500000
 20
78.707107
 30
0.000000
 11
100.500000
 21
68.000000
 31
0.000000
  0
LINE
  8
Kontur
 62
     7
  6
CONTINUOUS
 10
114.500000
 20
78.707107
 30
0.000000
 11
114.500000
 21
68.000000
 31
0.000000
  0
ARC
  8
Kontur
 62
     7
  6
CONTINUOUS
 10
99.500000
 20
68.000000
 30
0.000000
 40
1.000000
 50
180.000000
 51
0.000000
 210
0.000000
 220
0.000000
 230
1.000000
  0
ARC
  8
Kontur
 62
     7
  6
CONTINUOUS
 10
115.500000
 20
68.000000
 30
0.000000
 40
1.000000
 50
180.000000
 51
0.000000
 210
0.000000
 220
0.000000
 230
1.000000
  0
LINE
  8
Kontur
 62
     7
  6
CONTINUOUS
 10
116.500000
 20
78.707107
 30
0.000000
 11
116.500000
 21
68.000000
 31
0.000000
  0
LINE
  8
Kontur
 62
     7
  6
CONTINUOUS
 10
130.500000
 20
78.707107
 30
0.000000
 11
130.500000
 21
68.000000
 31
0.000000
  0
LINE
  8
Kontur
 62
     7
  6
CONTINUOUS
 10
98.500000
 20
78.707107
 30
0.000000
 11
95.750000
 21
81.457107
 31
0.000000
  0
LINE
  8
Kontur
 62
     7
  6
CONTINUOUS
 10
100.500000
 20
78.707107
 30
0.000000
 11
107.500000
 21
85.707107
 31
0.000000
  0
LINE
  8
Kontur
 62
     7
  6
CONTINUOUS
 10
114.500000
 20
78.707107
 30
0.000000
 11
107.500000
 21
85.707107
 31
0.000000
  0
LINE
  8
Kontur
 62
     7
  6
CONTINUOUS
 10
116.500000
 20
78.707107
 30
0.000000
 11
123.500000
 21
85.707107
 31
0.000000
  0
LINE
  8
Kontur
 62
     7
  6
CONTINUOUS
 10
130.500000
 20
78.707107
 30
0.000000
 11
123.500000
 21
85.707107
 31
0.000000
  0
ARC
  8
Kontur
 62
     7
  6
CONTINUOUS
 10
131.500000
 20
68.000000
 30
0.000000
 40
1.000000
 50
180.000000
 51
0.000000
 210
0.000000
 220
0.000000
 230
1.000000
  0
LINE
  8
Kontur
 62
     7
  6
CONTINUOUS
 10
132.500000
 20
78.707107
 30
0.000000
 11
132.500000
 21
68.000000
 31
0.000000
  0
LINE
  8
Kontur
 62
     7
  6
CONTINUOUS
 10
146.500000
 20
78.707107
 30
0.000000
 11
146.500000
 21
68.000000
 31
0.000000
  0
LINE
  8
Kontur
 62
     7
  6
CONTINUOUS
 10
132.500000
 20
78.707107
 30
0.000000
 11
139.500000
 21
85.707107
 31
0.000000
  0
LINE
  8
Kontur
 62
     7
  6
CONTINUOUS
 10
146.500000
 20
78.707107
 30
0.000000
 11
139.500000
 21
85.707107
 31
0.000000
  0
ARC
  8
Kontur
 62
     7
  6
CONTINUOUS
 10
147.500000
 20
68.000000
 30
0.000000
 40
1.000000
 50
180.000000
 51
0.000000
 210
0.000000
 220
0.000000
 230
1.000000
  0
LINE
  8
Kontur
 62
     7
  6
CONTINUOUS
 10
148.500000
 20
78.707107
 30
0.000000
 11
148.500000
 21
68.000000
 31
0.000000
  0
LINE
  8
Kontur
 62
     7
  6
CONTINUOUS
 10
162.500000
 20
78.707107
 30
0.000000
 11
162.500000
 21
68.000000
 31
0.000000
  0
LINE
  8
Kontur
 62
     7
  6
CONTINUOUS
 10
148.500000
 20
78.707107
 30
0.000000
 11
155.500000
 21
85.707107
 31
0.000000
  0
LINE
  8
Kontur
 62
     7
  6
CONTINUOUS
 10
162.500000
 20
78.707107
 30
0.000000
 11
155.500000
 21
85.707107
 31
0.000000
  0
ARC
  8
Kontur
 62
     7
  6
CONTINUOUS
 10
163.500000
 20
68.000000
 30
0.000000
 40
1.000000
 50
180.000000
 51
0.000000
 210
0.000000
 220
0.000000
 230
1.000000
  0
LINE
  8
Kontur
 62
     7
  6
CONTINUOUS
 10
164.500000
 20
78.707107
 30
0.000000
 11
164.500000
 21
68.000000
 31
0.000000
  0
LINE
  8
Kontur
 62
     7
  6
CONTINUOUS
 10
178.500000
 20
78.707107
 30
0.000000
 11
178.500000
 21
68.000000
 31
0.000000
  0
LINE
  8
Kontur
 62
     7
  6
CONTINUOUS
 10
164.500000
 20
78.707107
 30
0.000000
 11
171.500000
 21
85.707107
 31
0.000000
  0
LINE
  8
Kontur
 62
     7
  6
CONTINUOUS
 10
178.500000
 20
78.707107
 30
0.000000
 11
171.500000
 21
85.707107
 31
0.000000
  0
ARC
  8
Kontur
 62
     7
  6
CONTINUOUS
 10
179.500000
 20
68.000000
 30
0.000000
 40
1.000000
 50
180.000000
 51
0.000000
 210
0.000000
 220
0.000000
 230
1.000000
  0
LINE
  8
Kontur
 62
     7
  6
CONTINUOUS
 10
180.500000
 20
78.707107
 30
0.000000
 11
180.500000
 21
68.000000
 31
0.000000
  0
LINE
  8
Kontur
 62
     7
  6
CONTINUOUS
 10
194.500000
 20
78.707107
 30
0.000000
 11
194.500000
 21
68.000000
 31
0.000000
  0
LINE
  8
Kontur
 62
     7
  6
CONTINUOUS
 10
180.500000
 20
78.707107
 30
0.000000
 11
187.500000
 21
85.707107
 31
0.000000
  0
LINE
  8
Kontur
 62
     7
  6
CONTINUOUS
 10
194.500000
 20
78.707107
 30
0.000000
 11
187.500000
 21
85.707107
 31
0.000000
  0
ARC
  8
Kontur
 62
     7
  6
CONTINUOUS
 10
195.500000
 20
68.000000
 30
0.000000
 40
1.000000
 50
180.000000
 51
0.000000
 210
0.000000
 220
0.000000
 230
1.000000
  0
LINE
  8
Kontur
 62
     7
  6
CONTINUOUS
 10
196.500000
 20
78.707107
 30
0.000000
 11
196.500000
 21
68.000000
 31
0.000000
  0
LINE
  8
Kontur
 62
     7
  6
CONTINUOUS
 10
210.500000
 20
78.707107
 30
0.000000
 11
210.500000
 21
68.000000
 31
0.000000
  0
LINE
  8
Kontur
 62
     7
  6
CONTINUOUS
 10
196.500000
 20
78.707107
 30
0.000000
 11
203.500000
 21
85.707107
 31
0.000000
  0
LINE
  8
Kontur
 62
     7
  6
CONTINUOUS
 10
210.500000
 20
78.707107
 30
0.000000
 11
203.500000
 21
85.707107
 31
0.000000
  0
ARC
  8
Kontur
 62
     7
  6
CONTINUOUS
 10
211.500000
 20
68.000000
 30
0.000000
 40
1.000000
 50
180.000000
 51
0.000000
 210
0.000000
 220
0.000000
 230
1.000000
  0
LINE
  8
Kontur
 62
     7
  6
CONTINUOUS
 10
212.500000
 20
78.707107
 30
0.000000
 11
212.500000
 21
68.000000
 31
0.000000
  0
LINE
  8
Kontur
 62
     7
  6
CONTINUOUS
 10
226.500000
 20
78.707107
 30
0.000000
 11
226.500000
 21
68.000000
 31
0.000000
  0
LINE
  8
Kontur
 62
     7
  6
CONTINUOUS
 10
212.500000
 20
78.707107
 30
0.000000
 11
219.500000
 21
85.707107
 31
0.000000
  0
LINE
  8
Kontur
 62
     7
  6
CONTINUOUS
 10
226.500000
 20
78.707107
 30
0.000000
 11
219.500000
 21
85.707107
 31
0.000000
  0
ARC
  8
Kontur
 62
     7
  6
CONTINUOUS
 10
227.500000
 20
68.000000
 30
0.000000
 40
1.000000
 50
180.000000
 51
0.000000
 210
0.000000
 220
0.000000
 230
1.000000
  0
LINE
  8
Kontur
 62
     7
  6
CONTINUOUS
 10
228.500000
 20
78.707107
 30
0.000000
 11
228.500000
 21
68.000000
 31
0.000000
  0
LINE
  8
Kontur
 62
     7
  6
CONTINUOUS
 10
242.500000
 20
78.707107
 30
0.000000
 11
242.500000
 21
68.000000
 31
0.000000
  0
LINE
  8
Kontur
 62
     7
  6
CONTINUOUS
 10
228.500000
 20
78.707107
 30
0.000000
 11
235.500000
 21
85.707107
 31
0.000000
  0
LINE
  8
Kontur
 62
     7
  6
CONTINUOUS
 10
242.500000
 20
78.707107
 30
0.000000
 11
235.500000
 21
85.707107
 31
0.000000
  0
ARC
  8
Kontur
 62
     7
  6
CONTINUOUS
 10
243.500000
 20
68.000000
 30
0.000000
 40
1.000000
 50
180.000000
 51
0.000000
 210
0.000000
 220
0.000000
 230
1.000000
  0
LINE
  8
Kontur
 62
     7
  6
CONTINUOUS
 10
244.500000
 20
78.707107
 30
0.000000
 11
244.500000
 21
68.000000
 31
0.000000
  0
LINE
  8
Kontur
 62
     7
  6
CONTINUOUS
 10
258.500000
 20
78.707107
 30
0.000000
 11
258.500000
 21
68.000000
 31
0.000000
  0
LINE
  8
Kontur
 62
     7
  6
CONTINUOUS
 10
244.500000
 20
78.707107
 30
0.000000
 11
251.500000
 21
85.707107
 31
0.000000
  0
LINE
  8
Kontur
 62
     7
  6
CONTINUOUS
 10
258.500000
 20
78.707107
 30
0.000000
 11
251.500000
 21
85.707107
 31
0.000000
  0
ARC
  8
Kontur
 62
     7
  6
CONTINUOUS
 10
259.500000
 20
68.000000
 30
0.000000
 40
1.000000
 50
180.000000
 51
0.000000
 210
0.000000
 220
0.000000
 230
1.000000
  0
LINE
  8
Kontur
 62
     7
  6
CONTINUOUS
 10
260.500000
 20
78.707107
 30
0.000000
 11
260.500000
 21
68.000000
 31
0.000000
  0
LINE
  8
Kontur
 62
     7
  6
CONTINUOUS
 10
274.500000
 20
78.707107
 30
0.000000
 11
274.500000
 21
68.000000
 31
0.000000
  0
LINE
  8
Kontur
 62
     7
  6
CONTINUOUS
 10
260.500000
 20
78.707107
 30
0.000000
 11
267.500000
 21
85.707107
 31
0.000000
  0
LINE
  8
Kontur
 62
     7
  6
CONTINUOUS
 10
274.500000
 20
78.707107
 30
0.000000
 11
267.500000
 21
85.707107
 31
0.000000
  0
ARC
  8
Kontur
 62
     7
  6
CONTINUOUS
 10
275.500000
 20
68.000000
 30
0.000000
 40
1.000000
 50
180.000000
 51
0.000000
 210
0.000000
 220
0.000000
 230
1.000000
  0
LINE
  8
Kontur
 62
     7
  6
CONTINUOUS
 10
276.500000
 20
78.707107
 30
0.000000
 11
276.500000
 21
68.000000
 31
0.000000
  0
LINE
  8
Kontur
 62
     7
  6
CONTINUOUS
 10
290.500000
 20
78.707107
 30
0.000000
 11
290.500000
 21
68.000000
 31
0.000000
  0
LINE
  8
Kontur
 62
     7
  6
CONTINUOUS
 10
276.500000
 20
78.707107
 30
0.000000
 11
283.500000
 21
85.707107
 31
0.000000
  0
LINE
  8
Kontur
 62
     7
  6
CONTINUOUS
 10
290.500000
 20
78.707107
 30
0.000000
 11
283.500000
 21
85.707107
 31
0.000000
  0
ARC
  8
Kontur
 62
     7
  6
CONTINUOUS
 10
291.500000
 20
68.000000
 30
0.000000
 40
1.000000
 50
180.000000
 51
0.000000
 210
0.000000
 220
0.000000
 230
1.000000
  0
LINE
  8
Kontur
 62
     7
  6
CONTINUOUS
 10
292.500000
 20
78.707107
 30
0.000000
 11
292.500000
 21
68.000000
 31
0.000000
  0
LINE
  8
Kontur
 62
     7
  6
CONTINUOUS
 10
306.500000
 20
78.707107
 30
0.000000
 11
306.500000
 21
68.000000
 31
0.000000
  0
LINE
  8
Kontur
 62
     7
  6
CONTINUOUS
 10
292.500000
 20
78.707107
 30
0.000000
 11
299.500000
 21
85.707107
 31
0.000000
  0
LINE
  8
Kontur
 62
     7
  6
CONTINUOUS
 10
306.500000
 20
78.707107
 30
0.000000
 11
299.500000
 21
85.707107
 31
0.000000
  0
ARC
  8
Kontur
 62
     7
  6
CONTINUOUS
 10
307.500000
 20
68.000000
 30
0.000000
 40
1.000000
 50
180.000000
 51
0.000000
 210
0.000000
 220
0.000000
 230
1.000000
  0
LINE
  8
Kontur
 62
     7
  6
CONTINUOUS
 10
308.500000
 20
78.707107
 30
0.000000
 11
308.500000
 21
68.000000
 31
0.000000
  0
LINE
  8
Kontur
 62
     7
  6
CONTINUOUS
 10
322.500000
 20
78.707107
 30
0.000000
 11
322.500000
 21
68.000000
 31
0.000000
  0
LINE
  8
Kontur
 62
     7
  6
CONTINUOUS
 10
308.500000
 20
78.707107
 30
0.000000
 11
315.500000
 21
85.707107
 31
0.000000
  0
LINE
  8
Kontur
 62
     7
  6
CONTINUOUS
 10
322.500000
 20
78.707107
 30
0.000000
 11
315.500000
 21
85.707107
 31
0.000000
  0
ARC
  8
Kontur
 62
     7
  6
CONTINUOUS
 10
323.500000
 20
68.000000
 30
0.000000
 40
1.000000
 50
180.000000
 51
0.000000
 210
0.000000
 220
0.000000
 230
1.000000
  0
LINE
  8
Kontur
 62
     7
  6
CONTINUOUS
 10
324.500000
 20
78.707107
 30
0.000000
 11
324.500000
 21
68.000000
 31
0.000000
  0
LINE
  8
Kontur
 62
     7
  6
CONTINUOUS
 10
338.500000
 20
78.707107
 30
0.000000
 11
338.500000
 21
68.000000
 31
0.000000
  0
LINE
  8
Kontur
 62
     7
  6
CONTINUOUS
 10
324.500000
 20
78.707107
 30
0.000000
 11
331.500000
 21
85.707107
 31
0.000000
  0
LINE
  8
Kontur
 62
     7
  6
CONTINUOUS
 10
338.500000
 20
78.707107
 30
0.000000
 11
331.500000
 21
85.707107
 31
0.000000
  0
ARC
  8
Kontur
 62
     7
  6
CONTINUOUS
 10
339.500000
 20
68.000000
 30
0.000000
 40
1.000000
 50
180.000000
 51
0.000000
 210
0.000000
 220
0.000000
 230
1.000000
  0
LINE
  8
Kontur
 62
     7
  6
CONTINUOUS
 10
340.500000
 20
78.707107
 30
0.000000
 11
340.500000
 21
68.000000
 31
0.000000
  0
LINE
  8
Kontur
 62
     7
  6
CONTINUOUS
 10
354.500000
 20
78.707107
 30
0.000000
 11
354.500000
 21
68.000000
 31
0.000000
  0
LINE
  8
Kontur
 62
     7
  6
CONTINUOUS
 10
340.500000
 20
78.707107
 30
0.000000
 11
347.500000
 21
85.707107
 31
0.000000
  0
LINE
  8
Kontur
 62
     7
  6
CONTINUOUS
 10
354.500000
 20
78.707107
 30
0.000000
 11
347.500000
 21
85.707107
 31
0.000000
  0
ARC
  8
Kontur
 62
     7
  6
CONTINUOUS
 10
355.500000
 20
68.000000
 30
0.000000
 40
1.000000
 50
180.000000
 51
0.000000
 210
0.000000
 220
0.000000
 230
1.000000
  0
LINE
  8
Kontur
 62
     7
  6
CONTINUOUS
 10
356.500000
 20
78.707107
 30
0.000000
 11
356.500000
 21
68.000000
 31
0.000000
  0
LINE
  8
Kontur
 62
     7
  6
CONTINUOUS
 10
370.500000
 20
78.707107
 30
0.000000
 11
370.500000
 21
68.000000
 31
0.000000
  0
LINE
  8
Kontur
 62
     7
  6
CONTINUOUS
 10
356.500000
 20
78.707107
 30
0.000000
 11
363.500000
 21
85.707107
 31
0.000000
  0
LINE
  8
Kontur
 62
     7
  6
CONTINUOUS
 10
370.500000
 20
78.707107
 30
0.000000
 11
363.500000
 21
85.707107
 31
0.000000
  0
ARC
  8
Kontur
 62
     7
  6
CONTINUOUS
 10
371.500000
 20
68.000000
 30
0.000000
 40
1.000000
 50
180.000000
 51
0.000000
 210
0.000000
 220
0.000000
 230
1.000000
  0
LINE
  8
Kontur
 62
     7
  6
CONTINUOUS
 10
372.500000
 20
78.707107
 30
0.000000
 11
372.500000
 21
68.000000
 31
0.000000
  0
LINE
  8
Kontur
 62
     7
  6
CONTINUOUS
 10
386.500000
 20
78.707107
 30
0.000000
 11
386.500000
 21
68.000000
 31
0.000000
  0
LINE
  8
Kontur
 62
     7
  6
CONTINUOUS
 10
372.500000
 20
78.707107
 30
0.000000
 11
379.500000
 21
85.707107
 31
0.000000
  0
LINE
  8
Kontur
 62
     7
  6
CONTINUOUS
 10
386.500000
 20
78.707107
 30
0.000000
 11
379.500000
 21
85.707107
 31
0.000000
  0
ARC
  8
Kontur
 62
     7
  6
CONTINUOUS
 10
387.500000
 20
68.000000
 30
0.000000
 40
1.000000
 50
180.000000
 51
0.000000
 210
0.000000
 220
0.000000
 230
1.000000
  0
LINE
  8
Kontur
 62
     7
  6
CONTINUOUS
 10
388.500000
 20
78.707107
 30
0.000000
 11
388.500000
 21
68.000000
 31
0.000000
  0
LINE
  8
Kontur
 62
     7
  6
CONTINUOUS
 10
402.500000
 20
78.707107
 30
0.000000
 11
402.500000
 21
68.000000
 31
0.000000
  0
LINE
  8
Kontur
 62
     7
  6
CONTINUOUS
 10
388.500000
 20
78.707107
 30
0.000000
 11
395.500000
 21
85.707107
 31
0.000000
  0
LINE
  8
Kontur
 62
     7
  6
CONTINUOUS
 10
402.500000
 20
78.707107
 30
0.000000
 11
395.500000
 21
85.707107
 31
0.000000
  0
ARC
  8
Kontur
 62
     7
  6
CONTINUOUS
 10
403.500000
 20
68.000000
 30
0.000000
 40
1.000000
 50
180.000000
 51
0.000000
 210
0.000000
 220
0.000000
 230
1.000000
  0
LINE
  8
Kontur
 62
     7
  6
CONTINUOUS
 10
404.500000
 20
78.707107
 30
0.000000
 11
404.500000
 21
68.000000
 31
0.000000
  0
LINE
  8
Kontur
 62
     7
  6
CONTINUOUS
 10
418.500000
 20
78.707107
 30
0.000000
 11
418.500000
 21
68.000000
 31
0.000000
  0
LINE
  8
Kontur
 62
     7
  6
CONTINUOUS
 10
404.500000
 20
78.707107
 30
0.000000
 11
411.500000
 21
85.707107
 31
0.000000
  0
LINE
  8
Kontur
 62
     7
  6
CONTINUOUS
 10
418.500000
 20
78.707107
 30
0.000000
 11
411.500000
 21
85.707107
 31
0.000000
  0
ARC
  8
Kontur
 62
     7
  6
CONTINUOUS
 10
419.500000
 20
68.000000
 30
0.000000
 40
1.000000
 50
180.000000
 51
0.000000
 210
0.000000
 220
0.000000
 230
1.000000
  0
LINE
  8
Kontur
 62
     7
  6
CONTINUOUS
 10
420.500000
 20
78.707107
 30
0.000000
 11
420.500000
 21
68.000000
 31
0.000000
  0
LINE
  8
Kontur
 62
     7
  6
CONTINUOUS
 10
434.500000
 20
78.707107
 30
0.000000
 11
434.500000
 21
68.000000
 31
0.000000
  0
LINE
  8
Kontur
 62
     7
  6
CONTINUOUS
 10
420.500000
 20
78.707107
 30
0.000000
 11
427.500000
 21
85.707107
 31
0.000000
  0
LINE
  8
Kontur
 62
     7
  6
CONTINUOUS
 10
434.500000
 20
78.707107
 30
0.000000
 11
427.500000
 21
85.707107
 31
0.000000
  0
ARC
  8
Kontur
 62
     7
  6
CONTINUOUS
 10
435.500000
 20
68.000000
 30
0.000000
 40
1.000000
 50
180.000000
 51
0.000000
 210
0.000000
 220
0.000000
 230
1.000000
  0
LINE
  8
Kontur
 62
     7
  6
CONTINUOUS
 10
436.500000
 20
78.707107
 30
0.000000
 11
436.500000
 21
68.000000
 31
0.000000
  0
LINE
  8
Kontur
 62
     7
  6
CONTINUOUS
 10
436.500000
 20
78.707107
 30
0.000000
 11
443.500000
 21
85.707107
 31
0.000000
  0
LINE
  8
Kontur
 62
     7
  6
CONTINUOUS
 10
445.750000
 20
83.457107
 30
0.000000
 11
443.500000
 21
85.707107
 31
0.000000
  0
LINE
  8
Kontur
 62
     7
  6
CONTINUOUS
 10
95.750000
 20
54.700000
 30
0.000000
 11
445.750000
 21
54.700000
 31
0.000000
  0
LINE
  8
Kontur
 62
     7
  6
CONTINUOUS
 10
95.750000
 20
81.457107
 30
0.000000
 11
95.750000
 21
54.700000
 31
0.000000
  0
LINE
  8
Kontur
 62
     7
  6
CONTINUOUS
 10
445.750000
 20
54.700000
 30
0.000000
 11
445.750000
 21
83.457107
 31
0.000000
  0
LINE
  8
Kontur
 62
     3
  6
CONTINUOUS
 10
95.750000
 20
54.700000
 30
0.000000
 11
95.750000
 21
49.700000
 31
0.000000
  0
LINE
  8
Kontur
 62
     3
  6
CONTINUOUS
 10
445.750000
 20
54.700000
 30
0.000000
 11
445.750000
 21
49.700000
 31
0.000000
  0
LINE
  8
Kontur
 62
     7
  6
CONTINUOUS
 10
98.500000
 20
8.707107
 30
0.000000
 11
98.500000
 21
-2.000000
 31
0.000000
  0
LINE
  8
Kontur
 62
     7
  6
CONTINUOUS
 10
100.500000
 20
8.707107
 30
0.000000
 11
100.500000
 21
-2.000000
 31
0.000000
  0
LINE
  8
Kontur
 62
     7
  6
CONTINUOUS
 10
114.500000
 20
8.707107
 30
0.000000
 11
114.500000
 21
-2.000000
 31
0.000000
  0
ARC
  8
Kontur
 62
     7
  6
CONTINUOUS
 10
99.500000
 20
-2.000000
 30
0.000000
 40
1.000000
 50
180.000000
 51
0.000000
 210
0.000000
 220
0.000000
 230
1.000000
  0
ARC
  8
Kontur
 62
     7
  6
CONTINUOUS
 10
115.500000
 20
-2.000000
 30
0.000000
 40
1.000000
 50
180.000000
 51
0.000000
 210
0.000000
 220
0.000000
 230
1.000000
  0
LINE
  8
Kontur
 62
     7
  6
CONTINUOUS
 10
116.500000
 20
8.707107
 30
0.000000
 11
116.500000
 21
-2.000000
 31
0.000000
  0
LINE
  8
Kontur
 62
     7
  6
CONTINUOUS
 10
130.500000
 20
8.707107
 30
0.000000
 11
130.500000
 21
-2.000000
 31
0.000000
  0
LINE
  8
Kontur
 62
     7
  6
CONTINUOUS
 10
98.500000
 20
8.707107
 30
0.000000
 11
95.750000
 21
11.457107
 31
0.000000
  0
LINE
  8
Kontur
 62
     7
  6
CONTINUOUS
 10
100.500000
 20
8.707107
 30
0.000000
 11
107.500000
 21
15.707107
 31
0.000000
  0
LINE
  8
Kontur
 62
     7
  6
CONTINUOUS
 10
114.500000
 20
8.707107
 30
0.000000
 11
107.500000
 21
15.707107
 31
0.000000
  0
LINE
  8
Kontur
 62
     7
  6
CONTINUOUS
 10
116.500000
 20
8.707107
 30
0.000000
 11
123.500000
 21
15.707107
 31
0.000000
  0
LINE
  8
Kontur
 62
     7
  6
CONTINUOUS
 10
130.500000
 20
8.707107
 30
0.000000
 11
123.500000
 21
15.707107
 31
0.000000
  0
ARC
  8
Kontur
 62
     7
  6
CONTINUOUS
 10
131.500000
 20
-2.000000
 30
0.000000
 40
1.000000
 50
180.000000
 51
0.000000
 210
0.000000
 220
0.000000
 230
1.000000
  0
LINE
  8
Kontur
 62
     7
  6
CONTINUOUS
 10
132.500000
 20
8.707107
 30
0.000000
 11
132.500000
 21
-2.000000
 31
0.000000
  0
LINE
  8
Kontur
 62
     7
  6
CONTINUOUS
 10
146.500000
 20
8.707107
 30
0.000000
 11
146.500000
 21
-2.000000
 31
0.000000
  0
LINE
  8
Kontur
 62
     7
  6
CONTINUOUS
 10
132.500000
 20
8.707107
 30
0.000000
 11
139.500000
 21
15.707107
 31
0.000000
  0
LINE
  8
Kontur
 62
     7
  6
CONTINUOUS
 10
146.500000
 20
8.707107
 30
0.000000
 11
139.500000
 21
15.707107
 31
0.000000
  0
ARC
  8
Kontur
 62
     7
  6
CONTINUOUS
 10
147.500000
 20
-2.000000
 30
0.000000
 40
1.000000
 50
180.000000
 51
0.000000
 210
0.000000
 220
0.000000
 230
1.000000
  0
LINE
  8
Kontur
 62
     7
  6
CONTINUOUS
 10
148.500000
 20
8.707107
 30
0.000000
 11
148.500000
 21
-2.000000
 31
0.000000
  0
LINE
  8
Kontur
 62
     7
  6
CONTINUOUS
 10
162.500000
 20
8.707107
 30
0.000000
 11
162.500000
 21
-2.000000
 31
0.000000
  0
LINE
  8
Kontur
 62
     7
  6
CONTINUOUS
 10
148.500000
 20
8.707107
 30
0.000000
 11
155.500000
 21
15.707107
 31
0.000000
  0
LINE
  8
Kontur
 62
     7
  6
CONTINUOUS
 10
162.500000
 20
8.707107
 30
0.000000
 11
155.500000
 21
15.707107
 31
0.000000
  0
ARC
  8
Kontur
 62
     7
  6
CONTINUOUS
 10
163.500000
 20
-2.000000
 30
0.000000
 40
1.000000
 50
180.000000
 51
0.000000
 210
0.000000
 220
0.000000
 230
1.000000
  0
LINE
  8
Kontur
 62
     7
  6
CONTINUOUS
 10
164.500000
 20
8.707107
 30
0.000000
 11
164.500000
 21
-2.000000
 31
0.000000
  0
LINE
  8
Kontur
 62
     7
  6
CONTINUOUS
 10
178.500000
 20
8.707107
 30
0.000000
 11
178.500000
 21
-2.000000
 31
0.000000
  0
LINE
  8
Kontur
 62
     7
  6
CONTINUOUS
 10
164.500000
 20
8.707107
 30
0.000000
 11
171.500000
 21
15.707107
 31
0.000000
  0
LINE
  8
Kontur
 62
     7
  6
CONTINUOUS
 10
178.500000
 20
8.707107
 30
0.000000
 11
171.500000
 21
15.707107
 31
0.000000
  0
ARC
  8
Kontur
 62
     7
  6
CONTINUOUS
 10
179.500000
 20
-2.000000
 30
0.000000
 40
1.000000
 50
180.000000
 51
0.000000
 210
0.000000
 220
0.000000
 230
1.000000
  0
LINE
  8
Kontur
 62
     7
  6
CONTINUOUS
 10
180.500000
 20
8.707107
 30
0.000000
 11
180.500000
 21
-2.000000
 31
0.000000
  0
LINE
  8
Kontur
 62
     7
  6
CONTINUOUS
 10
194.500000
 20
8.707107
 30
0.000000
 11
194.500000
 21
-2.000000
 31
0.000000
  0
LINE
  8
Kontur
 62
     7
  6
CONTINUOUS
 10
180.500000
 20
8.707107
 30
0.000000
 11
187.500000
 21
15.707107
 31
0.000000
  0
LINE
  8
Kontur
 62
     7
  6
CONTINUOUS
 10
194.500000
 20
8.707107
 30
0.000000
 11
187.500000
 21
15.707107
 31
0.000000
  0
ARC
  8
Kontur
 62
     7
  6
CONTINUOUS
 10
195.500000
 20
-2.000000
 30
0.000000
 40
1.000000
 50
180.000000
 51
0.000000
 210
0.000000
 220
0.000000
 230
1.000000
  0
LINE
  8
Kontur
 62
     7
  6
CONTINUOUS
 10
196.500000
 20
8.707107
 30
0.000000
 11
196.500000
 21
-2.000000
 31
0.000000
  0
LINE
  8
Kontur
 62
     7
  6
CONTINUOUS
 10
210.500000
 20
8.707107
 30
0.000000
 11
210.500000
 21
-2.000000
 31
0.000000
  0
LINE
  8
Kontur
 62
     7
  6
CONTINUOUS
 10
196.500000
 20
8.707107
 30
0.000000
 11
203.500000
 21
15.707107
 31
0.000000
  0
LINE
  8
Kontur
 62
     7
  6
CONTINUOUS
 10
210.500000
 20
8.707107
 30
0.000000
 11
203.500000
 21
15.707107
 31
0.000000
  0
ARC
  8
Kontur
 62
     7
  6
CONTINUOUS
 10
211.500000
 20
-2.000000
 30
0.000000
 40
1.000000
 50
180.000000
 51
0.000000
 210
0.000000
 220
0.000000
 230
1.000000
  0
LINE
  8
Kontur
 62
     7
  6
CONTINUOUS
 10
212.500000
 20
8.707107
 30
0.000000
 11
212.500000
 21
-2.000000
 31
0.000000
  0
LINE
  8
Kontur
 62
     7
  6
CONTINUOUS
 10
226.500000
 20
8.707107
 30
0.000000
 11
226.500000
 21
-2.000000
 31
0.000000
  0
LINE
  8
Kontur
 62
     7
  6
CONTINUOUS
 10
212.500000
 20
8.707107
 30
0.000000
 11
219.500000
 21
15.707107
 31
0.000000
  0
LINE
  8
Kontur
 62
     7
  6
CONTINUOUS
 10
226.500000
 20
8.707107
 30
0.000000
 11
219.500000
 21
15.707107
 31
0.000000
  0
ARC
  8
Kontur
 62
     7
  6
CONTINUOUS
 10
227.500000
 20
-2.000000
 30
0.000000
 40
1.000000
 50
180.000000
 51
0.000000
 210
0.000000
 220
0.000000
 230
1.000000
  0
LINE
  8
Kontur
 62
     7
  6
CONTINUOUS
 10
228.500000
 20
8.707107
 30
0.000000
 11
228.500000
 21
-2.000000
 31
0.000000
  0
LINE
  8
Kontur
 62
     7
  6
CONTINUOUS
 10
242.500000
 20
8.707107
 30
0.000000
 11
242.500000
 21
-2.000000
 31
0.000000
  0
LINE
  8
Kontur
 62
     7
  6
CONTINUOUS
 10
228.500000
 20
8.707107
 30
0.000000
 11
235.500000
 21
15.707107
 31
0.000000
  0
LINE
  8
Kontur
 62
     7
  6
CONTINUOUS
 10
242.500000
 20
8.707107
 30
0.000000
 11
235.500000
 21
15.707107
 31
0.000000
  0
ARC
  8
Kontur
 62
     7
  6
CONTINUOUS
 10
243.500000
 20
-2.000000
 30
0.000000
 40
1.000000
 50
180.000000
 51
0.000000
 210
0.000000
 220
0.000000
 230
1.000000
  0
LINE
  8
Kontur
 62
     7
  6
CONTINUOUS
 10
244.500000
 20
8.707107
 30
0.000000
 11
244.500000
 21
-2.000000
 31
0.000000
  0
LINE
  8
Kontur
 62
     7
  6
CONTINUOUS
 10
258.500000
 20
8.707107
 30
0.000000
 11
258.500000
 21
-2.000000
 31
0.000000
  0
LINE
  8
Kontur
 62
     7
  6
CONTINUOUS
 10
244.500000
 20
8.707107
 30
0.000000
 11
251.500000
 21
15.707107
 31
0.000000
  0
LINE
  8
Kontur
 62
     7
  6
CONTINUOUS
 10
258.500000
 20
8.707107
 30
0.000000
 11
251.500000
 21
15.707107
 31
0.000000
  0
ARC
  8
Kontur
 62
     7
  6
CONTINUOUS
 10
259.500000
 20
-2.000000
 30
0.000000
 40
1.000000
 50
180.000000
 51
0.000000
 210
0.000000
 220
0.000000
 230
1.000000
  0
LINE
  8
Kontur
 62
     7
  6
CONTINUOUS
 10
260.500000
 20
8.707107
 30
0.000000
 11
260.500000
 21
-2.000000
 31
0.000000
  0
LINE
  8
Kontur
 62
     7
  6
CONTINUOUS
 10
274.500000
 20
8.707107
 30
0.000000
 11
274.500000
 21
-2.000000
 31
0.000000
  0
LINE
  8
Kontur
 62
     7
  6
CONTINUOUS
 10
260.500000
 20
8.707107
 30
0.000000
 11
267.500000
 21
15.707107
 31
0.000000
  0
LINE
  8
Kontur
 62
     7
  6
CONTINUOUS
 10
274.500000
 20
8.707107
 30
0.000000
 11
267.500000
 21
15.707107
 31
0.000000
  0
ARC
  8
Kontur
 62
     7
  6
CONTINUOUS
 10
275.500000
 20
-2.000000
 30
0.000000
 40
1.000000
 50
180.000000
 51
0.000000
 210
0.000000
 220
0.000000
 230
1.000000
  0
LINE
  8
Kontur
 62
     7
  6
CONTINUOUS
 10
276.500000
 20
8.707107
 30
0.000000
 11
276.500000
 21
-2.000000
 31
0.000000
  0
LINE
  8
Kontur
 62
     7
  6
CONTINUOUS
 10
290.500000
 20
8.707107
 30
0.000000
 11
290.500000
 21
-2.000000
 31
0.000000
  0
LINE
  8
Kontur
 62
     7
  6
CONTINUOUS
 10
276.500000
 20
8.707107
 30
0.000000
 11
283.500000
 21
15.707107
 31
0.000000
  0
LINE
  8
Kontur
 62
     7
  6
CONTINUOUS
 10
290.500000
 20
8.707107
 30
0.000000
 11
283.500000
 21
15.707107
 31
0.000000
  0
ARC
  8
Kontur
 62
     7
  6
CONTINUOUS
 10
291.500000
 20
-2.000000
 30
0.000000
 40
1.000000
 50
180.000000
 51
0.000000
 210
0.000000
 220
0.000000
 230
1.000000
  0
LINE
  8
Kontur
 62
     7
  6
CONTINUOUS
 10
292.500000
 20
8.707107
 30
0.000000
 11
292.500000
 21
-2.000000
 31
0.000000
  0
LINE
  8
Kontur
 62
     7
  6
CONTINUOUS
 10
306.500000
 20
8.707107
 30
0.000000
 11
306.500000
 21
-2.000000
 31
0.000000
  0
LINE
  8
Kontur
 62
     7
  6
CONTINUOUS
 10
292.500000
 20
8.707107
 30
0.000000
 11
299.500000
 21
15.707107
 31
0.000000
  0
LINE
  8
Kontur
 62
     7
  6
CONTINUOUS
 10
306.500000
 20
8.707107
 30
0.000000
 11
299.500000
 21
15.707107
 31
0.000000
  0
ARC
  8
Kontur
 62
     7
  6
CONTINUOUS
 10
307.500000
 20
-2.000000
 30
0.000000
 40
1.000000
 50
180.000000
 51
0.000000
 210
0.000000
 220
0.000000
 230
1.000000
  0
LINE
  8
Kontur
 62
     7
  6
CONTINUOUS
 10
308.500000
 20
8.707107
 30
0.000000
 11
308.500000
 21
-2.000000
 31
0.000000
  0
LINE
  8
Kontur
 62
     7
  6
CONTINUOUS
 10
322.500000
 20
8.707107
 30
0.000000
 11
322.500000
 21
-2.000000
 31
0.000000
  0
LINE
  8
Kontur
 62
     7
  6
CONTINUOUS
 10
308.500000
 20
8.707107
 30
0.000000
 11
315.500000
 21
15.707107
 31
0.000000
  0
LINE
  8
Kontur
 62
     7
  6
CONTINUOUS
 10
322.500000
 20
8.707107
 30
0.000000
 11
315.500000
 21
15.707107
 31
0.000000
  0
ARC
  8
Kontur
 62
     7
  6
CONTINUOUS
 10
323.500000
 20
-2.000000
 30
0.000000
 40
1.000000
 50
180.000000
 51
0.000000
 210
0.000000
 220
0.000000
 230
1.000000
  0
LINE
  8
Kontur
 62
     7
  6
CONTINUOUS
 10
324.500000
 20
8.707107
 30
0.000000
 11
324.500000
 21
-2.000000
 31
0.000000
  0
LINE
  8
Kontur
 62
     7
  6
CONTINUOUS
 10
338.500000
 20
8.707107
 30
0.000000
 11
338.500000
 21
-2.000000
 31
0.000000
  0
LINE
  8
Kontur
 62
     7
  6
CONTINUOUS
 10
324.500000
 20
8.707107
 30
0.000000
 11
331.500000
 21
15.707107
 31
0.000000
  0
LINE
  8
Kontur
 62
     7
  6
CONTINUOUS
 10
338.500000
 20
8.707107
 30
0.000000
 11
331.500000
 21
15.707107
 31
0.000000
  0
ARC
  8
Kontur
 62
     7
  6
CONTINUOUS
 10
339.500000
 20
-2.000000
 30
0.000000
 40
1.000000
 50
180.000000
 51
0.000000
 210
0.000000
 220
0.000000
 230
1.000000
  0
LINE
  8
Kontur
 62
     7
  6
CONTINUOUS
 10
340.500000
 20
8.707107
 30
0.000000
 11
340.500000
 21
-2.000000
 31
0.000000
  0
LINE
  8
Kontur
 62
     7
  6
CONTINUOUS
 10
354.500000
 20
8.707107
 30
0.000000
 11
354.500000
 21
-2.000000
 31
0.000000
  0
LINE
  8
Kontur
 62
     7
  6
CONTINUOUS
 10
340.500000
 20
8.707107
 30
0.000000
 11
347.500000
 21
15.707107
 31
0.000000
  0
LINE
  8
Kontur
 62
     7
  6
CONTINUOUS
 10
354.500000
 20
8.707107
 30
0.000000
 11
347.500000
 21
15.707107
 31
0.000000
  0
ARC
  8
Kontur
 62
     7
  6
CONTINUOUS
 10
355.500000
 20
-2.000000
 30
0.000000
 40
1.000000
 50
180.000000
 51
0.000000
 210
0.000000
 220
0.000000
 230
1.000000
  0
LINE
  8
Kontur
 62
     7
  6
CONTINUOUS
 10
356.500000
 20
8.707107
 30
0.000000
 11
356.500000
 21
-2.000000
 31
0.000000
  0
LINE
  8
Kontur
 62
     7
  6
CONTINUOUS
 10
370.500000
 20
8.707107
 30
0.000000
 11
370.500000
 21
-2.000000
 31
0.000000
  0
LINE
  8
Kontur
 62
     7
  6
CONTINUOUS
 10
356.500000
 20
8.707107
 30
0.000000
 11
363.500000
 21
15.707107
 31
0.000000
  0
LINE
  8
Kontur
 62
     7
  6
CONTINUOUS
 10
370.500000
 20
8.707107
 30
0.000000
 11
363.500000
 21
15.707107
 31
0.000000
  0
ARC
  8
Kontur
 62
     7
  6
CONTINUOUS
 10
371.500000
 20
-2.000000
 30
0.000000
 40
1.000000
 50
180.000000
 51
0.000000
 210
0.000000
 220
0.000000
 230
1.000000
  0
LINE
  8
Kontur
 62
     7
  6
CONTINUOUS
 10
372.500000
 20
8.707107
 30
0.000000
 11
372.500000
 21
-2.000000
 31
0.000000
  0
LINE
  8
Kontur
 62
     7
  6
CONTINUOUS
 10
386.500000
 20
8.707107
 30
0.000000
 11
386.500000
 21
-2.000000
 31
0.000000
  0
LINE
  8
Kontur
 62
     7
  6
CONTINUOUS
 10
372.500000
 20
8.707107
 30
0.000000
 11
379.500000
 21
15.707107
 31
0.000000
  0
LINE
  8
Kontur
 62
     7
  6
CONTINUOUS
 10
386.500000
 20
8.707107
 30
0.000000
 11
379.500000
 21
15.707107
 31
0.000000
  0
ARC
  8
Kontur
 62
     7
  6
CONTINUOUS
 10
387.500000
 20
-2.000000
 30
0.000000
 40
1.000000
 50
180.000000
 51
0.000000
 210
0.000000
 220
0.000000
 230
1.000000
  0
LINE
  8
Kontur
 62
     7
  6
CONTINUOUS
 10
388.500000
 20
8.707107
 30
0.000000
 11
388.500000
 21
-2.000000
 31
0.000000
  0
LINE
  8
Kontur
 62
     7
  6
CONTINUOUS
 10
402.500000
 20
8.707107
 30
0.000000
 11
402.500000
 21
-2.000000
 31
0.000000
  0
LINE
  8
Kontur
 62
     7
  6
CONTINUOUS
 10
388.500000
 20
8.707107
 30
0.000000
 11
395.500000
 21
15.707107
 31
0.000000
  0
LINE
  8
Kontur
 62
     7
  6
CONTINUOUS
 10
402.500000
 20
8.707107
 30
0.000000
 11
395.500000
 21
15.707107
 31
0.000000
  0
ARC
  8
Kontur
 62
     7
  6
CONTINUOUS
 10
403.500000
 20
-2.000000
 30
0.000000
 40
1.000000
 50
180.000000
 51
0.000000
 210
0.000000
 220
0.000000
 230
1.000000
  0
LINE
  8
Kontur
 62
     7
  6
CONTINUOUS
 10
404.500000
 20
8.707107
 30
0.000000
 11
404.500000
 21
-2.000000
 31
0.000000
  0
LINE
  8
Kontur
 62
     7
  6
CONTINUOUS
 10
418.500000
 20
8.707107
 30
0.000000
 11
418.500000
 21
-2.000000
 31
0.000000
  0
LINE
  8
Kontur
 62
     7
  6
CONTINUOUS
 10
404.500000
 20
8.707107
 30
0.000000
 11
411.500000
 21
15.707107
 31
0.000000
  0
LINE
  8
Kontur
 62
     7
  6
CONTINUOUS
 10
418.500000
 20
8.707107
 30
0.000000
 11
411.500000
 21
15.707107
 31
0.000000
  0
ARC
  8
Kontur
 62
     7
  6
CONTINUOUS
 10
419.500000
 20
-2.000000
 30
0.000000
 40
1.000000
 50
180.000000
 51
0.000000
 210
0.000000
 220
0.000000
 230
1.000000
  0
LINE
  8
Kontur
 62
     7
  6
CONTINUOUS
 10
420.500000
 20
8.707107
 30
0.000000
 11
420.500000
 21
-2.000000
 31
0.000000
  0
LINE
  8
Kontur
 62
     7
  6
CONTINUOUS
 10
434.500000
 20
8.707107
 30
0.000000
 11
434.500000
 21
-2.000000
 31
0.000000
  0
LINE
  8
Kontur
 62
     7
  6
CONTINUOUS
 10
420.500000
 20
8.707107
 30
0.000000
 11
427.500000
 21
15.707107
 31
0.000000
  0
LINE
  8
Kontur
 62
     7
  6
CONTINUOUS
 10
434.500000
 20
8.707107
 30
0.000000
 11
427.500000
 21
15.707107
 31
0.000000
  0
ARC
  8
Kontur
 62
     7
  6
CONTINUOUS
 10
435.500000
 20
-2.000000
 30
0.000000
 40
1.000000
 50
180.000000
 51
0.000000
 210
0.000000
 220
0.000000
 230
1.000000
  0
LINE
  8
Kontur
 62
     7
  6
CONTINUOUS
 10
436.500000
 20
8.707107
 30
0.000000
 11
436.500000
 21
-2.000000
 31
0.000000
  0
LINE
  8
Kontur
 62
     7
  6
CONTINUOUS
 10
436.500000
 20
8.707107
 30
0.000000
 11
443.500000
 21
15.707107
 31
0.000000
  0
LINE
  8
Kontur
 62
     7
  6
CONTINUOUS
 10
95.750000
 20
-15.300000
 30
0.000000
 11
445.750000
 21
-15.300000
 31
0.000000
  0
LINE
  8
Kontur
 62
     7
  6
CONTINUOUS
 10
95.750000
 20
11.457107
 30
0.000000
 11
95.750000
 21
-15.300000
 31
0.000000
  0
LINE
  8
Kontur
 62
     3
  6
CONTINUOUS
 10
95.750000
 20
-15.300000
 30
0.000000
 11
95.750000
 21
-20.300000
 31
0.000000
  0
LINE
  8
Kontur
 62
     3
  6
CONTINUOUS
 10
445.750000
 20
-15.300000
 30
0.000000
 11
445.750000
 21
-20.300000
 31
0.000000
  0
LINE
  8
Kontur
 62
     7
  6
CONTINUOUS
 10
450.500000
 20
8.707107
 30
0.000000
 11
450.500000
 21
-2.000000
 31
0.000000
  0
LINE
  8
Kontur
 62
     7
  6
CONTINUOUS
 10
452.500000
 20
8.707107
 30
0.000000
 11
452.500000
 21
-2.000000
 31
0.000000
  0
LINE
  8
Kontur
 62
     7
  6
CONTINUOUS
 10
466.500000
 20
8.707107
 30
0.000000
 11
466.500000
 21
-2.000000
 31
0.000000
  0
ARC
  8
Kontur
 62
     7
  6
CONTINUOUS
 10
451.500000
 20
-2.000000
 30
0.000000
 40
1.000000
 50
180.000000
 51
0.000000
 210
0.000000
 220
0.000000
 230
1.000000
  0
ARC
  8
Kontur
 62
     7
  6
CONTINUOUS
 10
467.500000
 20
-2.000000
 30
0.000000
 40
1.000000
 50
180.000000
 51
0.000000
 210
0.000000
 220
0.000000
 230
1.000000
  0
LINE
  8
Kontur
 62
     7
  6
CONTINUOUS
 10
468.500000
 20
8.707107
 30
0.000000
 11
468.500000
 21
-2.000000
 31
0.000000
  0
LINE
  8
Kontur
 62
     7
  6
CONTINUOUS
 10
482.500000
 20
8.707107
 30
0.000000
 11
482.500000
 21
-2.000000
 31
0.000000
  0
LINE
  8
Kontur
 62
     7
  6
CONTINUOUS
 10
452.500000
 20
8.707107
 30
0.000000
 11
459.500000
 21
15.707107
 31
0.000000
  0
LINE
  8
Kontur
 62
     7
  6
CONTINUOUS
 10
466.500000
 20
8.707107
 30
0.000000
 11
459.500000
 21
15.707107
 31
0.000000
  0
LINE
  8
Kontur
 62
     7
  6
CONTINUOUS
 10
468.500000
 20
8.707107
 30
0.000000
 11
475.500000
 21
15.707107
 31
0.000000
  0
LINE
  8
Kontur
 62
     7
  6
CONTINUOUS
 10
482.500000
 20
8.707107
 30
0.000000
 11
475.500000
 21
15.707107
 31
0.000000
  0
ARC
  8
Kontur
 62
     7
  6
CONTINUOUS
 10
483.500000
 20
-2.000000
 30
0.000000
 40
1.000000
 50
180.000000
 51
0.000000
 210
0.000000
 220
0.000000
 230
1.000000
  0
LINE
  8
Kontur
 62
     7
  6
CONTINUOUS
 10
484.500000
 20
8.707107
 30
0.000000
 11
484.500000
 21
-2.000000
 31
0.000000
  0
LINE
  8
Kontur
 62
     7
  6
CONTINUOUS
 10
498.500000
 20
8.707107
 30
0.000000
 11
498.500000
 21
-2.000000
 31
0.000000
  0
LINE
  8
Kontur
 62
     7
  6
CONTINUOUS
 10
484.500000
 20
8.707107
 30
0.000000
 11
491.500000
 21
15.707107
 31
0.000000
  0
LINE
  8
Kontur
 62
     7
  6
CONTINUOUS
 10
498.500000
 20
8.707107
 30
0.000000
 11
491.500000
 21
15.707107
 31
0.000000
  0
ARC
  8
Kontur
 62
     7
  6
CONTINUOUS
 10
499.500000
 20
-2.000000
 30
0.000000
 40
1.000000
 50
180.000000
 51
0.000000
 210
0.000000
 220
0.000000
 230
1.000000
  0
LINE
  8
Kontur
 62
     7
  6
CONTINUOUS
 10
500.500000
 20
8.707107
 30
0.000000
 11
500.500000
 21
-2.000000
 31
0.000000
  0
LINE
  8
Kontur
 62
     7
  6
CONTINUOUS
 10
514.500000
 20
8.707107
 30
0.000000
 11
514.500000
 21
-2.000000
 31
0.000000
  0
LINE
  8
Kontur
 62
     7
  6
CONTINUOUS
 10
500.500000
 20
8.707107
 30
0.000000
 11
507.500000
 21
15.707107
 31
0.000000
  0
LINE
  8
Kontur
 62
     7
  6
CONTINUOUS
 10
514.500000
 20
8.707107
 30
0.000000
 11
507.500000
 21
15.707107
 31
0.000000
  0
ARC
  8
Kontur
 62
     7
  6
CONTINUOUS
 10
515.500000
 20
-2.000000
 30
0.000000
 40
1.000000
 50
180.000000
 51
0.000000
 210
0.000000
 220
0.000000
 230
1.000000
  0
LINE
  8
Kontur
 62
     7
  6
CONTINUOUS
 10
516.500000
 20
8.707107
 30
0.000000
 11
516.500000
 21
-2.000000
 31
0.000000
  0
LINE
  8
Kontur
 62
     7
  6
CONTINUOUS
 10
530.500000
 20
8.707107
 30
0.000000
 11
530.500000
 21
-2.000000
 31
0.000000
  0
LINE
  8
Kontur
 62
     7
  6
CONTINUOUS
 10
516.500000
 20
8.707107
 30
0.000000
 11
523.500000
 21
15.707107
 31
0.000000
  0
LINE
  8
Kontur
 62
     7
  6
CONTINUOUS
 10
530.500000
 20
8.707107
 30
0.000000
 11
523.500000
 21
15.707107
 31
0.000000
  0
ARC
  8
Kontur
 62
     7
  6
CONTINUOUS
 10
531.500000
 20
-2.000000
 30
0.000000
 40
1.000000
 50
180.000000
 51
0.000000
 210
0.000000
 220
0.000000
 230
1.000000
  0
LINE
  8
Kontur
 62
     7
  6
CONTINUOUS
 10
532.500000
 20
8.707107
 30
0.000000
 11
532.500000
 21
-2.000000
 31
0.000000
  0
LINE
  8
Kontur
 62
     7
  6
CONTINUOUS
 10
546.500000
 20
8.707107
 30
0.000000
 11
546.500000
 21
-2.000000
 31
0.000000
  0
LINE
  8
Kontur
 62
     7
  6
CONTINUOUS
 10
532.500000
 20
8.707107
 30
0.000000
 11
539.500000
 21
15.707107
 31
0.000000
  0
LINE
  8
Kontur
 62
     7
  6
CONTINUOUS
 10
546.500000
 20
8.707107
 30
0.000000
 11
539.500000
 21
15.707107
 31
0.000000
  0
ARC
  8
Kontur
 62
     7
  6
CONTINUOUS
 10
547.500000
 20
-2.000000
 30
0.000000
 40
1.000000
 50
180.000000
 51
0.000000
 210
0.000000
 220
0.000000
 230
1.000000
  0
LINE
  8
Kontur
 62
     7
  6
CONTINUOUS
 10
548.500000
 20
8.707107
 30
0.000000
 11
548.500000
 21
-2.000000
 31
0.000000
  0
LINE
  8
Kontur
 62
     7
  6
CONTINUOUS
 10
562.500000
 20
8.707107
 30
0.000000
 11
562.500000
 21
-2.000000
 31
0.000000
  0
LINE
  8
Kontur
 62
     7
  6
CONTINUOUS
 10
548.500000
 20
8.707107
 30
0.000000
 11
555.500000
 21
15.707107
 31
0.000000
  0
LINE
  8
Kontur
 62
     7
  6
CONTINUOUS
 10
562.500000
 20
8.707107
 30
0.000000
 11
555.500000
 21
15.707107
 31
0.000000
  0
ARC
  8
Kontur
 62
     7
  6
CONTINUOUS
 10
563.500000
 20
-2.000000
 30
0.000000
 40
1.000000
 50
180.000000
 51
0.000000
 210
0.000000
 220
0.000000
 230
1.000000
  0
LINE
  8
Kontur
 62
     7
  6
CONTINUOUS
 10
564.500000
 20
8.707107
 30
0.000000
 11
564.500000
 21
-2.000000
 31
0.000000
  0
LINE
  8
Kontur
 62
     7
  6
CONTINUOUS
 10
578.500000
 20
8.707107
 30
0.000000
 11
578.500000
 21
-2.000000
 31
0.000000
  0
LINE
  8
Kontur
 62
     7
  6
CONTINUOUS
 10
564.500000
 20
8.707107
 30
0.000000
 11
571.500000
 21
15.707107
 31
0.000000
  0
LINE
  8
Kontur
 62
     7
  6
CONTINUOUS
 10
578.500000
 20
8.707107
 30
0.000000
 11
571.500000
 21
15.707107
 31
0.000000
  0
ARC
  8
Kontur
 62
     7
  6
CONTINUOUS
 10
579.500000
 20
-2.000000
 30
0.000000
 40
1.000000
 50
180.000000
 51
0.000000
 210
0.000000
 220
0.000000
 230
1.000000
  0
LINE
  8
Kontur
 62
     7
  6
CONTINUOUS
 10
580.500000
 20
8.707107
 30
0.000000
 11
580.500000
 21
-2.000000
 31
0.000000
  0
LINE
  8
Kontur
 62
     7
  6
CONTINUOUS
 10
594.500000
 20
8.707107
 30
0.000000
 11
594.500000
 21
-2.000000
 31
0.000000
  0
LINE
  8
Kontur
 62
     7
  6
CONTINUOUS
 10
580.500000
 20
8.707107
 30
0.000000
 11
587.500000
 21
15.707107
 31
0.000000
  0
LINE
  8
Kontur
 62
     7
  6
CONTINUOUS
 10
594.500000
 20
8.707107
 30
0.000000
 11
587.500000
 21
15.707107
 31
0.000000
  0
ARC
  8
Kontur
 62
     7
  6
CONTINUOUS
 10
595.500000
 20
-2.000000
 30
0.000000
 40
1.000000
 50
180.000000
 51
0.000000
 210
0.000000
 220
0.000000
 230
1.000000
  0
LINE
  8
Kontur
 62
     7
  6
CONTINUOUS
 10
596.500000
 20
8.707107
 30
0.000000
 11
596.500000
 21
-2.000000
 31
0.000000
  0
LINE
  8
Kontur
 62
     7
  6
CONTINUOUS
 10
610.500000
 20
8.707107
 30
0.000000
 11
610.500000
 21
-2.000000
 31
0.000000
  0
LINE
  8
Kontur
 62
     7
  6
CONTINUOUS
 10
596.500000
 20
8.707107
 30
0.000000
 11
603.500000
 21
15.707107
 31
0.000000
  0
LINE
  8
Kontur
 62
     7
  6
CONTINUOUS
 10
610.500000
 20
8.707107
 30
0.000000
 11
603.500000
 21
15.707107
 31
0.000000
  0
ARC
  8
Kontur
 62
     7
  6
CONTINUOUS
 10
611.500000
 20
-2.000000
 30
0.000000
 40
1.000000
 50
180.000000
 51
0.000000
 210
0.000000
 220
0.000000
 230
1.000000
  0
LINE
  8
Kontur
 62
     7
  6
CONTINUOUS
 10
612.500000
 20
8.707107
 30
0.000000
 11
612.500000
 21
-2.000000
 31
0.000000
  0
LINE
  8
Kontur
 62
     7
  6
CONTINUOUS
 10
626.500000
 20
8.707107
 30
0.000000
 11
626.500000
 21
-2.000000
 31
0.000000
  0
LINE
  8
Kontur
 62
     7
  6
CONTINUOUS
 10
612.500000
 20
8.707107
 30
0.000000
 11
619.500000
 21
15.707107
 31
0.000000
  0
LINE
  8
Kontur
 62
     7
  6
CONTINUOUS
 10
626.500000
 20
8.707107
 30
0.000000
 11
619.500000
 21
15.707107
 31
0.000000
  0
ARC
  8
Kontur
 62
     7
  6
CONTINUOUS
 10
627.500000
 20
-2.000000
 30
0.000000
 40
1.000000
 50
180.000000
 51
0.000000
 210
0.000000
 220
0.000000
 230
1.000000
  0
LINE
  8
Kontur
 62
     7
  6
CONTINUOUS
 10
628.500000
 20
8.707107
 30
0.000000
 11
628.500000
 21
-2.000000
 31
0.000000
  0
LINE
  8
Kontur
 62
     7
  6
CONTINUOUS
 10
642.500000
 20
8.707107
 30
0.000000
 11
642.500000
 21
-2.000000
 31
0.000000
  0
LINE
  8
Kontur
 62
     7
  6
CONTINUOUS
 10
628.500000
 20
8.707107
 30
0.000000
 11
635.500000
 21
15.707107
 31
0.000000
  0
LINE
  8
Kontur
 62
     7
  6
CONTINUOUS
 10
642.500000
 20
8.707107
 30
0.000000
 11
635.500000
 21
15.707107
 31
0.000000
  0
ARC
  8
Kontur
 62
     7
  6
CONTINUOUS
 10
643.500000
 20
-2.000000
 30
0.000000
 40
1.000000
 50
180.000000
 51
0.000000
 210
0.000000
 220
0.000000
 230
1.000000
  0
LINE
  8
Kontur
 62
     7
  6
CONTINUOUS
 10
644.500000
 20
8.707107
 30
0.000000
 11
644.500000
 21
-2.000000
 31
0.000000
  0
LINE
  8
Kontur
 62
     7
  6
CONTINUOUS
 10
658.500000
 20
8.707107
 30
0.000000
 11
658.500000
 21
-2.000000
 31
0.000000
  0
LINE
  8
Kontur
 62
     7
  6
CONTINUOUS
 10
644.500000
 20
8.707107
 30
0.000000
 11
651.500000
 21
15.707107
 31
0.000000
  0
LINE
  8
Kontur
 62
     7
  6
CONTINUOUS
 10
658.500000
 20
8.707107
 30
0.000000
 11
651.500000
 21
15.707107
 31
0.000000
  0
ARC
  8
Kontur
 62
     7
  6
CONTINUOUS
 10
659.500000
 20
-2.000000
 30
0.000000
 40
1.000000
 50
180.000000
 51
0.000000
 210
0.000000
 220
0.000000
 230
1.000000
  0
LINE
  8
Kontur
 62
     7
  6
CONTINUOUS
 10
660.500000
 20
8.707107
 30
0.000000
 11
660.500000
 21
-2.000000
 31
0.000000
  0
LINE
  8
Kontur
 62
     7
  6
CONTINUOUS
 10
674.500000
 20
8.707107
 30
0.000000
 11
674.500000
 21
-2.000000
 31
0.000000
  0
LINE
  8
Kontur
 62
     7
  6
CONTINUOUS
 10
660.500000
 20
8.707107
 30
0.000000
 11
667.500000
 21
15.707107
 31
0.000000
  0
LINE
  8
Kontur
 62
     7
  6
CONTINUOUS
 10
674.500000
 20
8.707107
 30
0.000000
 11
667.500000
 21
15.707107
 31
0.000000
  0
ARC
  8
Kontur
 62
     7
  6
CONTINUOUS
 10
675.500000
 20
-2.000000
 30
0.000000
 40
1.000000
 50
180.000000
 51
0.000000
 210
0.000000
 220
0.000000
 230
1.000000
  0
LINE
  8
Kontur
 62
     7
  6
CONTINUOUS
 10
676.500000
 20
8.707107
 30
0.000000
 11
676.500000
 21
-2.000000
 31
0.000000
  0
LINE
  8
Kontur
 62
     7
  6
CONTINUOUS
 10
690.500000
 20
8.707107
 30
0.000000
 11
690.500000
 21
-2.000000
 31
0.000000
  0
LINE
  8
Kontur
 62
     7
  6
CONTINUOUS
 10
676.500000
 20
8.707107
 30
0.000000
 11
683.500000
 21
15.707107
 31
0.000000
  0
LINE
  8
Kontur
 62
     7
  6
CONTINUOUS
 10
690.500000
 20
8.707107
 30
0.000000
 11
683.500000
 21
15.707107
 31
0.000000
  0
ARC
  8
Kontur
 62
     7
  6
CONTINUOUS
 10
691.500000
 20
-2.000000
 30
0.000000
 40
1.000000
 50
180.000000
 51
0.000000
 210
0.000000
 220
0.000000
 230
1.000000
  0
LINE
  8
Kontur
 62
     7
  6
CONTINUOUS
 10
692.500000
 20
8.707107
 30
0.000000
 11
692.500000
 21
-2.000000
 31
0.000000
  0
LINE
  8
Kontur
 62
     7
  6
CONTINUOUS
 10
706.500000
 20
8.707107
 30
0.000000
 11
706.500000
 21
-2.000000
 31
0.000000
  0
LINE
  8
Kontur
 62
     7
  6
CONTINUOUS
 10
692.500000
 20
8.707107
 30
0.000000
 11
699.500000
 21
15.707107
 31
0.000000
  0
LINE
  8
Kontur
 62
     7
  6
CONTINUOUS
 10
706.500000
 20
8.707107
 30
0.000000
 11
699.500000
 21
15.707107
 31
0.000000
  0
ARC
  8
Kontur
 62
     7
  6
CONTINUOUS
 10
707.500000
 20
-2.000000
 30
0.000000
 40
1.000000
 50
180.000000
 51
0.000000
 210
0.000000
 220
0.000000
 230
1.000000
  0
LINE
  8
Kontur
 62
     7
  6
CONTINUOUS
 10
708.500000
 20
8.707107
 30
0.000000
 11
708.500000
 21
-2.000000
 31
0.000000
  0
LINE
  8
Kontur
 62
     7
  6
CONTINUOUS
 10
722.500000
 20
8.707107
 30
0.000000
 11
722.500000
 21
-2.000000
 31
0.000000
  0
LINE
  8
Kontur
 62
     7
  6
CONTINUOUS
 10
708.500000
 20
8.707107
 30
0.000000
 11
715.500000
 21
15.707107
 31
0.000000
  0
LINE
  8
Kontur
 62
     7
  6
CONTINUOUS
 10
722.500000
 20
8.707107
 30
0.000000
 11
715.500000
 21
15.707107
 31
0.000000
  0
ARC
  8
Kontur
 62
     7
  6
CONTINUOUS
 10
723.500000
 20
-2.000000
 30
0.000000
 40
1.000000
 50
180.000000
 51
0.000000
 210
0.000000
 220
0.000000
 230
1.000000
  0
LINE
  8
Kontur
 62
     7
  6
CONTINUOUS
 10
724.500000
 20
8.707107
 30
0.000000
 11
724.500000
 21
-2.000000
 31
0.000000
  0
LINE
  8
Kontur
 62
     7
  6
CONTINUOUS
 10
738.500000
 20
8.707107
 30
0.000000
 11
738.500000
 21
-2.000000
 31
0.000000
  0
LINE
  8
Kontur
 62
     7
  6
CONTINUOUS
 10
724.500000
 20
8.707107
 30
0.000000
 11
731.500000
 21
15.707107
 31
0.000000
  0
LINE
  8
Kontur
 62
     7
  6
CONTINUOUS
 10
738.500000
 20
8.707107
 30
0.000000
 11
731.500000
 21
15.707107
 31
0.000000
  0
ARC
  8
Kontur
 62
     7
  6
CONTINUOUS
 10
739.500000
 20
-2.000000
 30
0.000000
 40
1.000000
 50
180.000000
 51
0.000000
 210
0.000000
 220
0.000000
 230
1.000000
  0
LINE
  8
Kontur
 62
     7
  6
CONTINUOUS
 10
740.500000
 20
8.707107
 30
0.000000
 11
740.500000
 21
-2.000000
 31
0.000000
  0
LINE
  8
Kontur
 62
     7
  6
CONTINUOUS
 10
754.500000
 20
8.707107
 30
0.000000
 11
754.500000
 21
-2.000000
 31
0.000000
  0
LINE
  8
Kontur
 62
     7
  6
CONTINUOUS
 10
740.500000
 20
8.707107
 30
0.000000
 11
747.500000
 21
15.707107
 31
0.000000
  0
LINE
  8
Kontur
 62
     7
  6
CONTINUOUS
 10
754.500000
 20
8.707107
 30
0.000000
 11
747.500000
 21
15.707107
 31
0.000000
  0
ARC
  8
Kontur
 62
     7
  6
CONTINUOUS
 10
755.500000
 20
-2.000000
 30
0.000000
 40
1.000000
 50
180.000000
 51
0.000000
 210
0.000000
 220
0.000000
 230
1.000000
  0
LINE
  8
Kontur
 62
     7
  6
CONTINUOUS
 10
756.500000
 20
8.707107
 30
0.000000
 11
756.500000
 21
-2.000000
 31
0.000000
  0
LINE
  8
Kontur
 62
     7
  6
CONTINUOUS
 10
770.500000
 20
8.707107
 30
0.000000
 11
770.500000
 21
-2.000000
 31
0.000000
  0
LINE
  8
Kontur
 62
     7
  6
CONTINUOUS
 10
756.500000
 20
8.707107
 30
0.000000
 11
763.500000
 21
15.707107
 31
0.000000
  0
LINE
  8
Kontur
 62
     7
  6
CONTINUOUS
 10
770.500000
 20
8.707107
 30
0.000000
 11
763.500000
 21
15.707107
 31
0.000000
  0
ARC
  8
Kontur
 62
     7
  6
CONTINUOUS
 10
771.500000
 20
-2.000000
 30
0.000000
 40
1.000000
 50
180.000000
 51
0.000000
 210
0.000000
 220
0.000000
 230
1.000000
  0
LINE
  8
Kontur
 62
     7
  6
CONTINUOUS
 10
772.500000
 20
8.707107
 30
0.000000
 11
772.500000
 21
-2.000000
 31
0.000000
  0
LINE
  8
Kontur
 62
     7
  6
CONTINUOUS
 10
786.500000
 20
8.707107
 30
0.000000
 11
786.500000
 21
-2.000000
 31
0.000000
  0
LINE
  8
Kontur
 62
     7
  6
CONTINUOUS
 10
772.500000
 20
8.707107
 30
0.000000
 11
779.500000
 21
15.707107
 31
0.000000
  0
LINE
  8
Kontur
 62
     7
  6
CONTINUOUS
 10
786.500000
 20
8.707107
 30
0.000000
 11
779.500000
 21
15.707107
 31
0.000000
  0
ARC
  8
Kontur
 62
     7
  6
CONTINUOUS
 10
787.500000
 20
-2.000000
 30
0.000000
 40
1.000000
 50
180.000000
 51
0.000000
 210
0.000000
 220
0.000000
 230
1.000000
  0
LINE
  8
Kontur
 62
     7
  6
CONTINUOUS
 10
788.500000
 20
8.707107
 30
0.000000
 11
788.500000
 21
-2.000000
 31
0.000000
  0
LINE
  8
Kontur
 62
     7
  6
CONTINUOUS
 10
788.500000
 20
8.707107
 30
0.000000
 11
795.500000
 21
15.707107
 31
0.000000
  0
LINE
  8
Kontur
 62
     7
  6
CONTINUOUS
 10
445.750000
 20
-15.300000
 30
0.000000
 11
795.750000
 21
-15.300000
 31
0.000000
  0
LINE
  8
Kontur
 62
     7
  6
CONTINUOUS
 10
795.750000
 20
-15.300000
 30
0.000000
 11
795.750000
 21
15.457107
 31
0.000000
  0
LINE
  8
Kontur
 62
     3
  6
CONTINUOUS
 10
795.750000
 20
-15.300000
 30
0.000000
 11
795.750000
 21
-20.300000
 31
0.000000
  0
LINE
  8
Kontur
 62
     7
  6
CONTINUOUS
 10
795.750000
 20
15.457107
 30
0.000000
 11
795.500000
 21
15.707107
 31
0.000000
  0
LINE
  8
Kontur
 62
     7
  6
CONTINUOUS
 10
450.500000
 20
8.707107
 30
0.000000
 11
443.500000
 21
15.707107
 31
0.000000
  0
LINE
  8
Kontur
 62
     7
  6
CONTINUOUS
 10
121.750000
 20
-61.292893
 30
0.000000
 11
121.750000
 21
-72.000000
 31
0.000000
  0
LINE
  8
Kontur
 62
     7
  6
CONTINUOUS
 10
135.750000
 20
-61.292893
 30
0.000000
 11
135.750000
 21
-72.000000
 31
0.000000
  0
ARC
  8
Kontur
 62
     7
  6
CONTINUOUS
 10
136.750000
 20
-72.000000
 30
0.000000
 40
1.000000
 50
180.000000
 51
0.000000
 210
0.000000
 220
0.000000
 230
1.000000
  0
LINE
  8
Kontur
 62
     7
  6
CONTINUOUS
 10
137.750000
 20
-61.292893
 30
0.000000
 11
137.750000
 21
-72.000000
 31
0.000000
  0
LINE
  8
Kontur
 62
     7
  6
CONTINUOUS
 10
151.750000
 20
-61.292893
 30
0.000000
 11
151.750000
 21
-72.000000
 31
0.000000
  0
LINE
  8
Kontur
 62
     7
  6
CONTINUOUS
 10
121.750000
 20
-61.292893
 30
0.000000
 11
128.750000
 21
-54.292893
 31
0.000000
  0
LINE
  8
Kontur
 62
     7
  6
CONTINUOUS
 10
135.750000
 20
-61.292893
 30
0.000000
 11
128.750000
 21
-54.292893
 31
0.000000
  0
LINE
  8
Kontur
 62
     7
  6
CONTINUOUS
 10
137.750000
 20
-61.292893
 30
0.000000
 11
144.750000
 21
-54.292893
 31
0.000000
  0
LINE
  8
Kontur
 62
     7
  6
CONTINUOUS
 10
151.750000
 20
-61.292893
 30
0.000000
 11
144.750000
 21
-54.292893
 31
0.000000
  0
ARC
  8
Kontur
 62
     7
  6
CONTINUOUS
 10
152.750000
 20
-72.000000
 30
0.000000
 40
1.000000
 50
180.000000
 51
0.000000
 210
0.000000
 220
0.000000
 230
1.000000
  0
LINE
  8
Kontur
 62
     7
  6
CONTINUOUS
 10
153.750000
 20
-61.292893
 30
0.000000
 11
153.750000
 21
-72.000000
 31
0.000000
  0
LINE
  8
Kontur
 62
     7
  6
CONTINUOUS
 10
167.750000
 20
-61.292893
 30
0.000000
 11
167.750000
 21
-72.000000
 31
0.000000
  0
LINE
  8
Kontur
 62
     7
  6
CONTINUOUS
 10
153.750000
 20
-61.292893
 30
0.000000
 11
160.750000
 21
-54.292893
 31
0.000000
  0
LINE
  8
Kontur
 62
     7
  6
CONTINUOUS
 10
167.750000
 20
-61.292893
 30
0.000000
 11
160.750000
 21
-54.292893
 31
0.000000
  0
ARC
  8
Kontur
 62
     7
  6
CONTINUOUS
 10
168.750000
 20
-72.000000
 30
0.000000
 40
1.000000
 50
180.000000
 51
0.000000
 210
0.000000
 220
0.000000
 230
1.000000
  0
LINE
  8
Kontur
 62
     7
  6
CONTINUOUS
 10
169.750000
 20
-61.292893
 30
0.000000
 11
169.750000
 21
-72.000000
 31
0.000000
  0
LINE
  8
Kontur
 62
     7
  6
CONTINUOUS
 10
183.750000
 20
-61.292893
 30
0.000000
 11
183.750000
 21
-72.000000
 31
0.000000
  0
LINE
  8
Kontur
 62
     7
  6
CONTINUOUS
 10
169.750000
 20
-61.292893
 30
0.000000
 11
176.750000
 21
-54.292893
 31
0.000000
  0
LINE
  8
Kontur
 62
     7
  6
CONTINUOUS
 10
183.750000
 20
-61.292893
 30
0.000000
 11
176.750000
 21
-54.292893
 31
0.000000
  0
ARC
  8
Kontur
 62
     7
  6
CONTINUOUS
 10
184.750000
 20
-72.000000
 30
0.000000
 40
1.000000
 50
180.000000
 51
0.000000
 210
0.000000
 220
0.000000
 230
1.000000
  0
LINE
  8
Kontur
 62
     7
  6
CONTINUOUS
 10
185.750000
 20
-61.292893
 30
0.000000
 11
185.750000
 21
-72.000000
 31
0.000000
  0
LINE
  8
Kontur
 62
     7
  6
CONTINUOUS
 10
199.750000
 20
-61.292893
 30
0.000000
 11
199.750000
 21
-72.000000
 31
0.000000
  0
LINE
  8
Kontur
 62
     7
  6
CONTINUOUS
 10
185.750000
 20
-61.292893
 30
0.000000
 11
192.750000
 21
-54.292893
 31
0.000000
  0
LINE
  8
Kontur
 62
     7
  6
CONTINUOUS
 10
199.750000
 20
-61.292893
 30
0.000000
 11
192.750000
 21
-54.292893
 31
0.000000
  0
ARC
  8
Kontur
 62
     7
  6
CONTINUOUS
 10
200.750000
 20
-72.000000
 30
0.000000
 40
1.000000
 50
180.000000
 51
0.000000
 210
0.000000
 220
0.000000
 230
1.000000
  0
LINE
  8
Kontur
 62
     7
  6
CONTINUOUS
 10
201.750000
 20
-61.292893
 30
0.000000
 11
201.750000
 21
-72.000000
 31
0.000000
  0
LINE
  8
Kontur
 62
     7
  6
CONTINUOUS
 10
215.750000
 20
-61.292893
 30
0.000000
 11
215.750000
 21
-72.000000
 31
0.000000
  0
LINE
  8
Kontur
 62
     7
  6
CONTINUOUS
 10
201.750000
 20
-61.292893
 30
0.000000
 11
208.750000
 21
-54.292893
 31
0.000000
  0
LINE
  8
Kontur
 62
     7
  6
CONTINUOUS
 10
215.750000
 20
-61.292893
 30
0.000000
 11
208.750000
 21
-54.292893
 31
0.000000
  0
ARC
  8
Kontur
 62
     7
  6
CONTINUOUS
 10
216.750000
 20
-72.000000
 30
0.000000
 40
1.000000
 50
180.000000
 51
0.000000
 210
0.000000
 220
0.000000
 230
1.000000
  0
LINE
  8
Kontur
 62
     7
  6
CONTINUOUS
 10
217.750000
 20
-61.292893
 30
0.000000
 11
217.750000
 21
-72.000000
 31
0.000000
  0
LINE
  8
Kontur
 62
     7
  6
CONTINUOUS
 10
231.750000
 20
-61.292893
 30
0.000000
 11
231.750000
 21
-72.000000
 31
0.000000
  0
LINE
  8
Kontur
 62
     7
  6
CONTINUOUS
 10
217.750000
 20
-61.292893
 30
0.000000
 11
224.750000
 21
-54.292893
 31
0.000000
  0
LINE
  8
Kontur
 62
     7
  6
CONTINUOUS
 10
231.750000
 20
-61.292893
 30
0.000000
 11
224.750000
 21
-54.292893
 31
0.000000
  0
ARC
  8
Kontur
 62
     7
  6
CONTINUOUS
 10
232.750000
 20
-72.000000
 30
0.000000
 40
1.000000
 50
180.000000
 51
0.000000
 210
0.000000
 220
0.000000
 230
1.000000
  0
LINE
  8
Kontur
 62
     7
  6
CONTINUOUS
 10
233.750000
 20
-61.292893
 30
0.000000
 11
233.750000
 21
-72.000000
 31
0.000000
  0
LINE
  8
Kontur
 62
     7
  6
CONTINUOUS
 10
247.750000
 20
-61.292893
 30
0.000000
 11
247.750000
 21
-72.000000
 31
0.000000
  0
LINE
  8
Kontur
 62
     7
  6
CONTINUOUS
 10
233.750000
 20
-61.292893
 30
0.000000
 11
240.750000
 21
-54.292893
 31
0.000000
  0
LINE
  8
Kontur
 62
     7
  6
CONTINUOUS
 10
247.750000
 20
-61.292893
 30
0.000000
 11
240.750000
 21
-54.292893
 31
0.000000
  0
ARC
  8
Kontur
 62
     7
  6
CONTINUOUS
 10
248.750000
 20
-72.000000
 30
0.000000
 40
1.000000
 50
180.000000
 51
0.000000
 210
0.000000
 220
0.000000
 230
1.000000
  0
LINE
  8
Kontur
 62
     7
  6
CONTINUOUS
 10
249.750000
 20
-61.292893
 30
0.000000
 11
249.750000
 21
-72.000000
 31
0.000000
  0
LINE
  8
Kontur
 62
     7
  6
CONTINUOUS
 10
263.750000
 20
-61.292893
 30
0.000000
 11
263.750000
 21
-72.000000
 31
0.000000
  0
LINE
  8
Kontur
 62
     7
  6
CONTINUOUS
 10
249.750000
 20
-61.292893
 30
0.000000
 11
256.750000
 21
-54.292893
 31
0.000000
  0
LINE
  8
Kontur
 62
     7
  6
CONTINUOUS
 10
263.750000
 20
-61.292893
 30
0.000000
 11
256.750000
 21
-54.292893
 31
0.000000
  0
ARC
  8
Kontur
 62
     7
  6
CONTINUOUS
 10
264.750000
 20
-72.000000
 30
0.000000
 40
1.000000
 50
180.000000
 51
0.000000
 210
0.000000
 220
0.000000
 230
1.000000
  0
LINE
  8
Kontur
 62
     7
  6
CONTINUOUS
 10
265.750000
 20
-61.292893
 30
0.000000
 11
265.750000
 21
-72.000000
 31
0.000000
  0
LINE
  8
Kontur
 62
     7
  6
CONTINUOUS
 10
279.750000
 20
-61.292893
 30
0.000000
 11
279.750000
 21
-72.000000
 31
0.000000
  0
LINE
  8
Kontur
 62
     7
  6
CONTINUOUS
 10
265.750000
 20
-61.292893
 30
0.000000
 11
272.750000
 21
-54.292893
 31
0.000000
  0
LINE
  8
Kontur
 62
     7
  6
CONTINUOUS
 10
279.750000
 20
-61.292893
 30
0.000000
 11
272.750000
 21
-54.292893
 31
0.000000
  0
ARC
  8
Kontur
 62
     7
  6
CONTINUOUS
 10
280.750000
 20
-72.000000
 30
0.000000
 40
1.000000
 50
180.000000
 51
0.000000
 210
0.000000
 220
0.000000
 230
1.000000
  0
LINE
  8
Kontur
 62
     7
  6
CONTINUOUS
 10
281.750000
 20
-61.292893
 30
0.000000
 11
281.750000
 21
-72.000000
 31
0.000000
  0
LINE
  8
Kontur
 62
     7
  6
CONTINUOUS
 10
295.750000
 20
-61.292893
 30
0.000000
 11
295.750000
 21
-72.000000
 31
0.000000
  0
LINE
  8
Kontur
 62
     7
  6
CONTINUOUS
 10
281.750000
 20
-61.292893
 30
0.000000
 11
288.750000
 21
-54.292893
 31
0.000000
  0
LINE
  8
Kontur
 62
     7
  6
CONTINUOUS
 10
295.750000
 20
-61.292893
 30
0.000000
 11
288.750000
 21
-54.292893
 31
0.000000
  0
ARC
  8
Kontur
 62
     7
  6
CONTINUOUS
 10
296.750000
 20
-72.000000
 30
0.000000
 40
1.000000
 50
180.000000
 51
0.000000
 210
0.000000
 220
0.000000
 230
1.000000
  0
LINE
  8
Kontur
 62
     7
  6
CONTINUOUS
 10
297.750000
 20
-61.292893
 30
0.000000
 11
297.750000
 21
-72.000000
 31
0.000000
  0
LINE
  8
Kontur
 62
     7
  6
CONTINUOUS
 10
311.750000
 20
-61.292893
 30
0.000000
 11
311.750000
 21
-72.000000
 31
0.000000
  0
LINE
  8
Kontur
 62
     7
  6
CONTINUOUS
 10
297.750000
 20
-61.292893
 30
0.000000
 11
304.750000
 21
-54.292893
 31
0.000000
  0
LINE
  8
Kontur
 62
     7
  6
CONTINUOUS
 10
311.750000
 20
-61.292893
 30
0.000000
 11
304.750000
 21
-54.292893
 31
0.000000
  0
ARC
  8
Kontur
 62
     7
  6
CONTINUOUS
 10
312.750000
 20
-72.000000
 30
0.000000
 40
1.000000
 50
180.000000
 51
0.000000
 210
0.000000
 220
0.000000
 230
1.000000
  0
LINE
  8
Kontur
 62
     7
  6
CONTINUOUS
 10
313.750000
 20
-61.292893
 30
0.000000
 11
313.750000
 21
-72.000000
 31
0.000000
  0
LINE
  8
Kontur
 62
     7
  6
CONTINUOUS
 10
327.750000
 20
-61.292893
 30
0.000000
 11
327.750000
 21
-72.000000
 31
0.000000
  0
LINE
  8
Kontur
 62
     7
  6
CONTINUOUS
 10
313.750000
 20
-61.292893
 30
0.000000
 11
320.750000
 21
-54.292893
 31
0.000000
  0
LINE
  8
Kontur
 62
     7
  6
CONTINUOUS
 10
327.750000
 20
-61.292893
 30
0.000000
 11
320.750000
 21
-54.292893
 31
0.000000
  0
ARC
  8
Kontur
 62
     7
  6
CONTINUOUS
 10
328.750000
 20
-72.000000
 30
0.000000
 40
1.000000
 50
180.000000
 51
0.000000
 210
0.000000
 220
0.000000
 230
1.000000
  0
LINE
  8
Kontur
 62
     7
  6
CONTINUOUS
 10
329.750000
 20
-61.292893
 30
0.000000
 11
329.750000
 21
-72.000000
 31
0.000000
  0
LINE
  8
Kontur
 62
     7
  6
CONTINUOUS
 10
343.750000
 20
-61.292893
 30
0.000000
 11
343.750000
 21
-72.000000
 31
0.000000
  0
LINE
  8
Kontur
 62
     7
  6
CONTINUOUS
 10
329.750000
 20
-61.292893
 30
0.000000
 11
336.750000
 21
-54.292893
 31
0.000000
  0
LINE
  8
Kontur
 62
     7
  6
CONTINUOUS
 10
343.750000
 20
-61.292893
 30
0.000000
 11
336.750000
 21
-54.292893
 31
0.000000
  0
ARC
  8
Kontur
 62
     7
  6
CONTINUOUS
 10
344.750000
 20
-72.000000
 30
0.000000
 40
1.000000
 50
180.000000
 51
0.000000
 210
0.000000
 220
0.000000
 230
1.000000
  0
LINE
  8
Kontur
 62
     7
  6
CONTINUOUS
 10
345.750000
 20
-61.292893
 30
0.000000
 11
345.750000
 21
-72.000000
 31
0.000000
  0
LINE
  8
Kontur
 62
     7
  6
CONTINUOUS
 10
359.750000
 20
-61.292893
 30
0.000000
 11
359.750000
 21
-72.000000
 31
0.000000
  0
LINE
  8
Kontur
 62
     7
  6
CONTINUOUS
 10
345.750000
 20
-61.292893
 30
0.000000
 11
352.750000
 21
-54.292893
 31
0.000000
  0
LINE
  8
Kontur
 62
     7
  6
CONTINUOUS
 10
359.750000
 20
-61.292893
 30
0.000000
 11
352.750000
 21
-54.292893
 31
0.000000
  0
ARC
  8
Kontur
 62
     7
  6
CONTINUOUS
 10
360.750000
 20
-72.000000
 30
0.000000
 40
1.000000
 50
180.000000
 51
0.000000
 210
0.000000
 220
0.000000
 230
1.000000
  0
LINE
  8
Kontur
 62
     7
  6
CONTINUOUS
 10
361.750000
 20
-61.292893
 30
0.000000
 11
361.750000
 21
-72.000000
 31
0.000000
  0
LINE
  8
Kontur
 62
     7
  6
CONTINUOUS
 10
375.750000
 20
-61.292893
 30
0.000000
 11
375.750000
 21
-72.000000
 31
0.000000
  0
LINE
  8
Kontur
 62
     7
  6
CONTINUOUS
 10
361.750000
 20
-61.292893
 30
0.000000
 11
368.750000
 21
-54.292893
 31
0.000000
  0
LINE
  8
Kontur
 62
     7
  6
CONTINUOUS
 10
375.750000
 20
-61.292893
 30
0.000000
 11
368.750000
 21
-54.292893
 31
0.000000
  0
ARC
  8
Kontur
 62
     7
  6
CONTINUOUS
 10
376.750000
 20
-72.000000
 30
0.000000
 40
1.000000
 50
180.000000
 51
0.000000
 210
0.000000
 220
0.000000
 230
1.000000
  0
LINE
  8
Kontur
 62
     7
  6
CONTINUOUS
 10
377.750000
 20
-61.292893
 30
0.000000
 11
377.750000
 21
-72.000000
 31
0.000000
  0
LINE
  8
Kontur
 62
     7
  6
CONTINUOUS
 10
391.750000
 20
-61.292893
 30
0.000000
 11
391.750000
 21
-72.000000
 31
0.000000
  0
LINE
  8
Kontur
 62
     7
  6
CONTINUOUS
 10
377.750000
 20
-61.292893
 30
0.000000
 11
384.750000
 21
-54.292893
 31
0.000000
  0
LINE
  8
Kontur
 62
     7
  6
CONTINUOUS
 10
391.750000
 20
-61.292893
 30
0.000000
 11
384.750000
 21
-54.292893
 31
0.000000
  0
ARC
  8
Kontur
 62
     7
  6
CONTINUOUS
 10
392.750000
 20
-72.000000
 30
0.000000
 40
1.000000
 50
180.000000
 51
0.000000
 210
0.000000
 220
0.000000
 230
1.000000
  0
LINE
  8
Kontur
 62
     7
  6
CONTINUOUS
 10
393.750000
 20
-61.292893
 30
0.000000
 11
393.750000
 21
-72.000000
 31
0.000000
  0
LINE
  8
Kontur
 62
     7
  6
CONTINUOUS
 10
407.750000
 20
-61.292893
 30
0.000000
 11
407.750000
 21
-72.000000
 31
0.000000
  0
LINE
  8
Kontur
 62
     7
  6
CONTINUOUS
 10
393.750000
 20
-61.292893
 30
0.000000
 11
400.750000
 21
-54.292893
 31
0.000000
  0
LINE
  8
Kontur
 62
     7
  6
CONTINUOUS
 10
407.750000
 20
-61.292893
 30
0.000000
 11
400.750000
 21
-54.292893
 31
0.000000
  0
ARC
  8
Kontur
 62
     7
  6
CONTINUOUS
 10
408.750000
 20
-72.000000
 30
0.000000
 40
1.000000
 50
180.000000
 51
0.000000
 210
0.000000
 220
0.000000
 230
1.000000
  0
LINE
  8
Kontur
 62
     7
  6
CONTINUOUS
 10
409.750000
 20
-61.292893
 30
0.000000
 11
409.750000
 21
-72.000000
 31
0.000000
  0
LINE
  8
Kontur
 62
     7
  6
CONTINUOUS
 10
423.750000
 20
-61.292893
 30
0.000000
 11
423.750000
 21
-72.000000
 31
0.000000
  0
LINE
  8
Kontur
 62
     7
  6
CONTINUOUS
 10
409.750000
 20
-61.292893
 30
0.000000
 11
416.750000
 21
-54.292893
 31
0.000000
  0
LINE
  8
Kontur
 62
     7
  6
CONTINUOUS
 10
423.750000
 20
-61.292893
 30
0.000000
 11
416.750000
 21
-54.292893
 31
0.000000
  0
ARC
  8
Kontur
 62
     7
  6
CONTINUOUS
 10
424.750000
 20
-72.000000
 30
0.000000
 40
1.000000
 50
180.000000
 51
0.000000
 210
0.000000
 220
0.000000
 230
1.000000
  0
LINE
  8
Kontur
 62
     7
  6
CONTINUOUS
 10
425.750000
 20
-61.292893
 30
0.000000
 11
425.750000
 21
-72.000000
 31
0.000000
  0
LINE
  8
Kontur
 62
     7
  6
CONTINUOUS
 10
439.750000
 20
-61.292893
 30
0.000000
 11
439.750000
 21
-72.000000
 31
0.000000
  0
LINE
  8
Kontur
 62
     7
  6
CONTINUOUS
 10
425.750000
 20
-61.292893
 30
0.000000
 11
432.750000
 21
-54.292893
 31
0.000000
  0
LINE
  8
Kontur
 62
     7
  6
CONTINUOUS
 10
439.750000
 20
-61.292893
 30
0.000000
 11
432.750000
 21
-54.292893
 31
0.000000
  0
ARC
  8
Kontur
 62
     7
  6
CONTINUOUS
 10
440.750000
 20
-72.000000
 30
0.000000
 40
1.000000
 50
180.000000
 51
0.000000
 210
0.000000
 220
0.000000
 230
1.000000
  0
LINE
  8
Kontur
 62
     7
  6
CONTINUOUS
 10
441.750000
 20
-61.292893
 30
0.000000
 11
441.750000
 21
-72.000000
 31
0.000000
  0
LINE
  8
Kontur
 62
     7
  6
CONTINUOUS
 10
455.750000
 20
-61.292893
 30
0.000000
 11
455.750000
 21
-72.000000
 31
0.000000
  0
LINE
  8
Kontur
 62
     7
  6
CONTINUOUS
 10
441.750000
 20
-61.292893
 30
0.000000
 11
448.750000
 21
-54.292893
 31
0.000000
  0
LINE
  8
Kontur
 62
     7
  6
CONTINUOUS
 10
455.750000
 20
-61.292893
 30
0.000000
 11
448.750000
 21
-54.292893
 31
0.000000
  0
ARC
  8
Kontur
 62
     7
  6
CONTINUOUS
 10
456.750000
 20
-72.000000
 30
0.000000
 40
1.000000
 50
180.000000
 51
0.000000
 210
0.000000
 220
0.000000
 230
1.000000
  0
LINE
  8
Kontur
 62
     7
  6
CONTINUOUS
 10
457.750000
 20
-61.292893
 30
0.000000
 11
457.750000
 21
-72.000000
 31
0.000000
  0
LINE
  8
Kontur
 62
     7
  6
CONTINUOUS
 10
457.750000
 20
-61.292893
 30
0.000000
 11
464.750000
 21
-54.292893
 31
0.000000
  0
LINE
  8
Kontur
 62
     7
  6
CONTINUOUS
 10
95.750000
 20
-85.300000
 30
0.000000
 11
467.000000
 21
-85.300000
 31
0.000000
  0
LINE
  8
Kontur
 62
     7
  6
CONTINUOUS
 10
95.750000
 20
-55.292893
 30
0.000000
 11
95.750000
 21
-85.300000
 31
0.000000
  0
LINE
  8
Kontur
 62
     3
  6
CONTINUOUS
 10
95.750000
 20
-85.300000
 30
0.000000
 11
95.750000
 21
-90.300000
 31
0.000000
  0
LINE
  8
Kontur
 62
     7
  6
CONTINUOUS
 10
471.750000
 20
-61.292893
 30
0.000000
 11
471.750000
 21
-72.000000
 31
0.000000
  0
LINE
  8
Kontur
 62
     7
  6
CONTINUOUS
 10
473.750000
 20
-61.292893
 30
0.000000
 11
473.750000
 21
-72.000000
 31
0.000000
  0
LINE
  8
Kontur
 62
     7
  6
CONTINUOUS
 10
487.750000
 20
-61.292893
 30
0.000000
 11
487.750000
 21
-72.000000
 31
0.000000
  0
ARC
  8
Kontur
 62
     7
  6
CONTINUOUS
 10
472.750000
 20
-72.000000
 30
0.000000
 40
1.000000
 50
180.000000
 51
0.000000
 210
0.000000
 220
0.000000
 230
1.000000
  0
ARC
  8
Kontur
 62
     7
  6
CONTINUOUS
 10
488.750000
 20
-72.000000
 30
0.000000
 40
1.000000
 50
180.000000
 51
0.000000
 210
0.000000
 220
0.000000
 230
1.000000
  0
LINE
  8
Kontur
 62
     7
  6
CONTINUOUS
 10
489.750000
 20
-61.292893
 30
0.000000
 11
489.750000
 21
-72.000000
 31
0.000000
  0
LINE
  8
Kontur
 62
     7
  6
CONTINUOUS
 10
503.750000
 20
-61.292893
 30
0.000000
 11
503.750000
 21
-72.000000
 31
0.000000
  0
LINE
  8
Kontur
 62
     7
  6
CONTINUOUS
 10
473.750000
 20
-61.292893
 30
0.000000
 11
480.750000
 21
-54.292893
 31
0.000000
  0
LINE
  8
Kontur
 62
     7
  6
CONTINUOUS
 10
487.750000
 20
-61.292893
 30
0.000000
 11
480.750000
 21
-54.292893
 31
0.000000
  0
LINE
  8
Kontur
 62
     7
  6
CONTINUOUS
 10
489.750000
 20
-61.292893
 30
0.000000
 11
496.750000
 21
-54.292893
 31
0.000000
  0
LINE
  8
Kontur
 62
     7
  6
CONTINUOUS
 10
503.750000
 20
-61.292893
 30
0.000000
 11
496.750000
 21
-54.292893
 31
0.000000
  0
ARC
  8
Kontur
 62
     7
  6
CONTINUOUS
 10
504.750000
 20
-72.000000
 30
0.000000
 40
1.000000
 50
180.000000
 51
0.000000
 210
0.000000
 220
0.000000
 230
1.000000
  0
LINE
  8
Kontur
 62
     7
  6
CONTINUOUS
 10
505.750000
 20
-61.292893
 30
0.000000
 11
505.750000
 21
-72.000000
 31
0.000000
  0
LINE
  8
Kontur
 62
     7
  6
CONTINUOUS
 10
519.750000
 20
-61.292893
 30
0.000000
 11
519.750000
 21
-72.000000
 31
0.000000
  0
LINE
  8
Kontur
 62
     7
  6
CONTINUOUS
 10
505.750000
 20
-61.292893
 30
0.000000
 11
512.750000
 21
-54.292893
 31
0.000000
  0
LINE
  8
Kontur
 62
     7
  6
CONTINUOUS
 10
519.750000
 20
-61.292893
 30
0.000000
 11
512.750000
 21
-54.292893
 31
0.000000
  0
ARC
  8
Kontur
 62
     7
  6
CONTINUOUS
 10
520.750000
 20
-72.000000
 30
0.000000
 40
1.000000
 50
180.000000
 51
0.000000
 210
0.000000
 220
0.000000
 230
1.000000
  0
LINE
  8
Kontur
 62
     7
  6
CONTINUOUS
 10
521.750000
 20
-61.292893
 30
0.000000
 11
521.750000
 21
-72.000000
 31
0.000000
  0
LINE
  8
Kontur
 62
     7
  6
CONTINUOUS
 10
535.750000
 20
-61.292893
 30
0.000000
 11
535.750000
 21
-72.000000
 31
0.000000
  0
LINE
  8
Kontur
 62
     7
  6
CONTINUOUS
 10
521.750000
 20
-61.292893
 30
0.000000
 11
528.750000
 21
-54.292893
 31
0.000000
  0
LINE
  8
Kontur
 62
     7
  6
CONTINUOUS
 10
535.750000
 20
-61.292893
 30
0.000000
 11
528.750000
 21
-54.292893
 31
0.000000
  0
ARC
  8
Kontur
 62
     7
  6
CONTINUOUS
 10
536.750000
 20
-72.000000
 30
0.000000
 40
1.000000
 50
180.000000
 51
0.000000
 210
0.000000
 220
0.000000
 230
1.000000
  0
LINE
  8
Kontur
 62
     7
  6
CONTINUOUS
 10
537.750000
 20
-61.292893
 30
0.000000
 11
537.750000
 21
-72.000000
 31
0.000000
  0
LINE
  8
Kontur
 62
     7
  6
CONTINUOUS
 10
551.750000
 20
-61.292893
 30
0.000000
 11
551.750000
 21
-72.000000
 31
0.000000
  0
LINE
  8
Kontur
 62
     7
  6
CONTINUOUS
 10
537.750000
 20
-61.292893
 30
0.000000
 11
544.750000
 21
-54.292893
 31
0.000000
  0
LINE
  8
Kontur
 62
     7
  6
CONTINUOUS
 10
551.750000
 20
-61.292893
 30
0.000000
 11
544.750000
 21
-54.292893
 31
0.000000
  0
ARC
  8
Kontur
 62
     7
  6
CONTINUOUS
 10
552.750000
 20
-72.000000
 30
0.000000
 40
1.000000
 50
180.000000
 51
0.000000
 210
0.000000
 220
0.000000
 230
1.000000
  0
LINE
  8
Kontur
 62
     7
  6
CONTINUOUS
 10
553.750000
 20
-61.292893
 30
0.000000
 11
553.750000
 21
-72.000000
 31
0.000000
  0
LINE
  8
Kontur
 62
     7
  6
CONTINUOUS
 10
567.750000
 20
-61.292893
 30
0.000000
 11
567.750000
 21
-72.000000
 31
0.000000
  0
LINE
  8
Kontur
 62
     7
  6
CONTINUOUS
 10
553.750000
 20
-61.292893
 30
0.000000
 11
560.750000
 21
-54.292893
 31
0.000000
  0
LINE
  8
Kontur
 62
     7
  6
CONTINUOUS
 10
567.750000
 20
-61.292893
 30
0.000000
 11
560.750000
 21
-54.292893
 31
0.000000
  0
ARC
  8
Kontur
 62
     7
  6
CONTINUOUS
 10
568.750000
 20
-72.000000
 30
0.000000
 40
1.000000
 50
180.000000
 51
0.000000
 210
0.000000
 220
0.000000
 230
1.000000
  0
LINE
  8
Kontur
 62
     7
  6
CONTINUOUS
 10
569.750000
 20
-61.292893
 30
0.000000
 11
569.750000
 21
-72.000000
 31
0.000000
  0
LINE
  8
Kontur
 62
     7
  6
CONTINUOUS
 10
583.750000
 20
-61.292893
 30
0.000000
 11
583.750000
 21
-72.000000
 31
0.000000
  0
LINE
  8
Kontur
 62
     7
  6
CONTINUOUS
 10
569.750000
 20
-61.292893
 30
0.000000
 11
576.750000
 21
-54.292893
 31
0.000000
  0
LINE
  8
Kontur
 62
     7
  6
CONTINUOUS
 10
583.750000
 20
-61.292893
 30
0.000000
 11
576.750000
 21
-54.292893
 31
0.000000
  0
ARC
  8
Kontur
 62
     7
  6
CONTINUOUS
 10
584.750000
 20
-72.000000
 30
0.000000
 40
1.000000
 50
180.000000
 51
0.000000
 210
0.000000
 220
0.000000
 230
1.000000
  0
LINE
  8
Kontur
 62
     7
  6
CONTINUOUS
 10
585.750000
 20
-61.292893
 30
0.000000
 11
585.750000
 21
-72.000000
 31
0.000000
  0
LINE
  8
Kontur
 62
     7
  6
CONTINUOUS
 10
599.750000
 20
-61.292893
 30
0.000000
 11
599.750000
 21
-72.000000
 31
0.000000
  0
LINE
  8
Kontur
 62
     7
  6
CONTINUOUS
 10
585.750000
 20
-61.292893
 30
0.000000
 11
592.750000
 21
-54.292893
 31
0.000000
  0
LINE
  8
Kontur
 62
     7
  6
CONTINUOUS
 10
599.750000
 20
-61.292893
 30
0.000000
 11
592.750000
 21
-54.292893
 31
0.000000
  0
ARC
  8
Kontur
 62
     7
  6
CONTINUOUS
 10
600.750000
 20
-72.000000
 30
0.000000
 40
1.000000
 50
180.000000
 51
0.000000
 210
0.000000
 220
0.000000
 230
1.000000
  0
LINE
  8
Kontur
 62
     7
  6
CONTINUOUS
 10
601.750000
 20
-61.292893
 30
0.000000
 11
601.750000
 21
-72.000000
 31
0.000000
  0
LINE
  8
Kontur
 62
     7
  6
CONTINUOUS
 10
615.750000
 20
-61.292893
 30
0.000000
 11
615.750000
 21
-72.000000
 31
0.000000
  0
LINE
  8
Kontur
 62
     7
  6
CONTINUOUS
 10
601.750000
 20
-61.292893
 30
0.000000
 11
608.750000
 21
-54.292893
 31
0.000000
  0
LINE
  8
Kontur
 62
     7
  6
CONTINUOUS
 10
615.750000
 20
-61.292893
 30
0.000000
 11
608.750000
 21
-54.292893
 31
0.000000
  0
ARC
  8
Kontur
 62
     7
  6
CONTINUOUS
 10
616.750000
 20
-72.000000
 30
0.000000
 40
1.000000
 50
180.000000
 51
0.000000
 210
0.000000
 220
0.000000
 230
1.000000
  0
LINE
  8
Kontur
 62
     7
  6
CONTINUOUS
 10
617.750000
 20
-61.292893
 30
0.000000
 11
617.750000
 21
-72.000000
 31
0.000000
  0
LINE
  8
Kontur
 62
     7
  6
CONTINUOUS
 10
631.750000
 20
-61.292893
 30
0.000000
 11
631.750000
 21
-72.000000
 31
0.000000
  0
LINE
  8
Kontur
 62
     7
  6
CONTINUOUS
 10
617.750000
 20
-61.292893
 30
0.000000
 11
624.750000
 21
-54.292893
 31
0.000000
  0
LINE
  8
Kontur
 62
     7
  6
CONTINUOUS
 10
631.750000
 20
-61.292893
 30
0.000000
 11
624.750000
 21
-54.292893
 31
0.000000
  0
ARC
  8
Kontur
 62
     7
  6
CONTINUOUS
 10
632.750000
 20
-72.000000
 30
0.000000
 40
1.000000
 50
180.000000
 51
0.000000
 210
0.000000
 220
0.000000
 230
1.000000
  0
LINE
  8
Kontur
 62
     7
  6
CONTINUOUS
 10
633.750000
 20
-61.292893
 30
0.000000
 11
633.750000
 21
-72.000000
 31
0.000000
  0
LINE
  8
Kontur
 62
     7
  6
CONTINUOUS
 10
647.750000
 20
-61.292893
 30
0.000000
 11
647.750000
 21
-72.000000
 31
0.000000
  0
LINE
  8
Kontur
 62
     7
  6
CONTINUOUS
 10
633.750000
 20
-61.292893
 30
0.000000
 11
640.750000
 21
-54.292893
 31
0.000000
  0
LINE
  8
Kontur
 62
     7
  6
CONTINUOUS
 10
647.750000
 20
-61.292893
 30
0.000000
 11
640.750000
 21
-54.292893
 31
0.000000
  0
ARC
  8
Kontur
 62
     7
  6
CONTINUOUS
 10
648.750000
 20
-72.000000
 30
0.000000
 40
1.000000
 50
180.000000
 51
0.000000
 210
0.000000
 220
0.000000
 230
1.000000
  0
LINE
  8
Kontur
 62
     7
  6
CONTINUOUS
 10
649.750000
 20
-61.292893
 30
0.000000
 11
649.750000
 21
-72.000000
 31
0.000000
  0
LINE
  8
Kontur
 62
     7
  6
CONTINUOUS
 10
663.750000
 20
-61.292893
 30
0.000000
 11
663.750000
 21
-72.000000
 31
0.000000
  0
LINE
  8
Kontur
 62
     7
  6
CONTINUOUS
 10
649.750000
 20
-61.292893
 30
0.000000
 11
656.750000
 21
-54.292893
 31
0.000000
  0
LINE
  8
Kontur
 62
     7
  6
CONTINUOUS
 10
663.750000
 20
-61.292893
 30
0.000000
 11
656.750000
 21
-54.292893
 31
0.000000
  0
ARC
  8
Kontur
 62
     7
  6
CONTINUOUS
 10
664.750000
 20
-72.000000
 30
0.000000
 40
1.000000
 50
180.000000
 51
0.000000
 210
0.000000
 220
0.000000
 230
1.000000
  0
LINE
  8
Kontur
 62
     7
  6
CONTINUOUS
 10
665.750000
 20
-61.292893
 30
0.000000
 11
665.750000
 21
-72.000000
 31
0.000000
  0
LINE
  8
Kontur
 62
     7
  6
CONTINUOUS
 10
679.750000
 20
-61.292893
 30
0.000000
 11
679.750000
 21
-72.000000
 31
0.000000
  0
LINE
  8
Kontur
 62
     7
  6
CONTINUOUS
 10
665.750000
 20
-61.292893
 30
0.000000
 11
672.750000
 21
-54.292893
 31
0.000000
  0
LINE
  8
Kontur
 62
     7
  6
CONTINUOUS
 10
679.750000
 20
-61.292893
 30
0.000000
 11
672.750000
 21
-54.292893
 31
0.000000
  0
ARC
  8
Kontur
 62
     7
  6
CONTINUOUS
 10
680.750000
 20
-72.000000
 30
0.000000
 40
1.000000
 50
180.000000
 51
0.000000
 210
0.000000
 220
0.000000
 230
1.000000
  0
LINE
  8
Kontur
 62
     7
  6
CONTINUOUS
 10
681.750000
 20
-61.292893
 30
0.000000
 11
681.750000
 21
-72.000000
 31
0.000000
  0
LINE
  8
Kontur
 62
     7
  6
CONTINUOUS
 10
695.750000
 20
-61.292893
 30
0.000000
 11
695.750000
 21
-72.000000
 31
0.000000
  0
LINE
  8
Kontur
 62
     7
  6
CONTINUOUS
 10
681.750000
 20
-61.292893
 30
0.000000
 11
688.750000
 21
-54.292893
 31
0.000000
  0
LINE
  8
Kontur
 62
     7
  6
CONTINUOUS
 10
695.750000
 20
-61.292893
 30
0.000000
 11
688.750000
 21
-54.292893
 31
0.000000
  0
ARC
  8
Kontur
 62
     7
  6
CONTINUOUS
 10
696.750000
 20
-72.000000
 30
0.000000
 40
1.000000
 50
180.000000
 51
0.000000
 210
0.000000
 220
0.000000
 230
1.000000
  0
LINE
  8
Kontur
 62
     7
  6
CONTINUOUS
 10
697.750000
 20
-61.292893
 30
0.000000
 11
697.750000
 21
-72.000000
 31
0.000000
  0
LINE
  8
Kontur
 62
     7
  6
CONTINUOUS
 10
711.750000
 20
-61.292893
 30
0.000000
 11
711.750000
 21
-72.000000
 31
0.000000
  0
LINE
  8
Kontur
 62
     7
  6
CONTINUOUS
 10
697.750000
 20
-61.292893
 30
0.000000
 11
704.750000
 21
-54.292893
 31
0.000000
  0
LINE
  8
Kontur
 62
     7
  6
CONTINUOUS
 10
711.750000
 20
-61.292893
 30
0.000000
 11
704.750000
 21
-54.292893
 31
0.000000
  0
ARC
  8
Kontur
 62
     7
  6
CONTINUOUS
 10
712.750000
 20
-72.000000
 30
0.000000
 40
1.000000
 50
180.000000
 51
0.000000
 210
0.000000
 220
0.000000
 230
1.000000
  0
LINE
  8
Kontur
 62
     7
  6
CONTINUOUS
 10
713.750000
 20
-61.292893
 30
0.000000
 11
713.750000
 21
-72.000000
 31
0.000000
  0
LINE
  8
Kontur
 62
     7
  6
CONTINUOUS
 10
727.750000
 20
-61.292893
 30
0.000000
 11
727.750000
 21
-72.000000
 31
0.000000
  0
LINE
  8
Kontur
 62
     7
  6
CONTINUOUS
 10
713.750000
 20
-61.292893
 30
0.000000
 11
720.750000
 21
-54.292893
 31
0.000000
  0
LINE
  8
Kontur
 62
     7
  6
CONTINUOUS
 10
727.750000
 20
-61.292893
 30
0.000000
 11
720.750000
 21
-54.292893
 31
0.000000
  0
ARC
  8
Kontur
 62
     7
  6
CONTINUOUS
 10
728.750000
 20
-72.000000
 30
0.000000
 40
1.000000
 50
180.000000
 51
0.000000
 210
0.000000
 220
0.000000
 230
1.000000
  0
LINE
  8
Kontur
 62
     7
  6
CONTINUOUS
 10
729.750000
 20
-61.292893
 30
0.000000
 11
729.750000
 21
-72.000000
 31
0.000000
  0
LINE
  8
Kontur
 62
     7
  6
CONTINUOUS
 10
743.750000
 20
-61.292893
 30
0.000000
 11
743.750000
 21
-72.000000
 31
0.000000
  0
LINE
  8
Kontur
 62
     7
  6
CONTINUOUS
 10
729.750000
 20
-61.292893
 30
0.000000
 11
736.750000
 21
-54.292893
 31
0.000000
  0
LINE
  8
Kontur
 62
     7
  6
CONTINUOUS
 10
743.750000
 20
-61.292893
 30
0.000000
 11
736.750000
 21
-54.292893
 31
0.000000
  0
ARC
  8
Kontur
 62
     7
  6
CONTINUOUS
 10
744.750000
 20
-72.000000
 30
0.000000
 40
1.000000
 50
180.000000
 51
0.000000
 210
0.000000
 220
0.000000
 230
1.000000
  0
LINE
  8
Kontur
 62
     7
  6
CONTINUOUS
 10
745.750000
 20
-61.292893
 30
0.000000
 11
745.750000
 21
-72.000000
 31
0.000000
  0
LINE
  8
Kontur
 62
     7
  6
CONTINUOUS
 10
759.750000
 20
-61.292893
 30
0.000000
 11
759.750000
 21
-72.000000
 31
0.000000
  0
LINE
  8
Kontur
 62
     7
  6
CONTINUOUS
 10
745.750000
 20
-61.292893
 30
0.000000
 11
752.750000
 21
-54.292893
 31
0.000000
  0
LINE
  8
Kontur
 62
     7
  6
CONTINUOUS
 10
759.750000
 20
-61.292893
 30
0.000000
 11
752.750000
 21
-54.292893
 31
0.000000
  0
ARC
  8
Kontur
 62
     7
  6
CONTINUOUS
 10
760.750000
 20
-72.000000
 30
0.000000
 40
1.000000
 50
180.000000
 51
0.000000
 210
0.000000
 220
0.000000
 230
1.000000
  0
LINE
  8
Kontur
 62
     7
  6
CONTINUOUS
 10
761.750000
 20
-61.292893
 30
0.000000
 11
761.750000
 21
-72.000000
 31
0.000000
  0
LINE
  8
Kontur
 62
     7
  6
CONTINUOUS
 10
775.750000
 20
-61.292893
 30
0.000000
 11
775.750000
 21
-72.000000
 31
0.000000
  0
LINE
  8
Kontur
 62
     7
  6
CONTINUOUS
 10
761.750000
 20
-61.292893
 30
0.000000
 11
768.750000
 21
-54.292893
 31
0.000000
  0
LINE
  8
Kontur
 62
     7
  6
CONTINUOUS
 10
775.750000
 20
-61.292893
 30
0.000000
 11
768.750000
 21
-54.292893
 31
0.000000
  0
ARC
  8
Kontur
 62
     7
  6
CONTINUOUS
 10
776.750000
 20
-72.000000
 30
0.000000
 40
1.000000
 50
180.000000
 51
0.000000
 210
0.000000
 220
0.000000
 230
1.000000
  0
LINE
  8
Kontur
 62
     7
  6
CONTINUOUS
 10
777.750000
 20
-61.292893
 30
0.000000
 11
777.750000
 21
-72.000000
 31
0.000000
  0
LINE
  8
Kontur
 62
     7
  6
CONTINUOUS
 10
791.750000
 20
-61.292893
 30
0.000000
 11
791.750000
 21
-72.000000
 31
0.000000
  0
LINE
  8
Kontur
 62
     7
  6
CONTINUOUS
 10
777.750000
 20
-61.292893
 30
0.000000
 11
784.750000
 21
-54.292893
 31
0.000000
  0
LINE
  8
Kontur
 62
     7
  6
CONTINUOUS
 10
791.750000
 20
-61.292893
 30
0.000000
 11
784.750000
 21
-54.292893
 31
0.000000
  0
ARC
  8
Kontur
 62
     7
  6
CONTINUOUS
 10
792.750000
 20
-72.000000
 30
0.000000
 40
1.000000
 50
180.000000
 51
0.000000
 210
0.000000
 220
0.000000
 230
1.000000
  0
LINE
  8
Kontur
 62
     7
  6
CONTINUOUS
 10
793.750000
 20
-61.292893
 30
0.000000
 11
793.750000
 21
-72.000000
 31
0.000000
  0
LINE
  8
Kontur
 62
     7
  6
CONTINUOUS
 10
807.750000
 20
-61.292893
 30
0.000000
 11
807.750000
 21
-72.000000
 31
0.000000
  0
LINE
  8
Kontur
 62
     7
  6
CONTINUOUS
 10
793.750000
 20
-61.292893
 30
0.000000
 11
800.750000
 21
-54.292893
 31
0.000000
  0
LINE
  8
Kontur
 62
     7
  6
CONTINUOUS
 10
807.750000
 20
-61.292893
 30
0.000000
 11
800.750000
 21
-54.292893
 31
0.000000
  0
ARC
  8
Kontur
 62
     7
  6
CONTINUOUS
 10
808.750000
 20
-72.000000
 30
0.000000
 40
1.000000
 50
180.000000
 51
0.000000
 210
0.000000
 220
0.000000
 230
1.000000
  0
LINE
  8
Kontur
 62
     7
  6
CONTINUOUS
 10
467.000000
 20
-85.300000
 30
0.000000
 11
1095.750000
 21
-85.300000
 31
0.000000
  0
LINE
  8
Kontur
 62
     7
  6
CONTINUOUS
 10
471.750000
 20
-61.292893
 30
0.000000
 11
464.750000
 21
-54.292893
 31
0.000000
  0
LINE
  8
Kontur
 62
     7
  6
CONTINUOUS
 10
809.750000
 20
-61.292893
 30
0.000000
 11
809.750000
 21
-72.000000
 31
0.000000
  0
LINE
  8
Kontur
 62
     7
  6
CONTINUOUS
 10
823.750000
 20
-61.292893
 30
0.000000
 11
823.750000
 21
-72.000000
 31
0.000000
  0
ARC
  8
Kontur
 62
     7
  6
CONTINUOUS
 10
824.750000
 20
-72.000000
 30
0.000000
 40
1.000000
 50
180.000000
 51
0.000000
 210
0.000000
 220
0.000000
 230
1.000000
  0
LINE
  8
Kontur
 62
     7
  6
CONTINUOUS
 10
825.750000
 20
-61.292893
 30
0.000000
 11
825.750000
 21
-72.000000
 31
0.000000
  0
LINE
  8
Kontur
 62
     7
  6
CONTINUOUS
 10
839.750000
 20
-61.292893
 30
0.000000
 11
839.750000
 21
-72.000000
 31
0.000000
  0
LINE
  8
Kontur
 62
     7
  6
CONTINUOUS
 10
809.750000
 20
-61.292893
 30
0.000000
 11
816.750000
 21
-54.292893
 31
0.000000
  0
LINE
  8
Kontur
 62
     7
  6
CONTINUOUS
 10
823.750000
 20
-61.292893
 30
0.000000
 11
816.750000
 21
-54.292893
 31
0.000000
  0
LINE
  8
Kontur
 62
     7
  6
CONTINUOUS
 10
825.750000
 20
-61.292893
 30
0.000000
 11
832.750000
 21
-54.292893
 31
0.000000
  0
LINE
  8
Kontur
 62
     7
  6
CONTINUOUS
 10
839.750000
 20
-61.292893
 30
0.000000
 11
832.750000
 21
-54.292893
 31
0.000000
  0
ARC
  8
Kontur
 62
     7
  6
CONTINUOUS
 10
840.750000
 20
-72.000000
 30
0.000000
 40
1.000000
 50
180.000000
 51
0.000000
 210
0.000000
 220
0.000000
 230
1.000000
  0
LINE
  8
Kontur
 62
     7
  6
CONTINUOUS
 10
841.750000
 20
-61.292893
 30
0.000000
 11
841.750000
 21
-72.000000
 31
0.000000
  0
LINE
  8
Kontur
 62
     7
  6
CONTINUOUS
 10
855.750000
 20
-61.292893
 30
0.000000
 11
855.750000
 21
-72.000000
 31
0.000000
  0
LINE
  8
Kontur
 62
     7
  6
CONTINUOUS
 10
841.750000
 20
-61.292893
 30
0.000000
 11
848.750000
 21
-54.292893
 31
0.000000
  0
LINE
  8
Kontur
 62
     7
  6
CONTINUOUS
 10
855.750000
 20
-61.292893
 30
0.000000
 11
848.750000
 21
-54.292893
 31
0.000000
  0
ARC
  8
Kontur
 62
     7
  6
CONTINUOUS
 10
856.750000
 20
-72.000000
 30
0.000000
 40
1.000000
 50
180.000000
 51
0.000000
 210
0.000000
 220
0.000000
 230
1.000000
  0
LINE
  8
Kontur
 62
     7
  6
CONTINUOUS
 10
857.750000
 20
-61.292893
 30
0.000000
 11
857.750000
 21
-72.000000
 31
0.000000
  0
LINE
  8
Kontur
 62
     7
  6
CONTINUOUS
 10
871.750000
 20
-61.292893
 30
0.000000
 11
871.750000
 21
-72.000000
 31
0.000000
  0
LINE
  8
Kontur
 62
     7
  6
CONTINUOUS
 10
857.750000
 20
-61.292893
 30
0.000000
 11
864.750000
 21
-54.292893
 31
0.000000
  0
LINE
  8
Kontur
 62
     7
  6
CONTINUOUS
 10
871.750000
 20
-61.292893
 30
0.000000
 11
864.750000
 21
-54.292893
 31
0.000000
  0
ARC
  8
Kontur
 62
     7
  6
CONTINUOUS
 10
872.750000
 20
-72.000000
 30
0.000000
 40
1.000000
 50
180.000000
 51
0.000000
 210
0.000000
 220
0.000000
 230
1.000000
  0
LINE
  8
Kontur
 62
     7
  6
CONTINUOUS
 10
873.750000
 20
-61.292893
 30
0.000000
 11
873.750000
 21
-72.000000
 31
0.000000
  0
LINE
  8
Kontur
 62
     7
  6
CONTINUOUS
 10
887.750000
 20
-61.292893
 30
0.000000
 11
887.750000
 21
-72.000000
 31
0.000000
  0
LINE
  8
Kontur
 62
     7
  6
CONTINUOUS
 10
873.750000
 20
-61.292893
 30
0.000000
 11
880.750000
 21
-54.292893
 31
0.000000
  0
LINE
  8
Kontur
 62
     7
  6
CONTINUOUS
 10
887.750000
 20
-61.292893
 30
0.000000
 11
880.750000
 21
-54.292893
 31
0.000000
  0
ARC
  8
Kontur
 62
     7
  6
CONTINUOUS
 10
888.750000
 20
-72.000000
 30
0.000000
 40
1.000000
 50
180.000000
 51
0.000000
 210
0.000000
 220
0.000000
 230
1.000000
  0
LINE
  8
Kontur
 62
     7
  6
CONTINUOUS
 10
889.750000
 20
-61.292893
 30
0.000000
 11
889.750000
 21
-72.000000
 31
0.000000
  0
LINE
  8
Kontur
 62
     7
  6
CONTINUOUS
 10
903.750000
 20
-61.292893
 30
0.000000
 11
903.750000
 21
-72.000000
 31
0.000000
  0
LINE
  8
Kontur
 62
     7
  6
CONTINUOUS
 10
889.750000
 20
-61.292893
 30
0.000000
 11
896.750000
 21
-54.292893
 31
0.000000
  0
LINE
  8
Kontur
 62
     7
  6
CONTINUOUS
 10
903.750000
 20
-61.292893
 30
0.000000
 11
896.750000
 21
-54.292893
 31
0.000000
  0
ARC
  8
Kontur
 62
     7
  6
CONTINUOUS
 10
904.750000
 20
-72.000000
 30
0.000000
 40
1.000000
 50
180.000000
 51
0.000000
 210
0.000000
 220
0.000000
 230
1.000000
  0
LINE
  8
Kontur
 62
     7
  6
CONTINUOUS
 10
905.750000
 20
-61.292893
 30
0.000000
 11
905.750000
 21
-72.000000
 31
0.000000
  0
LINE
  8
Kontur
 62
     7
  6
CONTINUOUS
 10
919.750000
 20
-61.292893
 30
0.000000
 11
919.750000
 21
-72.000000
 31
0.000000
  0
LINE
  8
Kontur
 62
     7
  6
CONTINUOUS
 10
905.750000
 20
-61.292893
 30
0.000000
 11
912.750000
 21
-54.292893
 31
0.000000
  0
LINE
  8
Kontur
 62
     7
  6
CONTINUOUS
 10
919.750000
 20
-61.292893
 30
0.000000
 11
912.750000
 21
-54.292893
 31
0.000000
  0
ARC
  8
Kontur
 62
     7
  6
CONTINUOUS
 10
920.750000
 20
-72.000000
 30
0.000000
 40
1.000000
 50
180.000000
 51
0.000000
 210
0.000000
 220
0.000000
 230
1.000000
  0
LINE
  8
Kontur
 62
     7
  6
CONTINUOUS
 10
921.750000
 20
-61.292893
 30
0.000000
 11
921.750000
 21
-72.000000
 31
0.000000
  0
LINE
  8
Kontur
 62
     7
  6
CONTINUOUS
 10
935.750000
 20
-61.292893
 30
0.000000
 11
935.750000
 21
-72.000000
 31
0.000000
  0
LINE
  8
Kontur
 62
     7
  6
CONTINUOUS
 10
921.750000
 20
-61.292893
 30
0.000000
 11
928.750000
 21
-54.292893
 31
0.000000
  0
LINE
  8
Kontur
 62
     7
  6
CONTINUOUS
 10
935.750000
 20
-61.292893
 30
0.000000
 11
928.750000
 21
-54.292893
 31
0.000000
  0
ARC
  8
Kontur
 62
     7
  6
CONTINUOUS
 10
936.750000
 20
-72.000000
 30
0.000000
 40
1.000000
 50
180.000000
 51
0.000000
 210
0.000000
 220
0.000000
 230
1.000000
  0
LINE
  8
Kontur
 62
     7
  6
CONTINUOUS
 10
937.750000
 20
-61.292893
 30
0.000000
 11
937.750000
 21
-72.000000
 31
0.000000
  0
LINE
  8
Kontur
 62
     7
  6
CONTINUOUS
 10
951.750000
 20
-61.292893
 30
0.000000
 11
951.750000
 21
-72.000000
 31
0.000000
  0
LINE
  8
Kontur
 62
     7
  6
CONTINUOUS
 10
937.750000
 20
-61.292893
 30
0.000000
 11
944.750000
 21
-54.292893
 31
0.000000
  0
LINE
  8
Kontur
 62
     7
  6
CONTINUOUS
 10
951.750000
 20
-61.292893
 30
0.000000
 11
944.750000
 21
-54.292893
 31
0.000000
  0
ARC
  8
Kontur
 62
     7
  6
CONTINUOUS
 10
952.750000
 20
-72.000000
 30
0.000000
 40
1.000000
 50
180.000000
 51
0.000000
 210
0.000000
 220
0.000000
 230
1.000000
  0
LINE
  8
Kontur
 62
     7
  6
CONTINUOUS
 10
953.750000
 20
-61.292893
 30
0.000000
 11
953.750000
 21
-72.000000
 31
0.000000
  0
LINE
  8
Kontur
 62
     7
  6
CONTINUOUS
 10
967.750000
 20
-61.292893
 30
0.000000
 11
967.750000
 21
-72.000000
 31
0.000000
  0
LINE
  8
Kontur
 62
     7
  6
CONTINUOUS
 10
953.750000
 20
-61.292893
 30
0.000000
 11
960.750000
 21
-54.292893
 31
0.000000
  0
LINE
  8
Kontur
 62
     7
  6
CONTINUOUS
 10
967.750000
 20
-61.292893
 30
0.000000
 11
960.750000
 21
-54.292893
 31
0.000000
  0
ARC
  8
Kontur
 62
     7
  6
CONTINUOUS
 10
968.750000
 20
-72.000000
 30
0.000000
 40
1.000000
 50
180.000000
 51
0.000000
 210
0.000000
 220
0.000000
 230
1.000000
  0
LINE
  8
Kontur
 62
     7
  6
CONTINUOUS
 10
969.750000
 20
-61.292893
 30
0.000000
 11
969.750000
 21
-72.000000
 31
0.000000
  0
LINE
  8
Kontur
 62
     7
  6
CONTINUOUS
 10
983.750000
 20
-61.292893
 30
0.000000
 11
983.750000
 21
-72.000000
 31
0.000000
  0
LINE
  8
Kontur
 62
     7
  6
CONTINUOUS
 10
969.750000
 20
-61.292893
 30
0.000000
 11
976.750000
 21
-54.292893
 31
0.000000
  0
LINE
  8
Kontur
 62
     7
  6
CONTINUOUS
 10
983.750000
 20
-61.292893
 30
0.000000
 11
976.750000
 21
-54.292893
 31
0.000000
  0
ARC
  8
Kontur
 62
     7
  6
CONTINUOUS
 10
984.750000
 20
-72.000000
 30
0.000000
 40
1.000000
 50
180.000000
 51
0.000000
 210
0.000000
 220
0.000000
 230
1.000000
  0
LINE
  8
Kontur
 62
     7
  6
CONTINUOUS
 10
985.750000
 20
-61.292893
 30
0.000000
 11
985.750000
 21
-72.000000
 31
0.000000
  0
LINE
  8
Kontur
 62
     7
  6
CONTINUOUS
 10
999.750000
 20
-61.292893
 30
0.000000
 11
999.750000
 21
-72.000000
 31
0.000000
  0
LINE
  8
Kontur
 62
     7
  6
CONTINUOUS
 10
985.750000
 20
-61.292893
 30
0.000000
 11
992.750000
 21
-54.292893
 31
0.000000
  0
LINE
  8
Kontur
 62
     7
  6
CONTINUOUS
 10
999.750000
 20
-61.292893
 30
0.000000
 11
992.750000
 21
-54.292893
 31
0.000000
  0
ARC
  8
Kontur
 62
     7
  6
CONTINUOUS
 10
1000.750000
 20
-72.000000
 30
0.000000
 40
1.000000
 50
180.000000
 51
0.000000
 210
0.000000
 220
0.000000
 230
1.000000
  0
LINE
  8
Kontur
 62
     7
  6
CONTINUOUS
 10
1001.750000
 20
-61.292893
 30
0.000000
 11
1001.750000
 21
-72.000000
 31
0.000000
  0
LINE
  8
Kontur
 62
     7
  6
CONTINUOUS
 10
1015.750000
 20
-61.292893
 30
0.000000
 11
1015.750000
 21
-72.000000
 31
0.000000
  0
LINE
  8
Kontur
 62
     7
  6
CONTINUOUS
 10
1001.750000
 20
-61.292893
 30
0.000000
 11
1008.750000
 21
-54.292893
 31
0.000000
  0
LINE
  8
Kontur
 62
     7
  6
CONTINUOUS
 10
1015.750000
 20
-61.292893
 30
0.000000
 11
1008.750000
 21
-54.292893
 31
0.000000
  0
ARC
  8
Kontur
 62
     7
  6
CONTINUOUS
 10
1016.750000
 20
-72.000000
 30
0.000000
 40
1.000000
 50
180.000000
 51
0.000000
 210
0.000000
 220
0.000000
 230
1.000000
  0
LINE
  8
Kontur
 62
     7
  6
CONTINUOUS
 10
1017.750000
 20
-61.292893
 30
0.000000
 11
1017.750000
 21
-72.000000
 31
0.000000
  0
LINE
  8
Kontur
 62
     7
  6
CONTINUOUS
 10
1031.750000
 20
-61.292893
 30
0.000000
 11
1031.750000
 21
-72.000000
 31
0.000000
  0
LINE
  8
Kontur
 62
     7
  6
CONTINUOUS
 10
1017.750000
 20
-61.292893
 30
0.000000
 11
1024.750000
 21
-54.292893
 31
0.000000
  0
LINE
  8
Kontur
 62
     7
  6
CONTINUOUS
 10
1031.750000
 20
-61.292893
 30
0.000000
 11
1024.750000
 21
-54.292893
 31
0.000000
  0
ARC
  8
Kontur
 62
     7
  6
CONTINUOUS
 10
1032.750000
 20
-72.000000
 30
0.000000
 40
1.000000
 50
180.000000
 51
0.000000
 210
0.000000
 220
0.000000
 230
1.000000
  0
LINE
  8
Kontur
 62
     7
  6
CONTINUOUS
 10
1033.750000
 20
-61.292893
 30
0.000000
 11
1033.750000
 21
-72.000000
 31
0.000000
  0
LINE
  8
Kontur
 62
     7
  6
CONTINUOUS
 10
1047.750000
 20
-61.292893
 30
0.000000
 11
1047.750000
 21
-72.000000
 31
0.000000
  0
LINE
  8
Kontur
 62
     7
  6
CONTINUOUS
 10
1033.750000
 20
-61.292893
 30
0.000000
 11
1040.750000
 21
-54.292893
 31
0.000000
  0
LINE
  8
Kontur
 62
     7
  6
CONTINUOUS
 10
1047.750000
 20
-61.292893
 30
0.000000
 11
1040.750000
 21
-54.292893
 31
0.000000
  0
ARC
  8
Kontur
 62
     7
  6
CONTINUOUS
 10
1048.750000
 20
-72.000000
 30
0.000000
 40
1.000000
 50
180.000000
 51
0.000000
 210
0.000000
 220
0.000000
 230
1.000000
  0
LINE
  8
Kontur
 62
     7
  6
CONTINUOUS
 10
1049.750000
 20
-61.292893
 30
0.000000
 11
1049.750000
 21
-72.000000
 31
0.000000
  0
LINE
  8
Kontur
 62
     7
  6
CONTINUOUS
 10
1063.750000
 20
-61.292893
 30
0.000000
 11
1063.750000
 21
-72.000000
 31
0.000000
  0
LINE
  8
Kontur
 62
     7
  6
CONTINUOUS
 10
1049.750000
 20
-61.292893
 30
0.000000
 11
1056.750000
 21
-54.292893
 31
0.000000
  0
LINE
  8
Kontur
 62
     7
  6
CONTINUOUS
 10
1063.750000
 20
-61.292893
 30
0.000000
 11
1056.750000
 21
-54.292893
 31
0.000000
  0
ARC
  8
Kontur
 62
     7
  6
CONTINUOUS
 10
1064.750000
 20
-72.000000
 30
0.000000
 40
1.000000
 50
180.000000
 51
0.000000
 210
0.000000
 220
0.000000
 230
1.000000
  0
LINE
  8
Kontur
 62
     7
  6
CONTINUOUS
 10
1065.750000
 20
-61.292893
 30
0.000000
 11
1065.750000
 21
-72.000000
 31
0.000000
  0
LINE
  8
Kontur
 62
     7
  6
CONTINUOUS
 10
1079.750000
 20
-61.292893
 30
0.000000
 11
1079.750000
 21
-72.000000
 31
0.000000
  0
LINE
  8
Kontur
 62
     7
  6
CONTINUOUS
 10
1065.750000
 20
-61.292893
 30
0.000000
 11
1072.750000
 21
-54.292893
 31
0.000000
  0
LINE
  8
Kontur
 62
     7
  6
CONTINUOUS
 10
1079.750000
 20
-61.292893
 30
0.000000
 11
1072.750000
 21
-54.292893
 31
0.000000
  0
ARC
  8
Kontur
 62
     7
  6
CONTINUOUS
 10
1080.750000
 20
-72.000000
 30
0.000000
 40
1.000000
 50
180.000000
 51
0.000000
 210
0.000000
 220
0.000000
 230
1.000000
  0
LINE
  8
Kontur
 62
     7
  6
CONTINUOUS
 10
1081.750000
 20
-61.292893
 30
0.000000
 11
1081.750000
 21
-72.000000
 31
0.000000
  0
LINE
  8
Kontur
 62
     7
  6
CONTINUOUS
 10
1095.750000
 20
-61.292893
 30
0.000000
 11
1095.750000
 21
-85.300000
 31
0.000000
  0
LINE
  8
Kontur
 62
     7
  6
CONTINUOUS
 10
1081.750000
 20
-61.292893
 30
0.000000
 11
1088.750000
 21
-54.292893
 31
0.000000
  0
LINE
  8
Kontur
 62
     7
  6
CONTINUOUS
 10
1095.750000
 20
-61.292893
 30
0.000000
 11
1088.750000
 21
-54.292893
 31
0.000000
  0
LINE
  8
Kontur
 62
     7
  6
CONTINUOUS
 10
103.750000
 20
-61.292893
 30
0.000000
 11
103.750000
 21
-72.000000
 31
0.000000
  0
ARC
  8
Kontur
 62
     7
  6
CONTINUOUS
 10
104.750000
 20
-72.000000
 30
0.000000
 40
1.000000
 50
180.000000
 51
0.000000
 210
0.000000
 220
0.000000
 230
1.000000
  0
LINE
  8
Kontur
 62
     7
  6
CONTINUOUS
 10
105.750000
 20
-61.292893
 30
0.000000
 11
105.750000
 21
-72.000000
 31
0.000000
  0
LINE
  8
Kontur
 62
     7
  6
CONTINUOUS
 10
119.750000
 20
-61.292893
 30
0.000000
 11
119.750000
 21
-72.000000
 31
0.000000
  0
LINE
  8
Kontur
 62
     7
  6
CONTINUOUS
 10
95.750000
 20
-55.292893
 30
0.000000
 11
96.750000
 21
-54.292893
 31
0.000000
  0
LINE
  8
Kontur
 62
     7
  6
CONTINUOUS
 10
103.750000
 20
-61.292893
 30
0.000000
 11
96.750000
 21
-54.292893
 31
0.000000
  0
LINE
  8
Kontur
 62
     7
  6
CONTINUOUS
 10
105.750000
 20
-61.292893
 30
0.000000
 11
112.750000
 21
-54.292893
 31
0.000000
  0
LINE
  8
Kontur
 62
     7
  6
CONTINUOUS
 10
119.750000
 20
-61.292893
 30
0.000000
 11
112.750000
 21
-54.292893
 31
0.000000
  0
ARC
  8
Kontur
 62
     7
  6
CONTINUOUS
 10
120.750000
 20
-72.000000
 30
0.000000
 40
1.000000
 50
180.000000
 51
0.000000
 210
0.000000
 220
0.000000
 230
1.000000
  0
LINE
  8
Kontur
 62
     3
  6
CONTINUOUS
 10
1095.750000
 20
-85.300000
 30
0.000000
 11
1095.750000
 21
-90.300000
 31
0.000000
  0
LINE
  8
Kontur
 62
     3
  6
CONTINUOUS
 10
762.750000
 20
-85.300000
 30
0.000000
 11
762.750000
 21
-90.300000
 31
0.000000
  0
LINE
  8
Kontur
 62
     3
  6
CONTINUOUS
 10
428.750000
 20
-85.300000
 30
0.000000
 11
428.750000
 21
-90.300000
 31
0.000000
  0
ENDSEC
  0
EOF
