  0
SECTION
  2
HEADER
  9
$ACADVER
  1
AC1027
  9
$ACADMAINTVER
 70
    19
  9
$DWGCODEPAGE
  3
ANSI_1252
  9
$REQUIREDVERSIONS
160
                 0
  9
$INSBASE
 10
0.0
 20
0.0
 30
0.0
  9
$EXTMIN
 10
-232.3643493652344
 20
454.2731475830078
 30
0.5
  9
$EXTMAX
 10
-125.5805587768554
 20
780.7059478759765
 30
0.5000000000000001
  9
$LIMMIN
 10
0.0
 20
0.0
  9
$LIMMAX
 10
12.0
 20
9.0
  9
$ORTHOMODE
 70
     0
  9
$REGENMODE
 70
     1
  9
$FILLMODE
 70
     1
  9
$QTEXTMODE
 70
     0
  9
$MIRRTEXT
 70
     0
  9
$LTSCALE
 40
1.0
  9
$ATTMODE
 70
     1
  9
$TEXTSIZE
 40
0.2
  9
$TRACEWID
 40
0.05
  9
$TEXTSTYLE
  7
Standard
  9
$CLAYER
  8
0
  9
$CELTYPE
  6
ByLayer
  9
$CECOLOR
 62
   256
  9
$CELTSCALE
 40
1.0
  9
$DISPSILH
 70
     0
  9
$DIMSCALE
 40
1.0
  9
$DIMASZ
 40
0.18
  9
$DIMEXO
 40
0.0625
  9
$DIMDLI
 40
0.38
  9
$DIMRND
 40
0.0
  9
$DIMDLE
 40
0.0
  9
$DIMEXE
 40
0.18
  9
$DIMTP
 40
0.0
  9
$DIMTM
 40
0.0
  9
$DIMTXT
 40
0.18
  9
$DIMCEN
 40
0.09
  9
$DIMTSZ
 40
0.0
  9
$DIMTOL
 70
     0
  9
$DIMLIM
 70
     0
  9
$DIMTIH
 70
     1
  9
$DIMTOH
 70
     1
  9
$DIMSE1
 70
     0
  9
$DIMSE2
 70
     0
  9
$DIMTAD
 70
     0
  9
$DIMZIN
 70
     0
  9
$DIMBLK
  1

  9
$DIMASO
 70
     1
  9
$DIMSHO
 70
     1
  9
$DIMPOST
  1

  9
$DIMAPOST
  1

  9
$DIMALT
 70
     0
  9
$DIMALTD
 70
     2
  9
$DIMALTF
 40
25.4
  9
$DIMLFAC
 40
1.0
  9
$DIMTOFL
 70
     0
  9
$DIMTVP
 40
0.0
  9
$DIMTIX
 70
     0
  9
$DIMSOXD
 70
     0
  9
$DIMSAH
 70
     0
  9
$DIMBLK1
  1

  9
$DIMBLK2
  1

  9
$DIMSTYLE
  2
Standard
  9
$DIMCLRD
 70
     0
  9
$DIMCLRE
 70
     0
  9
$DIMCLRT
 70
     0
  9
$DIMTFAC
 40
1.0
  9
$DIMGAP
 40
0.09
  9
$DIMJUST
 70
     0
  9
$DIMSD1
 70
     0
  9
$DIMSD2
 70
     0
  9
$DIMTOLJ
 70
     1
  9
$DIMTZIN
 70
     0
  9
$DIMALTZ
 70
     0
  9
$DIMALTTZ
 70
     0
  9
$DIMUPT
 70
     0
  9
$DIMDEC
 70
     4
  9
$DIMTDEC
 70
     4
  9
$DIMALTU
 70
     2
  9
$DIMALTTD
 70
     2
  9
$DIMTXSTY
  7
Standard
  9
$DIMAUNIT
 70
     0
  9
$DIMADEC
 70
     0
  9
$DIMALTRND
 40
0.0
  9
$DIMAZIN
 70
     0
  9
$DIMDSEP
 70
    46
  9
$DIMATFIT
 70
     3
  9
$DIMFRAC
 70
     0
  9
$DIMLDRBLK
  1

  9
$DIMLUNIT
 70
     2
  9
$DIMLWD
 70
    -2
  9
$DIMLWE
 70
    -2
  9
$DIMTMOVE
 70
     0
  9
$DIMFXL
 40
1.0
  9
$DIMFXLON
 70
     0
  9
$DIMJOGANG
 40
0.7853981633974483
  9
$DIMTFILL
 70
     0
  9
$DIMTFILLCLR
 70
     0
  9
$DIMARCSYM
 70
     0
  9
$DIMLTYPE
  6

  9
$DIMLTEX1
  6

  9
$DIMLTEX2
  6

  9
$DIMTXTDIRECTION
 70
     0
  9
$LUNITS
 70
     2
  9
$LUPREC
 70
     4
  9
$SKETCHINC
 40
0.1
  9
$FILLETRAD
 40
0.0
  9
$AUNITS
 70
     0
  9
$AUPREC
 70
     0
  9
$MENU
  1
.
  9
$ELEVATION
 40
0.0
  9
$PELEVATION
 40
0.0
  9
$THICKNESS
 40
0.0
  9
$LIMCHECK
 70
     0
  9
$CHAMFERA
 40
0.0
  9
$CHAMFERB
 40
0.0
  9
$CHAMFERC
 40
0.0
  9
$CHAMFERD
 40
0.0
  9
$SKPOLY
 70
     0
  9
$TDCREATE
 40
2460281.568704607
  9
$TDUCREATE
 40
2460281.527037940
  9
$TDUPDATE
 40
2460281.568704607
  9
$TDUUPDATE
 40
2460281.527037940
  9
$TDINDWG
 40
0.0000000810
  9
$TDUSRTIMER
 40
0.0000000810
  9
$USRTIMER
 70
     1
  9
$ANGBASE
 50
0.0
  9
$ANGDIR
 70
     0
  9
$PDMODE
 70
     0
  9
$PDSIZE
 40
0.0
  9
$PLINEWID
 40
0.0
  9
$SPLFRAME
 70
     0
  9
$SPLINETYPE
 70
     6
  9
$SPLINESEGS
 70
     8
  9
$HANDSEED
  5
53A
  9
$SURFTAB1
 70
     6
  9
$SURFTAB2
 70
     6
  9
$SURFTYPE
 70
     6
  9
$SURFU
 70
     6
  9
$SURFV
 70
     6
  9
$UCSBASE
  2

  9
$UCSNAME
  2

  9
$UCSORG
 10
0.0
 20
0.0
 30
0.0
  9
$UCSXDIR
 10
1.0
 20
0.0
 30
0.0
  9
$UCSYDIR
 10
0.0
 20
1.0
 30
0.0
  9
$UCSORTHOREF
  2

  9
$UCSORTHOVIEW
 70
     0
  9
$UCSORGTOP
 10
0.0
 20
0.0
 30
0.0
  9
$UCSORGBOTTOM
 10
0.0
 20
0.0
 30
0.0
  9
$UCSORGLEFT
 10
0.0
 20
0.0
 30
0.0
  9
$UCSORGRIGHT
 10
0.0
 20
0.0
 30
0.0
  9
$UCSORGFRONT
 10
0.0
 20
0.0
 30
0.0
  9
$UCSORGBACK
 10
0.0
 20
0.0
 30
0.0
  9
$PUCSBASE
  2

  9
$PUCSNAME
  2

  9
$PUCSORG
 10
0.0
 20
0.0
 30
0.0
  9
$PUCSXDIR
 10
1.0
 20
0.0
 30
0.0
  9
$PUCSYDIR
 10
0.0
 20
1.0
 30
0.0
  9
$PUCSORTHOREF
  2

  9
$PUCSORTHOVIEW
 70
     0
  9
$PUCSORGTOP
 10
0.0
 20
0.0
 30
0.0
  9
$PUCSORGBOTTOM
 10
0.0
 20
0.0
 30
0.0
  9
$PUCSORGLEFT
 10
0.0
 20
0.0
 30
0.0
  9
$PUCSORGRIGHT
 10
0.0
 20
0.0
 30
0.0
  9
$PUCSORGFRONT
 10
0.0
 20
0.0
 30
0.0
  9
$PUCSORGBACK
 10
0.0
 20
0.0
 30
0.0
  9
$USERI1
 70
     0
  9
$USERI2
 70
     0
  9
$USERI3
 70
     0
  9
$USERI4
 70
     0
  9
$USERI5
 70
     0
  9
$USERR1
 40
0.0
  9
$USERR2
 40
0.0
  9
$USERR3
 40
0.0
  9
$USERR4
 40
0.0
  9
$USERR5
 40
0.0
  9
$WORLDVIEW
 70
     1
  9
$SHADEDGE
 70
     3
  9
$SHADEDIF
 70
    70
  9
$TILEMODE
 70
     1
  9
$MAXACTVP
 70
    64
  9
$PINSBASE
 10
0.0
 20
0.0
 30
0.0
  9
$PLIMCHECK
 70
     0
  9
$PEXTMIN
 10
1.000000000000000E+20
 20
1.000000000000000E+20
 30
1.000000000000000E+20
  9
$PEXTMAX
 10
-1.000000000000000E+20
 20
-1.000000000000000E+20
 30
-1.000000000000000E+20
  9
$PLIMMIN
 10
0.0
 20
0.0
  9
$PLIMMAX
 10
12.0
 20
9.0
  9
$UNITMODE
 70
     0
  9
$VISRETAIN
 70
     1
  9
$PLINEGEN
 70
     0
  9
$PSLTSCALE
 70
     1
  9
$TREEDEPTH
 70
  3020
  9
$CMLSTYLE
  2
Standard
  9
$CMLJUST
 70
     0
  9
$CMLSCALE
 40
1.0
  9
$PROXYGRAPHICS
 70
     1
  9
$MEASUREMENT
 70
     0
  9
$CELWEIGHT
370
    -1
  9
$ENDCAPS
280
     0
  9
$JOINSTYLE
280
     0
  9
$LWDISPLAY
290
     0
  9
$INSUNITS
 70
     0
  9
$HYPERLINKBASE
  1

  9
$STYLESHEET
  1

  9
$XEDIT
290
     1
  9
$CEPSNTYPE
380
     0
  9
$PSTYLEMODE
290
     1
  9
$FINGERPRINTGUID
  2
{2E6E0174-F175-4DB3-A6E4-8928779A98FC}
  9
$VERSIONGUID
  2
{3F407C99-8657-4D01-BD6A-E6C01CFAAD9D}
  9
$EXTNAMES
290
     1
  9
$PSVPSCALE
 40
0.0
  9
$OLESTARTUP
290
     0
  9
$SORTENTS
280
   127
  9
$INDEXCTL
280
     0
  9
$HIDETEXT
280
     1
  9
$XCLIPFRAME
280
     2
  9
$HALOGAP
280
     0
  9
$OBSCOLOR
 70
   257
  9
$OBSLTYPE
280
     0
  9
$INTERSECTIONDISPLAY
280
     0
  9
$INTERSECTIONCOLOR
 70
   257
  9
$DIMASSOC
280
     2
  9
$PROJECTNAME
  1

  9
$CAMERADISPLAY
290
     0
  9
$LENSLENGTH
 40
50.0
  9
$CAMERAHEIGHT
 40
0.0
  9
$STEPSPERSEC
 40
2.0
  9
$STEPSIZE
 40
6.0
  9
$3DDWFPREC
 40
2.0
  9
$PSOLWIDTH
 40
0.25
  9
$PSOLHEIGHT
 40
4.0
  9
$LOFTANG1
 40
1.570796326794896
  9
$LOFTANG2
 40
1.570796326794896
  9
$LOFTMAG1
 40
0.0
  9
$LOFTMAG2
 40
0.0
  9
$LOFTPARAM
 70
     7
  9
$LOFTNORMALS
280
     1
  9
$LATITUDE
 40
37.795
  9
$LONGITUDE
 40
-122.394
  9
$NORTHDIRECTION
 40
0.0
  9
$TIMEZONE
 70
 -8000
  9
$LIGHTGLYPHDISPLAY
280
     1
  9
$TILEMODELIGHTSYNCH
280
     1
  9
$CMATERIAL
347
11
  9
$SOLIDHIST
280
     0
  9
$SHOWHIST
280
     1
  9
$DWFFRAME
280
     2
  9
$DGNFRAME
280
     0
  9
$REALWORLDSCALE
290
     1
  9
$INTERFERECOLOR
 62
     1
  9
$INTERFEREOBJVS
345
36
  9
$INTERFEREVPVS
346
33
  9
$CSHADOW
280
     0
  9
$SHADOWPLANELOCATION
 40
0.0
  0
ENDSEC
  0
SECTION
  2
CLASSES
  0
CLASS
  1
ACDBDICTIONARYWDFLT
  2
AcDbDictionaryWithDefault
  3
ObjectDBX Classes
 90
        0
 91
        1
280
     0
281
     0
  0
CLASS
  1
MATERIAL
  2
AcDbMaterial
  3
ObjectDBX Classes
 90
     1153
 91
        3
280
     0
281
     0
  0
CLASS
  1
VISUALSTYLE
  2
AcDbVisualStyle
  3
ObjectDBX Classes
 90
     4095
 91
       40
280
     0
281
     0
  0
CLASS
  1
SCENESTYLE
  2
AcDbSceneStyle
  3
ObjectDBX Classes
 90
     4095
 91
       14
280
     0
281
     0
  0
CLASS
  1
GROUNDPLANE
  2
AcDbGroundPlane
  3
ObjectDBX Classes
 90
     1153
 91
       14
280
     0
281
     0
  0
CLASS
  1
SUN
  2
AcDbSun
  3
ObjectDBX Classes
 90
     1153
 91
        3
280
     0
281
     0
  0
CLASS
  1
SKYLIGHT_BACKGROUND
  2
AcDbSkyBackground
  3
ObjectDBX Classes
 90
     4095
 91
        3
280
     0
281
     0
  0
CLASS
  1
IBL_BACKGROUND
  2
AcDbImageBasedLightingBackground
  3
ObjectDBX Classes
 90
     4095
 91
        1
280
     0
281
     0
  0
CLASS
  1
SOLID_BACKGROUND
  2
AcDbSolidBackground
  3
ObjectDBX Classes
 90
     4095
 91
        6
280
     0
281
     0
  0
CLASS
  1
GRADIENT_BACKGROUND
  2
AcDbGradientBackground
  3
ObjectDBX Classes
 90
     4095
 91
        2
280
     0
281
     0
  0
CLASS
  1
SCALE
  2
AcDbScale
  3
ObjectDBX Classes
 90
     1153
 91
       17
280
     0
281
     0
  0
CLASS
  1
TABLESTYLE
  2
AcDbTableStyle
  3
ObjectDBX Classes
 90
     4095
 91
        1
280
     0
281
     0
  0
CLASS
  1
MLEADERSTYLE
  2
AcDbMLeaderStyle
  3
ACDB_MLEADERSTYLE_CLASS
 90
     4095
 91
        1
280
     0
281
     0
  0
CLASS
  1
ACDBSECTIONVIEWSTYLE
  2
AcDbSectionViewStyle
  3
ObjectDBX Classes
 90
     1025
 91
        1
280
     0
281
     0
  0
CLASS
  1
ACDBDETAILVIEWSTYLE
  2
AcDbDetailViewStyle
  3
ObjectDBX Classes
 90
     1025
 91
        1
280
     0
281
     0
  0
CLASS
  1
DICTIONARYVAR
  2
AcDbDictionaryVar
  3
ObjectDBX Classes
 90
        0
 91
        5
280
     0
281
     0
  0
CLASS
  1
CELLSTYLEMAP
  2
AcDbCellStyleMap
  3
ObjectDBX Classes
 90
     1152
 91
        1
280
     0
281
     0
  0
ENDSEC
  0
SECTION
  2
TABLES
  0
TABLE
  2
VPORT
  5
8
330
0
100
AcDbSymbolTable
 70
     1
  0
VPORT
  5
B2
102
{ACAD_XDICTIONARY
360
535
102
}
330
8
100
AcDbSymbolTableRecord
100
AcDbViewportTableRecord
  2
*Active
 70
     0
 10
0.0
 20
0.0
 11
1.0
 21
1.0
 12
0.0
 22
0.0
 13
0.0
 23
0.0
 14
1.0
 24
1.0
 15
0.0
 25
0.0
 16
0.8032737562125007
 26
-0.5213701361077363
 36
0.2879660635478776
 17
-178.9724540710449
 27
617.4895477294922
 37
0.5
 40
343.4547292432177
 41
1.0
 42
50.0
 43
0.0
 44
0.0
 50
0.0
 51
0.0
 71
     0
 72
   100
 73
     1
 74
     1
 75
     0
 76
     1
 77
     0
 78
     0
281
     0
 65
     1
110
0.0
120
0.0
130
0.0
111
1.0
121
0.0
131
0.0
112
0.0
122
1.0
132
0.0
 79
     0
146
0.0
348
32
 60
     3
 61
     5
292
     1
282
     1
141
0.0
142
0.0
 63
   250
421
  3355443
  0
ENDTAB
  0
TABLE
  2
LTYPE
  5
5
330
0
100
AcDbSymbolTable
 70
     2
  0
LTYPE
  5
B6
330
5
100
AcDbSymbolTableRecord
100
AcDbLinetypeTableRecord
  2
ByBlock
 70
     0
  3

 72
    65
 73
     0
 40
0.0
  0
LTYPE
  5
B7
330
5
100
AcDbSymbolTableRecord
100
AcDbLinetypeTableRecord
  2
ByLayer
 70
     0
  3

 72
    65
 73
     0
 40
0.0
  0
LTYPE
  5
B8
330
5
100
AcDbSymbolTableRecord
100
AcDbLinetypeTableRecord
  2
Continuous
 70
     0
  3
Solid line
 72
    65
 73
     0
 40
0.0
  0
LTYPE
  5
C4
330
5
100
AcDbSymbolTableRecord
100
AcDbLinetypeTableRecord
  2
PHANTOM2
 70
     0
  3
___ _ _ ___ _ _ ___ _ _ ___ _ _
 72
    65
 73
     6
 40
1.25
 49
0.625
 74
     0
 49
-0.125
 74
     0
 49
0.125
 74
     0
 49
-0.125
 74
     0
 49
0.125
 74
     0
 49
-0.125
 74
     0
  0
ENDTAB
  0
TABLE
  2
LAYER
  5
2
330
0
100
AcDbSymbolTable
 70
     2
  0
LAYER
  5
AF
330
2
100
AcDbSymbolTableRecord
100
AcDbLayerTableRecord
  2
0
 70
     0
 62
     7
  6
Continuous
370
    -3
390
F
347
21
348
2A
  0
LAYER
  5
D6
330
2
100
AcDbSymbolTableRecord
100
AcDbLayerTableRecord
  2
Sketch2
 70
     0
 62
     7
  6
Continuous
370
    -3
390
F
347
21
348
2A
1001
NFusion_SketchTransform
1000
1.000000;0.000000;0.000000;0.000000;0.000000;1.000000;0.000000;0.000000;0.000000;0.000000;1.000000;0.000000;0.000000;0.000000;0.000000;1.000000
  0
ENDTAB
  0
TABLE
  2
STYLE
  5
3
330
0
100
AcDbSymbolTable
 70
     2
  0
STYLE
  5
B0
330
3
100
AcDbSymbolTableRecord
100
AcDbTextStyleTableRecord
  2
Standard
 70
     0
 40
0.0
 41
1.0
 50
0.0
 71
     0
 42
0.2
  3
txt
  4

  0
STYLE
  5
B5
330
3
100
AcDbSymbolTableRecord
100
AcDbTextStyleTableRecord
  2
Annotative
 70
     0
 40
0.0
 41
1.0
 50
0.0
 71
     0
 42
0.2
  3
txt
  4

1001
AcadAnnotative
1000
AnnotativeData
1002
{
1070
     1
1070
     1
1002
}
  0
ENDTAB
  0
TABLE
  2
VIEW
  5
6
330
0
100
AcDbSymbolTable
 70
     0
  0
ENDTAB
  0
TABLE
  2
UCS
  5
7
330
0
100
AcDbSymbolTable
 70
     0
  0
ENDTAB
  0
TABLE
  2
APPID
  5
9
330
0
100
AcDbSymbolTable
 70
     4
  0
APPID
  5
B1
330
9
100
AcDbSymbolTableRecord
100
AcDbRegAppTableRecord
  2
ACAD
 70
     0
  0
APPID
  5
B9
330
9
100
AcDbSymbolTableRecord
100
AcDbRegAppTableRecord
  2
AcadAnnotative
 70
     0
  0
APPID
  5
D4
330
9
100
AcDbSymbolTableRecord
100
AcDbRegAppTableRecord
  2
EDIT_IN_FUSION_ACAD_ADDIN
 70
     0
  0
APPID
  5
D5
330
9
100
AcDbSymbolTableRecord
100
AcDbRegAppTableRecord
  2
NFusion_SketchTransform
 70
     0
  0
ENDTAB
  0
TABLE
  2
DIMSTYLE
  5
A
330
0
100
AcDbSymbolTable
 70
     2
100
AcDbDimStyleTable
 71
     0
  0
DIMSTYLE
105
B3
330
A
100
AcDbSymbolTableRecord
100
AcDbDimStyleTableRecord
  2
Standard
 70
     0
340
B0
  0
DIMSTYLE
105
B4
330
A
100
AcDbSymbolTableRecord
100
AcDbDimStyleTableRecord
  2
Annotative
 70
     0
340
B0
1001
AcadAnnotative
1000
AnnotativeData
1002
{
1070
     1
1070
     1
1002
}
  0
ENDTAB
  0
TABLE
  2
BLOCK_RECORD
  5
1
330
0
100
AcDbSymbolTable
 70
     1
  0
BLOCK_RECORD
  5
CC
330
1
100
AcDbSymbolTableRecord
100
AcDbBlockTableRecord
  2
*Model_Space
340
CF
 70
     0
280
     1
281
     0
  0
BLOCK_RECORD
  5
C8
330
1
100
AcDbSymbolTableRecord
100
AcDbBlockTableRecord
  2
*Paper_Space
340
CB
 70
     0
280
     1
281
     0
  0
BLOCK_RECORD
  5
D0
330
1
100
AcDbSymbolTableRecord
100
AcDbBlockTableRecord
  2
*Paper_Space0
340
D3
 70
     0
280
     1
281
     0
  0
ENDTAB
  0
ENDSEC
  0
SECTION
  2
BLOCKS
  0
BLOCK
  5
CD
330
CC
100
AcDbEntity
  8
0
100
AcDbBlockBegin
  2
*Model_Space
 70
     0
 10
0.0
 20
0.0
 30
0.0
  3
*Model_Space
  1

  0
ENDBLK
  5
CE
330
CC
100
AcDbEntity
  8
0
100
AcDbBlockEnd
  0
BLOCK
  5
C9
330
C8
100
AcDbEntity
 67
     1
  8
0
100
AcDbBlockBegin
  2
*Paper_Space
 70
     0
 10
0.0
 20
0.0
 30
0.0
  3
*Paper_Space
  1

  0
ENDBLK
  5
CA
330
C8
100
AcDbEntity
 67
     1
  8
0
100
AcDbBlockEnd
  0
BLOCK
  5
D1
330
D0
100
AcDbEntity
 67
     1
  8
0
100
AcDbBlockBegin
  2
*Paper_Space0
 70
     0
 10
0.0
 20
0.0
 30
0.0
  3
*Paper_Space0
  1

  0
ENDBLK
  5
D2
330
D0
100
AcDbEntity
 67
     1
  8
0
100
AcDbBlockEnd
  0
ENDSEC
  0
SECTION
  2
ENTITIES
  0
LINE
  5
D7
330
CC
100
AcDbEntity
  8
Sketch2
100
AcDbLine
 10
-165.4433660068386
 20
748.393770180404
 30
0.5
 11
-165.1115644506054
 21
749.6001302381148
 31
0.5
  0
LINE
  5
D8
330
CC
100
AcDbEntity
  8
Sketch2
100
AcDbLine
 10
-165.9735475417137
 20
742.1726853311668
 30
0.5
 11
-166.0202784195565
 21
743.4261184927835
 31
0.5
  0
LINE
  5
D9
330
CC
100
AcDbEntity
  8
Sketch2
100
AcDbLine
 10
-176.7757606506347
 20
603.6890029907226
 30
0.5
 11
-176.9015968195026
 21
603.6289220612896
 31
0.5
  0
LINE
  5
DA
330
CC
100
AcDbEntity
  8
Sketch2
100
AcDbLine
 10
-162.3999690992476
 20
756.6750335789206
 30
0.5
 11
-162.2855758666992
 21
757.3182678222656
 31
0.5
  0
LINE
  5
DB
330
CC
100
AcDbEntity
  8
Sketch2
100
AcDbLine
 10
-163.4712028503418
 20
762.3193359375
 30
0.5
 11
-163.862190252408
 21
762.8427505571155
 31
0.5000000000000001
  0
LINE
  5
DC
330
CC
100
AcDbEntity
  8
Sketch2
100
AcDbLine
 10
-177.4310684204101
 20
601.1509704589843
 30
0.5
 11
-177.3315629572826
 21
601.0532578870844
 31
0.5
  0
LINE
  5
DD
330
CC
100
AcDbEntity
  8
Sketch2
100
AcDbLine
 10
-177.6077079772949
 20
602.9779052734375
 30
0.5
 11
-177.6654905727606
 21
602.8509723891911
 31
0.5
  0
LINE
  5
DE
330
CC
100
AcDbEntity
  8
Sketch2
100
AcDbLine
 10
-177.2320556640625
 20
600.9555435180664
 30
0.5
 11
-177.1171008190808
 21
600.8766181574335
 31
0.5
  0
LINE
  5
DF
330
CC
100
AcDbEntity
  8
Sketch2
100
AcDbLine
 10
-177.6531987946881
 20
601.5037929663516
 30
0.5
 11
-177.5931167602539
 21
601.377944946289
 31
0.5
  0
LINE
  5
E0
330
CC
100
AcDbEntity
  8
Sketch2
100
AcDbLine
 10
-164.2283821105957
 20
751.9457244873047
 30
0.5
 11
-163.5889530086605
 21
753.3727264616929
 31
0.5
  0
LINE
  5
E1
330
CC
100
AcDbEntity
  8
Sketch2
100
AcDbLine
 10
-176.7483139038086
 20
600.682144165039
 30
0.5
 11
-176.6132939357274
 21
600.647278152657
 31
0.5
  0
LINE
  5
E2
330
CC
100
AcDbEntity
  8
Sketch2
100
AcDbLine
 10
-176.8752300489278
 20
600.7399182864046
 30
0.5
 11
-176.7483139038086
 21
600.682144165039
 31
0.5
  0
LINE
  5
E3
330
CC
100
AcDbEntity
  8
Sketch2
100
AcDbLine
 10
-177.1409310394298
 20
603.4878166020201
 30
0.5
 11
-177.2544288635254
 21
603.4067916870117
 31
0.5
  0
LINE
  5
E4
330
CC
100
AcDbEntity
  8
Sketch2
100
AcDbLine
 10
-177.0274353027343
 20
603.5688400268554
 30
0.5
 11
-177.1409310394298
 21
603.4878166020201
 31
0.5
  0
LINE
  5
E5
330
CC
100
AcDbEntity
  8
Sketch2
100
AcDbLine
 10
-177.803878684028
 20
602.3149884609107
 30
0.5
 11
-177.814769744873
 21
602.1759796142577
 31
0.5
  0
LINE
  5
E6
330
CC
100
AcDbEntity
  8
Sketch2
100
AcDbLine
 10
-177.723274230957
 20
602.7240371704102
 30
0.5
 11
-177.7581307066836
 21
602.5890172023289
 31
0.5
  0
LINE
  5
E7
330
CC
100
AcDbEntity
  8
Sketch2
100
AcDbLine
 10
-176.6132939357274
 20
600.647278152657
 30
0.5
 11
-176.478271484375
 21
600.6124114990234
 31
0.5
  0
LINE
  5
E8
330
CC
100
AcDbEntity
  8
Sketch2
100
AcDbLine
 10
-177.0021438598632
 20
600.7976913452148
 30
0.5
 11
-176.8752300489278
 21
600.7399182864046
 31
0.5
  0
LINE
  5
E9
330
CC
100
AcDbEntity
  8
Sketch2
100
AcDbLine
 10
-177.7505973432863
 20
601.763993545067
 30
0.5
 11
-177.7132797241211
 21
601.629638671875
 31
0.5
  0
LINE
  5
EA
330
CC
100
AcDbEntity
  8
Sketch2
100
AcDbLine
 10
-177.7132797241211
 20
601.629638671875
 30
0.5
 11
-177.6531987946881
 21
601.5037929663516
 31
0.5
  0
LINE
  5
EB
330
CC
100
AcDbEntity
  8
Sketch2
100
AcDbLine
 10
-163.5889530086605
 20
753.3727264616929
 30
0.5
 11
-162.9495239257812
 21
754.7997283935546
 31
0.5
  0
LINE
  5
EC
330
CC
100
AcDbEntity
  8
Sketch2
100
AcDbLine
 10
-177.449836730957
 20
603.207778930664
 30
0.5
 11
-177.5287716282453
 21
603.0928431589933
 31
0.5
  0
LINE
  5
ED
330
CC
100
AcDbEntity
  8
Sketch2
100
AcDbLine
 10
-176.2002182006836
 20
600.5906295776367
 30
0.5
 11
-176.061421717038
 21
600.6040571885321
 31
0.5
  0
LINE
  5
EE
330
CC
100
AcDbEntity
  8
Sketch2
100
AcDbLine
 10
-165.7009335455209
 20
747.1696336709864
 30
0.5
 11
-165.4433660068386
 21
748.393770180404
 31
0.5
  0
LINE
  5
EF
330
CC
100
AcDbEntity
  8
Sketch2
100
AcDbLine
 10
-162.5143623352051
 20
756.0317993164062
 30
0.5
 11
-162.3999690992476
 21
756.6750335789206
 31
0.5
  0
LINE
  5
F0
330
CC
100
AcDbEntity
  8
Sketch2
100
AcDbLine
 10
-177.3315629572826
 20
601.0532578870844
 30
0.5
 11
-177.2320556640625
 21
600.9555435180664
 31
0.5
  0
LINE
  5
F1
330
CC
100
AcDbEntity
  8
Sketch2
100
AcDbLine
 10
-177.6654905727606
 20
602.8509723891911
 30
0.5
 11
-177.723274230957
 21
602.7240371704102
 31
0.5
  0
LINE
  5
F2
330
CC
100
AcDbEntity
  8
Sketch2
100
AcDbLine
 10
-177.5931167602539
 20
601.377944946289
 30
0.5
 11
-177.5120933354186
 21
601.264458746249
 31
0.5
  0
LINE
  5
F3
330
CC
100
AcDbEntity
  8
Sketch2
100
AcDbLine
 10
-177.8013421339775
 20
602.0371640573013
 30
0.5
 11
-177.787914276123
 21
601.8983459472656
 31
0.5
  0
LINE
  5
F4
330
CC
100
AcDbEntity
  8
Sketch2
100
AcDbLine
 10
-177.1171008190808
 20
600.8766181574335
 30
0.5
 11
-177.0021438598632
 21
600.7976913452148
 31
0.5
  0
LINE
  5
F5
330
CC
100
AcDbEntity
  8
Sketch2
100
AcDbLine
 10
-177.7581307066836
 20
602.5890172023289
 30
0.5
 11
-177.7929878234863
 21
602.4539947509765
 31
0.5
  0
LINE
  5
F6
330
CC
100
AcDbEntity
  8
Sketch2
100
AcDbLine
 10
-164.7063108899694
 20
750.7852806165795
 30
0.5
 11
-164.2283821105957
 21
751.9457244873047
 31
0.5
  0
LINE
  5
F7
330
CC
100
AcDbEntity
  8
Sketch2
100
AcDbLine
 10
-177.2544288635254
 20
603.4067916870117
 30
0.5
 11
-177.3521318987699
 21
603.3072862238841
 31
0.5
  0
LINE
  5
F8
330
CC
100
AcDbEntity
  8
Sketch2
100
AcDbLine
 10
-162.9495239257812
 20
754.7997283935546
 30
0.5
 11
-162.731943127251
 21
755.4157638641598
 31
0.5
  0
LINE
  5
F9
330
CC
100
AcDbEntity
  8
Sketch2
100
AcDbLine
 10
-176.3392461209982
 20
600.6015206384818
 30
0.5
 11
-176.2002182006836
 21
600.5906295776367
 31
0.5
  0
LINE
  5
FA
330
CC
100
AcDbEntity
  8
Sketch2
100
AcDbLine
 10
-162.2692489624023
 20
758.6248016357422
 30
0.5
 11
-162.367544175659
 21
759.2707061863823
 31
0.5
  0
LINE
  5
FB
330
CC
100
AcDbEntity
  8
Sketch2
100
AcDbLine
 10
-162.367544175659
 20
759.2707061863823
 30
0.5
 11
-162.4658393859863
 21
759.9166107177734
 31
0.5
  0
LINE
  5
FC
330
CC
100
AcDbEntity
  8
Sketch2
100
AcDbLine
 10
-162.6679611236172
 20
760.5378723237103
 30
0.5
 11
-162.8700828552246
 21
761.1591339111328
 31
0.5
  0
LINE
  5
FD
330
CC
100
AcDbEntity
  8
Sketch2
100
AcDbLine
 10
-165.0266982642014
 20
737.2566856917699
 30
0.5
 11
-165.3762397682235
 21
738.4628926909535
 31
0.5
  0
LINE
  5
FE
330
CC
100
AcDbEntity
  8
Sketch2
100
AcDbLine
 10
-162.4658393859863
 20
759.9166107177734
 30
0.5
 11
-162.6679611236172
 21
760.5378723237103
 31
0.5
  0
LINE
  5
FF
330
CC
100
AcDbEntity
  8
Sketch2
100
AcDbLine
 10
-177.814769744873
 20
602.1759796142577
 30
0.5
 11
-177.8013421339775
 21
602.0371640573013
 31
0.5
  0
LINE
  5
100
330
CC
100
AcDbEntity
  8
Sketch2
100
AcDbLine
 10
-162.2774124144291
 20
757.971534738738
 30
0.5
 11
-162.2692489624023
 21
758.6248016357422
 31
0.5
  0
LINE
  5
101
330
CC
100
AcDbEntity
  8
Sketch2
100
AcDbLine
 10
-166.0202784195565
 20
743.4261184927835
 30
0.5
 11
-165.9901812984332
 21
744.6816879274264
 31
0.5
  0
LINE
  5
102
330
CC
100
AcDbEntity
  8
Sketch2
100
AcDbLine
 10
-165.1115644506054
 20
749.6001302381148
 30
0.5
 11
-164.7063108899694
 21
750.7852806165795
 31
0.5
  0
LINE
  5
103
330
CC
100
AcDbEntity
  8
Sketch2
100
AcDbLine
 10
-162.8700828552246
 20
761.1591339111328
 30
0.5
 11
-163.1706428572617
 21
761.7392349329602
 31
0.5
  0
LINE
  5
104
330
CC
100
AcDbEntity
  8
Sketch2
100
AcDbLine
 10
-163.1706428572617
 20
761.7392349329602
 30
0.5
 11
-163.4712028503418
 21
762.3193359375
 31
0.5
  0
LINE
  5
105
330
CC
100
AcDbEntity
  8
Sketch2
100
AcDbLine
 10
-176.478271484375
 20
600.6124114990234
 30
0.5
 11
-176.3392461209982
 21
600.6015206384818
 31
0.5
  0
LINE
  5
106
330
CC
100
AcDbEntity
  8
Sketch2
100
AcDbLine
 10
-165.3762397682235
 20
738.4628926909535
 30
0.5
 11
-165.6511085964272
 21
739.6875628991701
 31
0.5
  0
LINE
  5
107
330
CC
100
AcDbEntity
  8
Sketch2
100
AcDbLine
 10
-164.6046012338334
 20
736.0757320260352
 30
0.5
 11
-165.0266982642014
 21
737.2566856917699
 31
0.5
  0
LINE
  5
108
330
CC
100
AcDbEntity
  8
Sketch2
100
AcDbLine
 10
-163.862190252408
 20
762.8427505571155
 30
0.5000000000000001
 11
-164.2531776428223
 21
763.3661651611328
 31
0.5
  0
LINE
  5
109
330
CC
100
AcDbEntity
  8
Sketch2
100
AcDbLine
 10
-177.5120933354186
 20
601.264458746249
 30
0.5
 11
-177.4310684204101
 21
601.1509704589843
 31
0.5
  0
LINE
  5
10A
330
CC
100
AcDbEntity
  8
Sketch2
100
AcDbLine
 10
-164.2531776428223
 20
763.3661651611328
 30
0.5
 11
-164.7241497109972
 21
763.8189315863362
 31
0.5000000000000001
  0
LINE
  5
10B
330
CC
100
AcDbEntity
  8
Sketch2
100
AcDbLine
 10
-177.3521318987699
 20
603.3072862238841
 30
0.5
 11
-177.449836730957
 21
603.207778930664
 31
0.5
  0
LINE
  5
10C
330
CC
100
AcDbEntity
  8
Sketch2
100
AcDbLine
 10
-162.2855758666992
 20
757.3182678222656
 30
0.5
 11
-162.2774124144291
 21
757.971534738738
 31
0.5
  0
LINE
  5
10D
330
CC
100
AcDbEntity
  8
Sketch2
100
AcDbLine
 10
-164.7241497109972
 20
763.8189315863362
 30
0.5000000000000001
 11
-165.1951217651367
 21
764.2716979980469
 31
0.5
  0
LINE
  5
10E
330
CC
100
AcDbEntity
  8
Sketch2
100
AcDbLine
 10
-176.9015968195026
 20
603.6289220612896
 30
0.5
 11
-177.0274353027343
 21
603.5688400268554
 31
0.5
  0
LINE
  5
10F
330
CC
100
AcDbEntity
  8
Sketch2
100
AcDbLine
 10
-177.7929878234863
 20
602.4539947509765
 30
0.5
 11
-177.803878684028
 21
602.3149884609107
 31
0.5
  0
LINE
  5
110
330
CC
100
AcDbEntity
  8
Sketch2
100
AcDbLine
 10
-177.787914276123
 20
601.8983459472656
 30
0.5
 11
-177.7505973432863
 21
601.763993545067
 31
0.5
  0
LINE
  5
111
330
CC
100
AcDbEntity
  8
Sketch2
100
AcDbLine
 10
-165.8834659804352
 20
745.9311539365661
 30
0.5
 11
-165.7009335455209
 21
747.1696336709864
 31
0.5
  0
LINE
  5
112
330
CC
100
AcDbEntity
  8
Sketch2
100
AcDbLine
 10
-162.731943127251
 20
755.4157638641598
 30
0.5
 11
-162.5143623352051
 21
756.0317993164062
 31
0.5
  0
LINE
  5
113
330
CC
100
AcDbEntity
  8
Sketch2
100
AcDbLine
 10
-165.9901812984332
 20
744.6816879274264
 30
0.5
 11
-165.8834659804352
 21
745.9311539365661
 31
0.5
  0
LINE
  5
114
330
CC
100
AcDbEntity
  8
Sketch2
100
AcDbLine
 10
-177.5287716282453
 20
603.0928431589933
 30
0.5
 11
-177.6077079772949
 21
602.9779052734375
 31
0.5
  0
LINE
  5
115
330
CC
100
AcDbEntity
  8
Sketch2
100
AcDbLine
 10
-165.6511085964272
 20
739.6875628991701
 30
0.5
 11
-165.850351061771
 21
740.9252794312841
 31
0.5
  0
LINE
  5
116
330
CC
100
AcDbEntity
  8
Sketch2
100
AcDbLine
 10
-165.850351061771
 20
740.9252794312841
 30
0.5
 11
-165.9735475417137
 21
742.1726853311668
 31
0.5
  0
LINE
  5
117
330
CC
100
AcDbEntity
  8
Sketch2
100
AcDbLine
 10
-140.3770951051124
 20
454.6627444662367
 30
0.5
 11
-139.5601940155029
 21
454.4614028930664
 31
0.5
  0
LINE
  5
118
330
CC
100
AcDbEntity
  8
Sketch2
100
AcDbLine
 10
-210.1456260681152
 20
677.2438812255859
 30
0.5
 11
-209.2012595989669
 21
676.6563415439805
 31
0.5000000000000001
  0
LINE
  5
119
330
CC
100
AcDbEntity
  8
Sketch2
100
AcDbLine
 10
-144.2381954193115
 20
456.2821197509765
 30
0.5
 11
-143.500139347848
 21
455.8782614653206
 31
0.5
  0
LINE
  5
11A
330
CC
100
AcDbEntity
  8
Sketch2
100
AcDbLine
 10
-139.5601940155029
 20
454.4614028930664
 30
0.5
 11
-138.7241488091307
 21
454.3672761036212
 31
0.5
  0
LINE
  5
11B
330
CC
100
AcDbEntity
  8
Sketch2
100
AcDbLine
 10
-138.7241488091307
 20
454.3672761036212
 30
0.5
 11
-137.8880882263183
 21
454.2731475830078
 31
0.5
  0
LINE
  5
11C
330
CC
100
AcDbEntity
  8
Sketch2
100
AcDbLine
 10
-219.4919204711914
 20
691.8517303466797
 30
0.5
 11
-219.2459297510081
 21
690.7670594716403
 31
0.5
  0
LINE
  5
11D
330
CC
100
AcDbEntity
  8
Sketch2
100
AcDbLine
 10
-218.9999389648438
 20
689.682388305664
 30
0.5
 11
-218.6480426735902
 21
688.6272811732451
 31
0.5000000000000001
  0
LINE
  5
11E
330
CC
100
AcDbEntity
  8
Sketch2
100
AcDbLine
 10
-202.0287895202637
 20
673.7334442138672
 30
0.5
 11
-195.9870623642095
 21
645.6648250212658
 31
0.5
  0
LINE
  5
11F
330
CC
100
AcDbEntity
  8
Sketch2
100
AcDbLine
 10
-227.7305794452527
 20
771.3793181462952
 30
0.5
 11
-232.3643493652344
 21
765.2703094482421
 31
0.5
  0
LINE
  5
120
330
CC
100
AcDbEntity
  8
Sketch2
100
AcDbLine
 10
-168.7123489379882
 20
765.9219360351563
 30
0.5000000000000001
 11
-169.3616104222719
 21
765.994720460069
 31
0.5
  0
LINE
  5
121
330
CC
100
AcDbEntity
  8
Sketch2
100
AcDbLine
 10
-166.8633937923823
 20
765.289382938705
 30
0.5
 11
-167.4548530578613
 21
765.5668640136719
 31
0.5
  0
LINE
  5
122
330
CC
100
AcDbEntity
  8
Sketch2
100
AcDbLine
 10
-165.1951217651367
 20
764.2716979980469
 30
0.5
 11
-165.7335281452296
 21
764.6417999322725
 31
0.5
  0
LINE
  5
123
330
CC
100
AcDbEntity
  8
Sketch2
100
AcDbLine
 10
-217.8417873314874
 20
686.5570068208127
 30
0.5
 11
-217.3874282836914
 21
685.5418395996093
 31
0.5
  0
LINE
  5
124
330
CC
100
AcDbEntity
  8
Sketch2
100
AcDbLine
 10
-217.3874282836914
 20
685.5418395996093
 30
0.5
 11
-216.8350601113993
 21
684.5764922951878
 31
0.5
  0
LINE
  5
125
330
CC
100
AcDbEntity
  8
Sketch2
100
AcDbLine
 10
-171.6355896238181
 20
766.1161041267007
 30
0.5
 11
-173.2603073120117
 21
766.1647033691406
 31
0.5
  0
LINE
  5
126
330
CC
100
AcDbEntity
  8
Sketch2
100
AcDbLine
 10
-216.8350601113993
 20
684.5764922951878
 30
0.5
 11
-216.2826919555664
 21
683.6111450195312
 31
0.5
  0
LINE
  5
127
330
CC
100
AcDbEntity
  8
Sketch2
100
AcDbLine
 10
-195.9870623642095
 20
645.6648250212658
 30
0.5
 11
-189.9453353881836
 21
617.5962066650391
 31
0.5
  0
LINE
  5
128
330
CC
100
AcDbEntity
  8
Sketch2
100
AcDbLine
 10
-218.2961463928223
 20
687.5721740722656
 30
0.5
 11
-217.8417873314874
 21
686.5570068208127
 31
0.5
  0
LINE
  5
129
330
CC
100
AcDbEntity
  8
Sketch2
100
AcDbLine
 10
-214.1445256613257
 20
779.0971374272037
 30
0.5
 11
-223.096809387207
 21
777.4883270263671
 31
0.5
  0
LINE
  5
12A
330
CC
100
AcDbEntity
  8
Sketch2
100
AcDbLine
 10
-223.096809387207
 20
777.4883270263671
 30
0.5
 11
-227.7305794452527
 21
771.3793181462952
 31
0.5
  0
LINE
  5
12B
330
CC
100
AcDbEntity
  8
Sketch2
100
AcDbLine
 10
-147.877607345581
 20
459.7394943237304
 30
0.5
 11
-147.347593413099
 21
459.0860999111627
 31
0.5
  0
LINE
  5
12C
330
CC
100
AcDbEntity
  8
Sketch2
100
AcDbLine
 10
-167.4548530578613
 20
765.5668640136719
 30
0.5
 11
-168.0836010072934
 21
765.7444000270594
 31
0.5
  0
LINE
  5
12D
330
CC
100
AcDbEntity
  8
Sketch2
100
AcDbLine
 10
-214.9926948547363
 20
681.7989349365234
 30
0.5
 11
-214.2613792310476
 21
680.9609603756986
 31
0.5000000000000001
  0
LINE
  5
12E
330
CC
100
AcDbEntity
  8
Sketch2
100
AcDbLine
 10
-206.2613677978516
 20
675.0859069824218
 30
0.5
 11
-205.2199554288197
 21
674.6954345644947
 31
0.5
  0
LINE
  5
12F
330
CC
100
AcDbEntity
  8
Sketch2
100
AcDbLine
 10
-149.4498825073242
 20
462.7069854736328
 30
0.5
 11
-149.1049321424792
 21
461.9396280282515
 31
0.5
  0
LINE
  5
130
330
CC
100
AcDbEntity
  8
Sketch2
100
AcDbLine
 10
-166.2719345092773
 20
765.0119018554687
 30
0.5
 11
-166.8633937923823
 21
765.289382938705
 31
0.5
  0
LINE
  5
131
330
CC
100
AcDbEntity
  8
Sketch2
100
AcDbLine
 10
-232.3643493652344
 20
765.2703094482421
 30
0.5
 11
-225.9281340550261
 21
728.5610149742296
 31
0.5
  0
LINE
  5
132
330
CC
100
AcDbEntity
  8
Sketch2
100
AcDbLine
 10
-219.2459297510081
 20
690.7670594716403
 30
0.5
 11
-218.9999389648438
 21
689.682388305664
 31
0.5
  0
LINE
  5
133
330
CC
100
AcDbEntity
  8
Sketch2
100
AcDbLine
 10
-165.7335281452296
 20
764.6417999322725
 30
0.5
 11
-166.2719345092773
 21
765.0119018554687
 31
0.5
  0
LINE
  5
134
330
CC
100
AcDbEntity
  8
Sketch2
100
AcDbLine
 10
-189.2262747282314
 20
773.4353257308827
 30
0.5
 11
-205.1922416687012
 21
780.7059478759765
 31
0.5
  0
LINE
  5
135
330
CC
100
AcDbEntity
  8
Sketch2
100
AcDbLine
 10
-169.3616104222719
 20
765.994720460069
 30
0.5
 11
-170.010871887207
 21
766.0675048828125
 31
0.5
  0
LINE
  5
136
330
CC
100
AcDbEntity
  8
Sketch2
100
AcDbLine
 10
-218.6480426735902
 20
688.6272811732451
 30
0.5000000000000001
 11
-218.2961463928223
 21
687.5721740722656
 31
0.5
  0
LINE
  5
137
330
CC
100
AcDbEntity
  8
Sketch2
100
AcDbLine
 10
-203.1036662895279
 20
674.0192031817777
 30
0.5
 11
-202.0287895202637
 21
673.7334442138672
 31
0.5
  0
LINE
  5
138
330
CC
100
AcDbEntity
  8
Sketch2
100
AcDbLine
 10
-189.9453353881836
 20
617.5962066650391
 30
0.5
 11
-169.6979954163654
 21
540.1523654597575
 31
0.5
  0
LINE
  5
139
330
CC
100
AcDbEntity
  8
Sketch2
100
AcDbLine
 10
-215.6376933955416
 20
682.7050399645274
 30
0.5
 11
-214.9926948547363
 21
681.7989349365234
 31
0.5
  0
LINE
  5
13A
330
CC
100
AcDbEntity
  8
Sketch2
100
AcDbLine
 10
-147.347593413099
 20
459.0860999111627
 30
0.5
 11
-146.817569732666
 21
458.4326934814453
 31
0.5
  0
LINE
  5
13B
330
CC
100
AcDbEntity
  8
Sketch2
100
AcDbLine
 10
-146.2076004807607
 20
457.8532462953575
 30
0.5
 11
-145.5976200103759
 21
457.2737884521484
 31
0.5
  0
LINE
  5
13C
330
CC
100
AcDbEntity
  8
Sketch2
100
AcDbLine
 10
-145.5976200103759
 20
457.2737884521484
 30
0.5
 11
-144.9179139653787
 21
456.7779586611827
 31
0.5
  0
LINE
  5
13D
330
CC
100
AcDbEntity
  8
Sketch2
100
AcDbLine
 10
-213.5300636291504
 20
680.1229858398437
 30
0.5
 11
-212.7195739625339
 21
679.3613433724414
 31
0.5
  0
LINE
  5
13E
330
CC
100
AcDbEntity
  8
Sketch2
100
AcDbLine
 10
-146.817569732666
 20
458.4326934814453
 30
0.5
 11
-146.2076004807607
 21
457.8532462953575
 31
0.5
  0
LINE
  5
13F
330
CC
100
AcDbEntity
  8
Sketch2
100
AcDbLine
 10
-173.2603073120117
 20
766.1647033691406
 30
0.5
 11
-189.2262747282314
 21
773.4353257308827
 31
0.5
  0
LINE
  5
140
330
CC
100
AcDbEntity
  8
Sketch2
100
AcDbLine
 10
-148.3187954465293
 20
460.4558819844641
 30
0.5
 11
-147.877607345581
 21
459.7394943237304
 31
0.5
  0
LINE
  5
141
330
CC
100
AcDbEntity
  8
Sketch2
100
AcDbLine
 10
-209.2012595989669
 20
676.6563415439805
 30
0.5000000000000001
 11
-208.256893157959
 21
676.0688018798828
 31
0.5
  0
LINE
  5
142
330
CC
100
AcDbEntity
  8
Sketch2
100
AcDbLine
 10
-204.1785430908203
 20
674.3049621582031
 30
0.5
 11
-203.1036662895279
 21
674.0192031817777
 31
0.5
  0
LINE
  5
143
330
CC
100
AcDbEntity
  8
Sketch2
100
AcDbLine
 10
-144.9179139653787
 20
456.7779586611827
 30
0.5
 11
-144.2381954193115
 21
456.2821197509765
 31
0.5
  0
LINE
  5
144
330
CC
100
AcDbEntity
  8
Sketch2
100
AcDbLine
 10
-142.7620697021484
 20
455.4743957519531
 30
0.5
 11
-141.9780326463577
 21
455.1692418503659
 31
0.5
  0
LINE
  5
145
330
CC
100
AcDbEntity
  8
Sketch2
100
AcDbLine
 10
-216.2826919555664
 20
683.6111450195312
 30
0.5
 11
-215.6376933955416
 21
682.7050399645274
 31
0.5
  0
LINE
  5
146
330
CC
100
AcDbEntity
  8
Sketch2
100
AcDbLine
 10
-212.7195739625339
 20
679.3613433724414
 30
0.5
 11
-211.9090843200683
 21
678.5997009277344
 31
0.5
  0
LINE
  5
147
330
CC
100
AcDbEntity
  8
Sketch2
100
AcDbLine
 10
-214.2613792310476
 20
680.9609603756986
 30
0.5000000000000001
 11
-213.5300636291504
 21
680.1229858398437
 31
0.5
  0
LINE
  5
148
330
CC
100
AcDbEntity
  8
Sketch2
100
AcDbLine
 10
-143.500139347848
 20
455.8782614653206
 30
0.5
 11
-142.7620697021484
 21
455.4743957519531
 31
0.5
  0
LINE
  5
149
330
CC
100
AcDbEntity
  8
Sketch2
100
AcDbLine
 10
-225.9281340550261
 20
728.5610149742296
 30
0.5
 11
-219.4919204711914
 21
691.8517303466797
 31
0.5
  0
LINE
  5
14A
330
CC
100
AcDbEntity
  8
Sketch2
100
AcDbLine
 10
-168.0836010072934
 20
765.7444000270594
 30
0.5
 11
-168.7123489379882
 21
765.9219360351563
 31
0.5000000000000001
  0
LINE
  5
14B
330
CC
100
AcDbEntity
  8
Sketch2
100
AcDbLine
 10
-148.7599754333496
 20
461.1722564697266
 30
0.5
 11
-148.3187954465293
 21
460.4558819844641
 31
0.5
  0
LINE
  5
14C
330
CC
100
AcDbEntity
  8
Sketch2
100
AcDbLine
 10
-141.9780326463577
 20
455.1692418503659
 30
0.5
 11
-141.1939811706543
 21
454.8640823364258
 31
0.5
  0
LINE
  5
14D
330
CC
100
AcDbEntity
  8
Sketch2
100
AcDbLine
 10
-141.1939811706543
 20
454.8640823364258
 30
0.5
 11
-140.3770951051124
 21
454.6627444662367
 31
0.5
  0
LINE
  5
14E
330
CC
100
AcDbEntity
  8
Sketch2
100
AcDbLine
 10
-205.1922416687012
 20
780.7059478759765
 30
0.5
 11
-214.1445256613257
 21
779.0971374272037
 31
0.5
  0
LINE
  5
14F
330
CC
100
AcDbEntity
  8
Sketch2
100
AcDbLine
 10
-170.010871887207
 20
766.0675048828125
 30
0.5
 11
-171.6355896238181
 21
766.1161041267007
 31
0.5
  0
LINE
  5
150
330
CC
100
AcDbEntity
  8
Sketch2
100
AcDbLine
 10
-207.2591304630394
 20
675.5773544238302
 30
0.5
 11
-206.2613677978516
 21
675.0859069824218
 31
0.5
  0
LINE
  5
151
330
CC
100
AcDbEntity
  8
Sketch2
100
AcDbLine
 10
-169.6979954163654
 20
540.1523654597575
 30
0.5
 11
-149.4498825073242
 21
462.7069854736328
 31
0.5
  0
LINE
  5
152
330
CC
100
AcDbEntity
  8
Sketch2
100
AcDbLine
 10
-149.1049321424792
 20
461.9396280282515
 30
0.5
 11
-148.7599754333496
 21
461.1722564697266
 31
0.5
  0
LINE
  5
153
330
CC
100
AcDbEntity
  8
Sketch2
100
AcDbLine
 10
-208.256893157959
 20
676.0688018798828
 30
0.5
 11
-207.2591304630394
 21
675.5773544238302
 31
0.5
  0
LINE
  5
154
330
CC
100
AcDbEntity
  8
Sketch2
100
AcDbLine
 10
-211.0273551809549
 20
677.9217910665599
 30
0.5000000000000001
 11
-210.1456260681152
 21
677.2438812255859
 31
0.5
  0
LINE
  5
155
330
CC
100
AcDbEntity
  8
Sketch2
100
AcDbLine
 10
-211.9090843200683
 20
678.5997009277344
 30
0.5
 11
-211.0273551809549
 21
677.9217910665599
 31
0.5000000000000001
  0
LINE
  5
156
330
CC
100
AcDbEntity
  8
Sketch2
100
AcDbLine
 10
-205.2199554288197
 20
674.6954345644947
 30
0.5
 11
-204.1785430908203
 21
674.3049621582031
 31
0.5
  0
LINE
  5
157
330
CC
100
AcDbEntity
  8
Sketch2
100
AcDbLine
 10
-133.7317493482272
 20
454.7784402710328
 30
0.5
 11
-132.9223537445068
 21
455.0080871582031
 31
0.5
  0
LINE
  5
158
330
CC
100
AcDbEntity
  8
Sketch2
100
AcDbLine
 10
-144.3613910675049
 20
700.4534912109375
 30
0.5
 11
-145.1491364926405
 21
700.9209009440764
 31
0.5
  0
LINE
  5
159
330
CC
100
AcDbEntity
  8
Sketch2
100
AcDbLine
 10
-138.3506298065185
 20
696.2492370605469
 30
0.5
 11
-138.7983469034511
 21
696.7887444115526
 31
0.5
  0
LINE
  5
15A
330
CC
100
AcDbEntity
  8
Sketch2
100
AcDbLine
 10
-146.674548647528
 20
701.9313752737016
 30
0.5
 11
-147.4122142791748
 21
702.4744415283203
 31
0.5
  0
LINE
  5
15B
330
CC
100
AcDbEntity
  8
Sketch2
100
AcDbLine
 10
-130.6529111641824
 20
456.1019667245968
 30
0.5
 11
-129.9293518066406
 21
456.5312957763672
 31
0.5
  0
LINE
  5
15C
330
CC
100
AcDbEntity
  8
Sketch2
100
AcDbLine
 10
-147.4122142791748
 20
702.4744415283203
 30
0.5
 11
-148.0925390066429
 21
703.0877999792419
 31
0.5
  0
LINE
  5
15D
330
CC
100
AcDbEntity
  8
Sketch2
100
AcDbLine
 10
-148.0925390066429
 20
703.0877999792419
 30
0.5
 11
-148.7728786468506
 21
703.701171875
 31
0.5
  0
LINE
  5
15E
330
CC
100
AcDbEntity
  8
Sketch2
100
AcDbLine
 10
-148.7728786468506
 20
703.701171875
 30
0.5
 11
-149.3892029923899
 21
704.3788072703709
 31
0.5
  0
LINE
  5
15F
330
CC
100
AcDbEntity
  8
Sketch2
100
AcDbLine
 10
-149.3892029923899
 20
704.3788072703709
 30
0.5
 11
-150.0055408477783
 21
705.0564575195312
 31
0.5
  0
LINE
  5
160
330
CC
100
AcDbEntity
  8
Sketch2
100
AcDbLine
 10
-136.2056732177734
 20
454.3024444580078
 30
0.5
 11
-135.373409295293
 21
454.4256199000011
 31
0.5
  0
LINE
  5
161
330
CC
100
AcDbEntity
  8
Sketch2
100
AcDbLine
 10
-128.0158526264524
 20
458.1699888336281
 30
0.5
 11
-127.4264144897461
 21
458.7703323364258
 31
0.5
  0
LINE
  5
162
330
CC
100
AcDbEntity
  8
Sketch2
100
AcDbLine
 10
-138.077927697596
 20
685.0328884694164
 30
0.5
 11
-137.6994323730468
 21
685.6230163574219
 31
0.5
  0
LINE
  5
163
330
CC
100
AcDbEntity
  8
Sketch2
100
AcDbLine
 10
-139.7648522118871
 20
697.7998305871182
 30
0.5
 11
-140.2836418151855
 21
698.2714080810547
 31
0.5
  0
LINE
  5
164
330
CC
100
AcDbEntity
  8
Sketch2
100
AcDbLine
 10
-126.9194697268348
 20
459.4417891744458
 30
0.5
 11
-126.4125156402588
 21
460.1132583618164
 31
0.5
  0
LINE
  5
165
330
CC
100
AcDbEntity
  8
Sketch2
100
AcDbLine
 10
-126.4125156402588
 20
460.1132583618164
 30
0.5
 11
-125.9965410338336
 21
460.8445672495384
 31
0.5
  0
LINE
  5
166
330
CC
100
AcDbEntity
  8
Sketch2
100
AcDbLine
 10
-129.9293518066406
 20
456.5312957763672
 30
0.5
 11
-129.2673219525482
 21
457.050471299913
 31
0.5
  0
LINE
  5
167
330
CC
100
AcDbEntity
  8
Sketch2
100
AcDbLine
 10
-138.9137461701103
 20
683.9113668980393
 30
0.5
 11
-138.4564304351806
 21
684.4427490234375
 31
0.5
  0
LINE
  5
168
330
CC
100
AcDbEntity
  8
Sketch2
100
AcDbLine
 10
-135.6526279449463
 20
603.6651229858398
 30
0.5
 11
-139.1211177241279
 21
641.3299437908706
 31
0.5
  0
LINE
  5
169
330
CC
100
AcDbEntity
  8
Sketch2
100
AcDbLine
 10
-130.6166441741462
 20
532.6212231219567
 30
0.5
 11
-135.6526279449463
 21
603.6651229858398
 31
0.5
  0
LINE
  5
16A
330
CC
100
AcDbEntity
  8
Sketch2
100
AcDbLine
 10
-137.407200814027
 20
686.26025529531
 30
0.5
 11
-137.1149635314941
 21
686.8975067138672
 31
0.5
  0
LINE
  5
16B
330
CC
100
AcDbEntity
  8
Sketch2
100
AcDbLine
 10
-137.1149635314941
 20
686.8975067138672
 30
0.5
 11
-136.9147415694923
 21
687.569420910333
 31
0.5
  0
LINE
  5
16C
330
CC
100
AcDbEntity
  8
Sketch2
100
AcDbLine
 10
-137.8880882263183
 20
454.2731475830078
 30
0.5
 11
-137.0468884576667
 21
454.2877958858029
 31
0.5
  0
LINE
  5
16D
330
CC
100
AcDbEntity
  8
Sketch2
100
AcDbLine
 10
-125.5805587768554
 20
461.5758895874023
 30
0.5
 11
-130.6166441741462
 21
532.6212231219567
 31
0.5
  0
LINE
  5
16E
330
CC
100
AcDbEntity
  8
Sketch2
100
AcDbLine
 10
-140.2992245539476
 20
682.3710515699888
 30
0.5
 11
-139.3710708618164
 21
683.3799743652344
 31
0.5
  0
LINE
  5
16F
330
CC
100
AcDbEntity
  8
Sketch2
100
AcDbLine
 10
-136.7145156860351
 20
688.2413482666016
 30
0.5
 11
-136.610237189083
 21
688.9346245585608
 31
0.5
  0
LINE
  5
170
330
CC
100
AcDbEntity
  8
Sketch2
100
AcDbLine
 10
-139.3710708618164
 20
683.3799743652344
 30
0.5
 11
-138.9137461701103
 21
683.9113668980393
 31
0.5
  0
LINE
  5
171
330
CC
100
AcDbEntity
  8
Sketch2
100
AcDbLine
 10
-136.610237189083
 20
688.9346245585608
 30
0.5
 11
-136.5059566497802
 21
689.6279144287109
 31
0.5
  0
LINE
  5
172
330
CC
100
AcDbEntity
  8
Sketch2
100
AcDbLine
 10
-136.5059566497802
 20
689.6279144287109
 30
0.5
 11
-136.4996767659041
 21
690.3289344802865
 31
0.5
  0
LINE
  5
173
330
CC
100
AcDbEntity
  8
Sketch2
100
AcDbLine
 10
-132.9223537445068
 20
455.0080871582031
 30
0.5
 11
-132.14941258735
 21
455.3403633079345
 31
0.5
  0
LINE
  5
174
330
CC
100
AcDbEntity
  8
Sketch2
100
AcDbLine
 10
-132.14941258735
 20
455.3403633079345
 30
0.5
 11
-131.3764572143554
 21
455.6726455688476
 31
0.5
  0
LINE
  5
175
330
CC
100
AcDbEntity
  8
Sketch2
100
AcDbLine
 10
-129.2673219525482
 20
457.050471299913
 30
0.5
 11
-128.6052799224853
 21
457.5696563720703
 31
0.5
  0
LINE
  5
176
330
CC
100
AcDbEntity
  8
Sketch2
100
AcDbLine
 10
-136.8652229957612
 20
693.095429482296
 30
0.5
 11
-137.0533752441406
 21
693.7708282470703
 31
0.5
  0
LINE
  5
177
330
CC
100
AcDbEntity
  8
Sketch2
100
AcDbLine
 10
-137.0533752441406
 20
693.7708282470703
 30
0.5
 11
-137.3341389818074
 21
694.4132169758363
 31
0.5
  0
LINE
  5
178
330
CC
100
AcDbEntity
  8
Sketch2
100
AcDbLine
 10
-137.3341389818074
 20
694.4132169758363
 30
0.5
 11
-137.6149082183838
 21
695.0556182861328
 31
0.5
  0
LINE
  5
179
330
CC
100
AcDbEntity
  8
Sketch2
100
AcDbLine
 10
-125.9965410338336
 20
460.8445672495384
 30
0.5
 11
-125.5805587768554
 21
461.5758895874023
 31
0.5
  0
LINE
  5
17A
330
CC
100
AcDbEntity
  8
Sketch2
100
AcDbLine
 10
-127.4264144897461
 20
458.7703323364258
 30
0.5
 11
-126.9194697268348
 21
459.4417891744458
 31
0.5
  0
LINE
  5
17B
330
CC
100
AcDbEntity
  8
Sketch2
100
AcDbLine
 10
-137.6994323730468
 20
685.6230163574219
 30
0.5
 11
-137.407200814027
 21
686.26025529531
 31
0.5
  0
LINE
  5
17C
330
CC
100
AcDbEntity
  8
Sketch2
100
AcDbLine
 10
-136.9147415694923
 20
687.569420910333
 30
0.5
 11
-136.7145156860351
 21
688.2413482666016
 31
0.5
  0
LINE
  5
17D
330
CC
100
AcDbEntity
  8
Sketch2
100
AcDbLine
 10
-138.7983469034511
 20
696.7887444115526
 30
0.5
 11
-139.246072769165
 21
697.3282623291015
 31
0.5
  0
LINE
  5
17E
330
CC
100
AcDbEntity
  8
Sketch2
100
AcDbLine
 10
-140.8632793884394
 20
698.6658057691015
 30
0.5
 11
-141.442928314209
 21
699.0602111816406
 31
0.5
  0
LINE
  5
17F
330
CC
100
AcDbEntity
  8
Sketch2
100
AcDbLine
 10
-141.442928314209
 20
699.0602111816406
 30
0.5
 11
-142.0720277215148
 21
699.369618246903
 31
0.5
  0
LINE
  5
180
330
CC
100
AcDbEntity
  8
Sketch2
100
AcDbLine
 10
-145.1491364926405
 20
700.9209009440764
 30
0.5
 11
-145.9368991851806
 21
701.3883209228516
 31
0.5
  0
LINE
  5
181
330
CC
100
AcDbEntity
  8
Sketch2
100
AcDbLine
 10
-145.9368991851806
 20
701.3883209228516
 30
0.5
 11
-146.674548647528
 21
701.9313752737016
 31
0.5
  0
LINE
  5
182
330
CC
100
AcDbEntity
  8
Sketch2
100
AcDbLine
 10
-134.5411300659179
 20
454.5487976074219
 30
0.5
 11
-133.7317493482272
 21
454.7784402710328
 31
0.5
  0
LINE
  5
183
330
CC
100
AcDbEntity
  8
Sketch2
100
AcDbLine
 10
-139.1211177241279
 20
641.3299437908706
 30
0.5
 11
-142.5896835327148
 21
678.9955902099609
 31
0.5
  0
LINE
  5
184
330
CC
100
AcDbEntity
  8
Sketch2
100
AcDbLine
 10
-141.1483084922522
 20
681.2985869765809
 30
0.5
 11
-140.2992245539476
 21
682.3710515699888
 31
0.5
  0
LINE
  5
185
330
CC
100
AcDbEntity
  8
Sketch2
100
AcDbLine
 10
-136.4996767659041
 20
690.3289344802865
 30
0.5
 11
-136.4933967590332
 21
691.0299682617187
 31
0.5
  0
LINE
  5
186
330
CC
100
AcDbEntity
  8
Sketch2
100
AcDbLine
 10
-136.677074432373
 20
692.4200439453125
 30
0.5
 11
-136.8652229957612
 21
693.095429482296
 31
0.5
  0
LINE
  5
187
330
CC
100
AcDbEntity
  8
Sketch2
100
AcDbLine
 10
-140.2836418151855
 20
698.2714080810547
 30
0.5
 11
-140.8632793884394
 21
698.6658057691015
 31
0.5
  0
LINE
  5
188
330
CC
100
AcDbEntity
  8
Sketch2
100
AcDbLine
 10
-142.0720277215148
 20
699.369618246903
 30
0.5
 11
-142.7011394500732
 21
699.6790313720703
 31
0.5
  0
LINE
  5
189
330
CC
100
AcDbEntity
  8
Sketch2
100
AcDbLine
 10
-143.5312738827399
 20
700.0662653143299
 30
0.5
 11
-144.3613910675049
 21
700.4534912109375
 31
0.5
  0
LINE
  5
18A
330
CC
100
AcDbEntity
  8
Sketch2
100
AcDbLine
 10
-137.0468884576667
 20
454.2877958858029
 30
0.5
 11
-136.2056732177734
 21
454.3024444580078
 31
0.5
  0
LINE
  5
18B
330
CC
100
AcDbEntity
  8
Sketch2
100
AcDbLine
 10
-137.9827654101102
 20
695.6524218289798
 30
0.5
 11
-138.3506298065185
 21
696.2492370605469
 31
0.5
  0
LINE
  5
18C
330
CC
100
AcDbEntity
  8
Sketch2
100
AcDbLine
 10
-139.246072769165
 20
697.3282623291015
 30
0.5
 11
-139.7648522118871
 21
697.7998305871182
 31
0.5
  0
LINE
  5
18D
330
CC
100
AcDbEntity
  8
Sketch2
100
AcDbLine
 10
-128.6052799224853
 20
457.5696563720703
 30
0.5
 11
-128.0158526264524
 21
458.1699888336281
 31
0.5
  0
LINE
  5
18E
330
CC
100
AcDbEntity
  8
Sketch2
100
AcDbLine
 10
-142.5896835327148
 20
678.9955902099609
 30
0.5
 11
-141.9111612147221
 21
680.1738610139448
 31
0.5
  0
LINE
  5
18F
330
CC
100
AcDbEntity
  8
Sketch2
100
AcDbLine
 10
-135.373409295293
 20
454.4256199000011
 30
0.5
 11
-134.5411300659179
 21
454.5487976074219
 31
0.5
  0
LINE
  5
190
330
CC
100
AcDbEntity
  8
Sketch2
100
AcDbLine
 10
-141.9111612147221
 20
680.1738610139448
 30
0.5
 11
-141.1483084922522
 21
681.2985869765809
 31
0.5
  0
LINE
  5
191
330
CC
100
AcDbEntity
  8
Sketch2
100
AcDbLine
 10
-138.4564304351806
 20
684.4427490234375
 30
0.5
 11
-138.077927697596
 21
685.0328884694164
 31
0.5
  0
LINE
  5
192
330
CC
100
AcDbEntity
  8
Sketch2
100
AcDbLine
 10
-136.4933967590332
 20
691.0299682617187
 30
0.5
 11
-136.5852346963553
 21
691.7249992972364
 31
0.5
  0
LINE
  5
193
330
CC
100
AcDbEntity
  8
Sketch2
100
AcDbLine
 10
-131.3764572143554
 20
455.6726455688476
 30
0.5
 11
-130.6529111641824
 21
456.1019667245968
 31
0.5
  0
LINE
  5
194
330
CC
100
AcDbEntity
  8
Sketch2
100
AcDbLine
 10
-136.5852346963553
 20
691.7249992972364
 30
0.5
 11
-136.677074432373
 21
692.4200439453125
 31
0.5
  0
LINE
  5
195
330
CC
100
AcDbEntity
  8
Sketch2
100
AcDbLine
 10
-137.6149082183838
 20
695.0556182861328
 30
0.5
 11
-137.9827654101102
 21
695.6524218289798
 31
0.5
  0
LINE
  5
196
330
CC
100
AcDbEntity
  8
Sketch2
100
AcDbLine
 10
-142.7011394500732
 20
699.6790313720703
 30
0.5
 11
-143.5312738827399
 21
700.0662653143299
 31
0.5
  0
LINE
  5
197
330
CC
100
AcDbEntity
  8
Sketch2
100
AcDbLine
 10
-167.4162673950195
 20
760.4131317138672
 30
0.5
 11
-167.2927842911841
 21
760.2336100930301
 31
0.5
  0
LINE
  5
198
330
CC
100
AcDbEntity
  8
Sketch2
100
AcDbLine
 10
-162.1756553649902
 20
731.5000915527344
 30
0.5
 11
-162.5464248601977
 21
732.108955374228
 31
0.5
  0
LINE
  5
199
330
CC
100
AcDbEntity
  8
Sketch2
100
AcDbLine
 10
-168.4701156616211
 20
761.1641693115234
 30
0.5
 11
-168.2734086412541
 21
761.0704411724675
 31
0.5
  0
LINE
  5
19A
330
CC
100
AcDbEntity
  8
Sketch2
100
AcDbLine
 10
-160.7699584960937
 20
729.0192413330077
 30
0.5
 11
-161.1148815262616
 21
729.6431316402844
 31
0.5
  0
LINE
  5
19B
330
CC
100
AcDbEntity
  8
Sketch2
100
AcDbLine
 10
-166.8655874624589
 20
758.5844397614299
 30
0.5
 11
-166.8863868713379
 21
758.3675384521484
 31
0.5
  0
LINE
  5
19C
330
CC
100
AcDbEntity
  8
Sketch2
100
AcDbLine
 10
-166.8863868713379
 20
758.3675384521484
 30
0.5
 11
-166.9445330316781
 21
758.1575370661076
 31
0.5
  0
LINE
  5
19D
330
CC
100
AcDbEntity
  8
Sketch2
100
AcDbLine
 10
-167.1901130676269
 20
757.5541687011718
 30
0.5
 11
-167.3165716679403
 21
757.3767451868256
 31
0.5
  0
LINE
  5
19E
330
CC
100
AcDbEntity
  8
Sketch2
100
AcDbLine
 10
-156.7957490232049
 20
719.3871396125445
 30
0.5
 11
-160.7699584960937
 21
729.0192413330077
 31
0.5
  0
LINE
  5
19F
330
CC
100
AcDbEntity
  8
Sketch2
100
AcDbLine
 10
-167.4430274963379
 20
757.1993255615234
 30
0.5
 11
-167.5983827451392
 21
757.0465071142065
 31
0.5
  0
LINE
  5
1A0
330
CC
100
AcDbEntity
  8
Sketch2
100
AcDbLine
 10
-151.5689988979737
 20
707.3126897533409
 30
0.5
 11
-152.0398902893066
 21
708.0983734130859
 31
0.5
  0
LINE
  5
1A1
330
CC
100
AcDbEntity
  8
Sketch2
100
AcDbLine
 10
-162.9171943664551
 20
732.7178192138672
 30
0.5
 11
-163.5484435657129
 21
733.8030887158544
 31
0.5
  0
LINE
  5
1A2
330
CC
100
AcDbEntity
  8
Sketch2
100
AcDbLine
 10
-166.9337934228015
 20
759.4466758500187
 30
0.5
 11
-166.8791580200195
 21
759.2357635498046
 31
0.5
  0
LINE
  5
1A3
330
CC
100
AcDbEntity
  8
Sketch2
100
AcDbLine
 10
-152.0398902893066
 20
708.0983734130859
 30
0.5
 11
-152.4307541923825
 21
708.9268021386693
 31
0.5
  0
LINE
  5
1A4
330
CC
100
AcDbEntity
  8
Sketch2
100
AcDbLine
 10
-166.8619726204897
 20
759.0185523069134
 30
0.5
 11
-166.8447875976562
 21
758.8013458251952
 31
0.5
  0
LINE
  5
1A5
330
CC
100
AcDbEntity
  8
Sketch2
100
AcDbLine
 10
-167.5983827451392
 20
757.0465071142065
 30
0.5
 11
-167.753734588623
 21
756.8936920166016
 31
0.5
  0
LINE
  5
1A6
330
CC
100
AcDbEntity
  8
Sketch2
100
AcDbLine
 10
-167.0026779174804
 20
757.9475402832031
 30
0.5
 11
-167.0963965196886
 21
757.7508523365316
 31
0.5
  0
LINE
  5
1A7
330
CC
100
AcDbEntity
  8
Sketch2
100
AcDbLine
 10
-167.753734588623
 20
756.8936920166016
 30
0.5
 11
-167.9332562094601
 21
756.770208912766
 31
0.5
  0
LINE
  5
1A8
330
CC
100
AcDbEntity
  8
Sketch2
100
AcDbLine
 10
-168.1127738952636
 20
756.646728515625
 30
0.5
 11
-168.3110068112602
 21
756.5563191995637
 31
0.5
  0
LINE
  5
1A9
330
CC
100
AcDbEntity
  8
Sketch2
100
AcDbLine
 10
-168.3110068112602
 20
756.5563191995637
 30
0.5
 11
-168.5092353820801
 21
756.4659118652343
 31
0.5
  0
LINE
  5
1AA
330
CC
100
AcDbEntity
  8
Sketch2
100
AcDbLine
 10
-168.2734086412541
 20
761.0704411724675
 30
0.5
 11
-168.0767059326172
 21
760.9767150878906
 31
0.5
  0
LINE
  5
1AB
330
CC
100
AcDbEntity
  8
Sketch2
100
AcDbLine
 10
-169.1069865297228
 20
761.3012693029745
 30
0.5
 11
-168.89009475708
 21
761.2804412841796
 31
0.5
  0
LINE
  5
1AC
330
CC
100
AcDbEntity
  8
Sketch2
100
AcDbLine
 10
-166.9445330316781
 20
758.1575370661076
 30
0.5
 11
-167.0026779174804
 21
757.9475402832031
 31
0.5
  0
LINE
  5
1AD
330
CC
100
AcDbEntity
  8
Sketch2
100
AcDbLine
 10
-168.7201713791942
 20
756.4112466542995
 30
0.5
 11
-168.9311027526855
 21
756.3565826416016
 31
0.5
  0
LINE
  5
1AE
330
CC
100
AcDbEntity
  8
Sketch2
100
AcDbLine
 10
-169.3655204772949
 20
756.3222503662109
 30
0.5
 11
-169.5824170042127
 21
756.343040694166
 31
0.5
  0
LINE
  5
1AF
330
CC
100
AcDbEntity
  8
Sketch2
100
AcDbLine
 10
-167.0788659674387
 20
759.8558404175345
 30
0.5
 11
-166.9884300231933
 21
759.6575927734375
 31
0.5
  0
LINE
  5
1B0
330
CC
100
AcDbEntity
  8
Sketch2
100
AcDbLine
 10
-161.1148815262616
 20
729.6431316402844
 30
0.5
 11
-161.4598083496094
 21
730.2670288085937
 31
0.5
  0
LINE
  5
1B1
330
CC
100
AcDbEntity
  8
Sketch2
100
AcDbLine
 10
-150.0055408477783
 20
705.0564575195312
 30
0.5
 11
-150.5518233508086
 21
705.7917323588561
 31
0.5
  0
LINE
  5
1B2
330
CC
100
AcDbEntity
  8
Sketch2
100
AcDbLine
 10
-168.5092353820801
 20
756.4659118652343
 30
0.5
 11
-168.7201713791942
 21
756.4112466542995
 31
0.5
  0
LINE
  5
1B3
330
CC
100
AcDbEntity
  8
Sketch2
100
AcDbLine
 10
-169.5824170042127
 20
756.343040694166
 30
0.5
 11
-169.7993087768554
 21
756.3638305664063
 31
0.5
  0
LINE
  5
1B4
330
CC
100
AcDbEntity
  8
Sketch2
100
AcDbLine
 10
-169.7993087768554
 20
756.3638305664063
 30
0.5
 11
-170.0093006260487
 21
756.4219671898988
 31
0.5
  0
LINE
  5
1B5
330
CC
100
AcDbEntity
  8
Sketch2
100
AcDbLine
 10
-170.2192878723144
 20
756.4801025390624
 30
0.5
 11
-170.4159853558337
 21
756.5738306781184
 31
0.5
  0
LINE
  5
1B6
330
CC
100
AcDbEntity
  8
Sketch2
100
AcDbLine
 10
-170.612678527832
 20
756.6675567626953
 30
0.5
 11
-170.7901211158737
 21
756.7940153630088
 31
0.5
  0
LINE
  5
1B7
330
CC
100
AcDbEntity
  8
Sketch2
100
AcDbLine
 10
-167.9332562094601
 20
756.770208912766
 30
0.5
 11
-168.1127738952636
 21
756.646728515625
 31
0.5
  0
LINE
  5
1B8
330
CC
100
AcDbEntity
  8
Sketch2
100
AcDbLine
 10
-167.8992728814232
 20
760.850256487577
 30
0.5
 11
-167.7218437194824
 21
760.7238006591797
 31
0.5
  0
LINE
  5
1B9
330
CC
100
AcDbEntity
  8
Sketch2
100
AcDbLine
 10
-150.5518233508086
 20
705.7917323588561
 30
0.5
 11
-151.0981178283691
 21
706.5270233154296
 31
0.5
  0
LINE
  5
1BA
330
CC
100
AcDbEntity
  8
Sketch2
100
AcDbLine
 10
-152.4307541923825
 20
708.9268021386693
 30
0.5
 11
-152.821626663208
 21
709.7552490234375
 31
0.5
  0
LINE
  5
1BB
330
CC
100
AcDbEntity
  8
Sketch2
100
AcDbLine
 10
-163.5484435657129
 20
733.8030887158544
 30
0.5
 11
-164.1113791883853
 21
734.9234649187853
 31
0.5
  0
LINE
  5
1BC
330
CC
100
AcDbEntity
  8
Sketch2
100
AcDbLine
 10
-169.3238830566406
 20
761.3220977783202
 30
0.5
 11
-169.1069865297228
 21
761.3012693029745
 31
0.5
  0
LINE
  5
1BD
330
CC
100
AcDbEntity
  8
Sketch2
100
AcDbLine
 10
-168.89009475708
 20
761.2804412841796
 30
0.5
 11
-168.6801029078868
 21
761.2223046606871
 31
0.5
  0
LINE
  5
1BE
330
CC
100
AcDbEntity
  8
Sketch2
100
AcDbLine
 10
-151.0981178283691
 20
706.5270233154296
 30
0.5
 11
-151.5689988979737
 21
707.3126897533409
 31
0.5
  0
LINE
  5
1BF
330
CC
100
AcDbEntity
  8
Sketch2
100
AcDbLine
 10
-168.9311027526855
 20
756.3565826416016
 30
0.5
 11
-169.1483139955769
 21
756.3394163157671
 31
0.5
  0
LINE
  5
1C0
330
CC
100
AcDbEntity
  8
Sketch2
100
AcDbLine
 10
-170.0093006260487
 20
756.4219671898988
 30
0.5
 11
-170.2192878723144
 21
756.4801025390624
 31
0.5
  0
LINE
  5
1C1
330
CC
100
AcDbEntity
  8
Sketch2
100
AcDbLine
 10
-170.7901211158737
 20
756.7940153630088
 30
0.5
 11
-170.9675598144531
 21
756.9204711914062
 31
0.5
  0
LINE
  5
1C2
330
CC
100
AcDbEntity
  8
Sketch2
100
AcDbLine
 10
-171.1203401143794
 20
757.075845513903
 30
0.5
 11
-171.2731170654297
 21
757.231216430664
 31
0.5
  0
LINE
  5
1C3
330
CC
100
AcDbEntity
  8
Sketch2
100
AcDbLine
 10
-171.2731170654297
 20
757.231216430664
 30
0.5
 11
-171.3966097061129
 21
757.4107380515012
 31
0.5
  0
LINE
  5
1C4
330
CC
100
AcDbEntity
  8
Sketch2
100
AcDbLine
 10
-168.6801029078868
 20
761.2223046606871
 30
0.5
 11
-168.4701156616211
 21
761.1641693115234
 31
0.5
  0
LINE
  5
1C5
330
CC
100
AcDbEntity
  8
Sketch2
100
AcDbLine
 10
-166.8791580200195
 20
759.2357635498046
 30
0.5
 11
-166.8619726204897
 21
759.0185523069134
 31
0.5
  0
LINE
  5
1C6
330
CC
100
AcDbEntity
  8
Sketch2
100
AcDbLine
 10
-167.0963965196886
 20
757.7508523365316
 30
0.5
 11
-167.1901130676269
 21
757.5541687011718
 31
0.5
  0
LINE
  5
1C7
330
CC
100
AcDbEntity
  8
Sketch2
100
AcDbLine
 10
-167.1693038940429
 20
760.0540924072265
 30
0.5
 11
-167.0788659674387
 21
759.8558404175345
 31
0.5
  0
LINE
  5
1C8
330
CC
100
AcDbEntity
  8
Sketch2
100
AcDbLine
 10
-167.3165716679403
 20
757.3767451868256
 30
0.5
 11
-167.4430274963379
 21
757.1993255615234
 31
0.5
  0
LINE
  5
1C9
330
CC
100
AcDbEntity
  8
Sketch2
100
AcDbLine
 10
-167.5690538827086
 20
760.5684644840737
 30
0.5
 11
-167.4162673950195
 21
760.4131317138672
 31
0.5
  0
LINE
  5
1CA
330
CC
100
AcDbEntity
  8
Sketch2
100
AcDbLine
 10
-161.8177318519663
 20
730.883560171477
 30
0.5
 11
-162.1756553649902
 21
731.5000915527344
 31
0.5
  0
LINE
  5
1CB
330
CC
100
AcDbEntity
  8
Sketch2
100
AcDbLine
 10
-169.1483139955769
 20
756.3394163157671
 30
0.5
 11
-169.3655204772949
 21
756.3222503662109
 31
0.5
  0
LINE
  5
1CC
330
CC
100
AcDbEntity
  8
Sketch2
100
AcDbLine
 10
-170.4159853558337
 20
756.5738306781184
 30
0.5
 11
-170.612678527832
 21
756.6675567626953
 31
0.5
  0
LINE
  5
1CD
330
CC
100
AcDbEntity
  8
Sketch2
100
AcDbLine
 10
-170.9675598144531
 20
756.9204711914062
 30
0.5
 11
-171.1203401143794
 21
757.075845513903
 31
0.5
  0
LINE
  5
1CE
330
CC
100
AcDbEntity
  8
Sketch2
100
AcDbLine
 10
-168.0767059326172
 20
760.9767150878906
 30
0.5
 11
-167.8992728814232
 21
760.850256487577
 31
0.5
  0
LINE
  5
1CF
330
CC
100
AcDbEntity
  8
Sketch2
100
AcDbLine
 10
-161.4598083496094
 20
730.2670288085937
 30
0.5
 11
-161.8177318519663
 21
730.883560171477
 31
0.5
  0
LINE
  5
1D0
330
CC
100
AcDbEntity
  8
Sketch2
100
AcDbLine
 10
-167.7218437194824
 20
760.7238006591797
 30
0.5
 11
-167.5690538827086
 21
760.5684644840737
 31
0.5
  0
LINE
  5
1D1
330
CC
100
AcDbEntity
  8
Sketch2
100
AcDbLine
 10
-167.2927842911841
 20
760.2336100930301
 30
0.5
 11
-167.1693038940429
 21
760.0540924072265
 31
0.5
  0
LINE
  5
1D2
330
CC
100
AcDbEntity
  8
Sketch2
100
AcDbLine
 10
-162.5464248601977
 20
732.108955374228
 30
0.5
 11
-162.9171943664551
 21
732.7178192138672
 31
0.5
  0
LINE
  5
1D3
330
CC
100
AcDbEntity
  8
Sketch2
100
AcDbLine
 10
-164.1113791883853
 20
734.9234649187853
 30
0.5
 11
-164.6046012338334
 21
736.0757320260352
 31
0.5
  0
LINE
  5
1D4
330
CC
100
AcDbEntity
  8
Sketch2
100
AcDbLine
 10
-166.8447875976562
 20
758.8013458251952
 30
0.5
 11
-166.8655874624589
 21
758.5844397614299
 31
0.5
  0
LINE
  5
1D5
330
CC
100
AcDbEntity
  8
Sketch2
100
AcDbLine
 10
-166.9884300231933
 20
759.6575927734375
 30
0.5
 11
-166.9337934228015
 21
759.4466758500187
 31
0.5
  0
LINE
  5
1D6
330
CC
100
AcDbEntity
  8
Sketch2
100
AcDbLine
 10
-152.821626663208
 20
709.7552490234375
 30
0.5
 11
-156.7957490232049
 21
719.3871396125445
 31
0.5
  0
LINE
  5
1D7
330
CC
100
AcDbEntity
  8
Sketch2
100
AcDbLine
 10
-134.602632522583
 20
516.0459518432617
 30
0.5
 11
-134.6399493895906
 21
516.1803040084553
 31
0.5
  0
LINE
  5
1D8
330
CC
100
AcDbEntity
  8
Sketch2
100
AcDbLine
 10
-136.467924118042
 20
517.3268127441406
 30
0.5
 11
-136.6022858198742
 21
517.2895054137716
 31
0.5
  0
LINE
  5
1D9
330
CC
100
AcDbEntity
  8
Sketch2
100
AcDbLine
 10
-135.5153117574715
 20
517.2043794022079
 30
0.5
 11
-135.6422328948974
 21
517.2621536254882
 31
0.5
  0
LINE
  5
1DA
330
CC
100
AcDbEntity
  8
Sketch2
100
AcDbLine
 10
-171.4992713928222
 20
760.090103149414
 30
0.5
 11
-171.3728127925088
 21
760.2675648111511
 31
0.5
  0
LINE
  5
1DB
330
CC
100
AcDbEntity
  8
Sketch2
100
AcDbLine
 10
-170.5766296386719
 20
760.9975433349609
 30
0.5
 11
-170.3783871858275
 21
761.0879907984128
 31
0.5
  0
LINE
  5
1DC
330
CC
100
AcDbEntity
  8
Sketch2
100
AcDbLine
 10
-169.5410895383586
 20
761.3048936822094
 30
0.5
 11
-169.3238830566406
 21
761.3220977783202
 31
0.5
  0
LINE
  5
1DD
330
CC
100
AcDbEntity
  8
Sketch2
100
AcDbLine
 10
-171.2463569641113
 20
760.4450225830078
 30
0.5
 11
-171.0910112521576
 21
760.5978028829341
 31
0.5
  0
LINE
  5
1DE
330
CC
100
AcDbEntity
  8
Sketch2
100
AcDbLine
 10
-171.0910112521576
 20
760.5978028829341
 30
0.5
 11
-170.9356689453125
 21
760.7505798339843
 31
0.5
  0
LINE
  5
1DF
330
CC
100
AcDbEntity
  8
Sketch2
100
AcDbLine
 10
-170.7561473244753
 20
760.87406293782
 30
0.5
 11
-170.5766296386719
 21
760.9975433349609
 31
0.5
  0
LINE
  5
1E0
330
CC
100
AcDbEntity
  8
Sketch2
100
AcDbLine
 10
-134.7974395751953
 20
516.5663528442382
 30
0.5
 11
-134.8784628571008
 21
516.6798388440825
 31
0.5
  0
LINE
  5
1E1
330
CC
100
AcDbEntity
  8
Sketch2
100
AcDbLine
 10
-134.959487915039
 20
516.7933273315429
 30
0.5
 11
-135.0589884343141
 21
516.8910397310725
 31
0.5
  0
LINE
  5
1E2
330
CC
100
AcDbEntity
  8
Sketch2
100
AcDbLine
 10
-171.3966097061129
 20
757.4107380515012
 30
0.5
 11
-171.5200996398926
 21
757.5902557373047
 31
0.5
  0
LINE
  5
1E3
330
CC
100
AcDbEntity
  8
Sketch2
100
AcDbLine
 10
-171.6105375664968
 20
757.7884695796059
 30
0.5
 11
-171.7009735107422
 21
757.9866790771484
 31
0.5
  0
LINE
  5
1E4
330
CC
100
AcDbEntity
  8
Sketch2
100
AcDbLine
 10
-170.1801490783691
 20
761.1784362792969
 30
0.5
 11
-169.9692226181027
 21
761.2330633428411
 31
0.5
  0
LINE
  5
1E5
330
CC
100
AcDbEntity
  8
Sketch2
100
AcDbLine
 10
-171.5929974773992
 20
759.8934195140543
 30
0.5
 11
-171.4992713928222
 21
760.090103149414
 31
0.5
  0
LINE
  5
1E6
330
CC
100
AcDbEntity
  8
Sketch2
100
AcDbLine
 10
-171.8446159362793
 20
758.8430023193359
 30
0.5
 11
-171.8238160714766
 21
759.0598702357105
 31
0.5
  0
LINE
  5
1E7
330
CC
100
AcDbEntity
  8
Sketch2
100
AcDbLine
 10
-135.2734410085193
 20
517.0676794938652
 30
0.5
 11
-135.3883934020996
 21
517.1466064453125
 31
0.5
  0
LINE
  5
1E8
330
CC
100
AcDbEntity
  8
Sketch2
100
AcDbLine
 10
-135.777252624796
 20
517.2970195763648
 30
0.5
 11
-135.912275314331
 21
517.3318862915039
 31
0.5
  0
LINE
  5
1E9
330
CC
100
AcDbEntity
  8
Sketch2
100
AcDbLine
 10
-137.4896660736033
 20
516.6560185633714
 30
0.5
 11
-137.5686073303223
 21
516.5410614013672
 31
0.5
  0
LINE
  5
1EA
330
CC
100
AcDbEntity
  8
Sketch2
100
AcDbLine
 10
-137.6263802872177
 20
516.4141478143147
 30
0.5
 11
-137.684154510498
 21
516.2872314453125
 31
0.5
  0
LINE
  5
1EB
330
CC
100
AcDbEntity
  8
Sketch2
100
AcDbLine
 10
-171.8274309134458
 20
758.6257958376179
 30
0.5
 11
-171.8446159362793
 21
758.8430023193359
 31
0.5
  0
LINE
  5
1EC
330
CC
100
AcDbEntity
  8
Sketch2
100
AcDbLine
 10
-169.75830078125
 20
761.2876892089843
 30
0.5
 11
-169.5410895383586
 21
761.3048936822094
 31
0.5
  0
LINE
  5
1ED
330
CC
100
AcDbEntity
  8
Sketch2
100
AcDbLine
 10
-134.8784628571008
 20
516.6798388440825
 30
0.5
 11
-134.959487915039
 21
516.7933273315429
 31
0.5
  0
LINE
  5
1EE
330
CC
100
AcDbEntity
  8
Sketch2
100
AcDbLine
 10
-136.1903190612793
 20
517.3536682128906
 30
0.5
 11
-136.3291200683995
 21
517.3402406256822
 31
0.5
  0
LINE
  5
1EF
330
CC
100
AcDbEntity
  8
Sketch2
100
AcDbLine
 10
-136.8624911821242
 20
517.1920973689008
 30
0.5
 11
-136.9883346557617
 21
517.1319961547851
 31
0.5
  0
LINE
  5
1F0
330
CC
100
AcDbEntity
  8
Sketch2
100
AcDbLine
 10
-137.2153186798096
 20
516.969985961914
 30
0.5
 11
-137.3130215427006
 21
516.8704806743196
 31
0.5
  0
LINE
  5
1F1
330
CC
100
AcDbEntity
  8
Sketch2
100
AcDbLine
 10
-170.9356689453125
 20
760.7505798339843
 30
0.5
 11
-170.7561473244753
 21
760.87406293782
 31
0.5
  0
LINE
  5
1F2
330
CC
100
AcDbEntity
  8
Sketch2
100
AcDbLine
 10
-134.5975589752197
 20
515.4903030395508
 30
0.5
 11
-134.5866729022094
 21
515.6293090844018
 31
0.5
  0
LINE
  5
1F3
330
CC
100
AcDbEntity
  8
Sketch2
100
AcDbLine
 10
-136.3291200683995
 20
517.3402406256822
 30
0.5
 11
-136.467924118042
 21
517.3268127441406
 31
0.5
  0
LINE
  5
1F4
330
CC
100
AcDbEntity
  8
Sketch2
100
AcDbLine
 10
-134.5866729022094
 20
515.6293090844018
 30
0.5
 11
-134.5757865905762
 21
515.7683181762695
 31
0.5
  0
LINE
  5
1F5
330
CC
100
AcDbEntity
  8
Sketch2
100
AcDbLine
 10
-136.7366504669189
 20
517.252197265625
 30
0.5
 11
-136.8624911821242
 21
517.1920973689008
 31
0.5
  0
LINE
  5
1F6
330
CC
100
AcDbEntity
  8
Sketch2
100
AcDbLine
 10
-137.3130215427006
 20
516.8704806743196
 30
0.5
 11
-137.4107265472412
 21
516.7709732055664
 31
0.5
  0
LINE
  5
1F7
330
CC
100
AcDbEntity
  8
Sketch2
100
AcDbLine
 10
-171.3728127925088
 20
760.2675648111511
 30
0.5
 11
-171.2463569641113
 21
760.4450225830078
 31
0.5
  0
LINE
  5
1F8
330
CC
100
AcDbEntity
  8
Sketch2
100
AcDbLine
 10
-134.6772670745849
 20
516.3146591186523
 30
0.5
 11
-134.7373526663512
 21
516.440504602177
 31
0.5
  0
LINE
  5
1F9
330
CC
100
AcDbEntity
  8
Sketch2
100
AcDbLine
 10
-137.7190156930552
 20
516.1522117154139
 30
0.5
 11
-137.7538776397705
 21
516.0171890258789
 31
0.5
  0
LINE
  5
1FA
330
CC
100
AcDbEntity
  8
Sketch2
100
AcDbLine
 10
-134.5892094094653
 20
515.9071334883477
 30
0.5
 11
-134.602632522583
 21
516.0459518432617
 31
0.5
  0
LINE
  5
1FB
330
CC
100
AcDbEntity
  8
Sketch2
100
AcDbLine
 10
-134.6399493895906
 20
516.1803040084553
 30
0.5
 11
-134.6772670745849
 21
516.3146591186523
 31
0.5
  0
LINE
  5
1FC
330
CC
100
AcDbEntity
  8
Sketch2
100
AcDbLine
 10
-136.9883346557617
 20
517.1319961547851
 30
0.5
 11
-137.1018254239251
 21
517.050991946157
 31
0.5
  0
LINE
  5
1FD
330
CC
100
AcDbEntity
  8
Sketch2
100
AcDbLine
 10
-137.1018254239251
 20
517.050991946157
 30
0.5
 11
-137.2153186798096
 21
516.969985961914
 31
0.5
  0
LINE
  5
1FE
330
CC
100
AcDbEntity
  8
Sketch2
100
AcDbLine
 10
-136.0512956641401
 20
517.3427771328334
 30
0.5
 11
-136.1903190612793
 21
517.3536682128906
 31
0.5
  0
LINE
  5
1FF
330
CC
100
AcDbEntity
  8
Sketch2
100
AcDbLine
 10
-137.5686073303223
 20
516.5410614013672
 30
0.5
 11
-137.6263802872177
 21
516.4141478143147
 31
0.5
  0
LINE
  5
200
330
CC
100
AcDbEntity
  8
Sketch2
100
AcDbLine
 10
-170.3783871858275
 20
761.0879907984128
 30
0.5
 11
-170.1801490783691
 21
761.1784362792969
 31
0.5
  0
LINE
  5
201
330
CC
100
AcDbEntity
  8
Sketch2
100
AcDbLine
 10
-137.7538776397705
 20
516.0171890258789
 30
0.5
 11
-137.7647637127807
 21
515.8781639077504
 31
0.5
  0
LINE
  5
202
330
CC
100
AcDbEntity
  8
Sketch2
100
AcDbLine
 10
-135.0589884343141
 20
516.8910397310725
 30
0.5
 11
-135.1584911346435
 21
516.9887542724609
 31
0.5
  0
LINE
  5
203
330
CC
100
AcDbEntity
  8
Sketch2
100
AcDbLine
 10
-137.684154510498
 20
516.2872314453125
 30
0.5
 11
-137.7190156930552
 21
516.1522117154139
 31
0.5
  0
LINE
  5
204
330
CC
100
AcDbEntity
  8
Sketch2
100
AcDbLine
 10
-171.5200996398926
 20
757.5902557373047
 30
0.5
 11
-171.6105375664968
 21
757.7884695796059
 31
0.5
  0
LINE
  5
205
330
CC
100
AcDbEntity
  8
Sketch2
100
AcDbLine
 10
-171.8238160714766
 20
759.0598702357105
 30
0.5
 11
-171.8030166625976
 21
759.2767333984375
 31
0.5
  0
LINE
  5
206
330
CC
100
AcDbEntity
  8
Sketch2
100
AcDbLine
 10
-135.1584911346435
 20
516.9887542724609
 30
0.5
 11
-135.2734410085193
 21
517.0676794938652
 31
0.5
  0
LINE
  5
207
330
CC
100
AcDbEntity
  8
Sketch2
100
AcDbLine
 10
-171.7448705022574
 20
759.4867347844784
 30
0.5
 11
-171.6867256164551
 21
759.6967315673828
 31
0.5
  0
LINE
  5
208
330
CC
100
AcDbEntity
  8
Sketch2
100
AcDbLine
 10
-134.6672821044922
 20
515.2202606201171
 30
0.5
 11
-134.632420921935
 21
515.3552803500157
 31
0.5
  0
LINE
  5
209
330
CC
100
AcDbEntity
  8
Sketch2
100
AcDbLine
 10
-134.632420921935
 20
515.3552803500157
 30
0.5
 11
-134.5975589752197
 21
515.4903030395508
 31
0.5
  0
LINE
  5
20A
330
CC
100
AcDbEntity
  8
Sketch2
100
AcDbLine
 10
-135.3883934020996
 20
517.1466064453125
 30
0.5
 11
-135.5153117574715
 21
517.2043794022079
 31
0.5
  0
LINE
  5
20B
330
CC
100
AcDbEntity
  8
Sketch2
100
AcDbLine
 10
-135.912275314331
 20
517.3318862915039
 30
0.5
 11
-136.0512956641401
 21
517.3427771328334
 31
0.5
  0
LINE
  5
20C
330
CC
100
AcDbEntity
  8
Sketch2
100
AcDbLine
 10
-136.6022858198742
 20
517.2895054137716
 30
0.5
 11
-136.7366504669189
 21
517.252197265625
 31
0.5
  0
LINE
  5
20D
330
CC
100
AcDbEntity
  8
Sketch2
100
AcDbLine
 10
-137.4107265472412
 20
516.7709732055664
 30
0.5
 11
-137.4896660736033
 21
516.6560185633714
 31
0.5
  0
LINE
  5
20E
330
CC
100
AcDbEntity
  8
Sketch2
100
AcDbLine
 10
-169.9692226181027
 20
761.2330633428411
 30
0.5
 11
-169.75830078125
 21
761.2876892089843
 31
0.5
  0
LINE
  5
20F
330
CC
100
AcDbEntity
  8
Sketch2
100
AcDbLine
 10
-171.810245513916
 20
758.4085845947265
 30
0.5
 11
-171.8274309134458
 21
758.6257958376179
 31
0.5
  0
LINE
  5
210
330
CC
100
AcDbEntity
  8
Sketch2
100
AcDbLine
 10
-171.8030166625976
 20
759.2767333984375
 30
0.5
 11
-171.7448705022574
 21
759.4867347844784
 31
0.5
  0
LINE
  5
211
330
CC
100
AcDbEntity
  8
Sketch2
100
AcDbLine
 10
-171.6867256164551
 20
759.6967315673828
 30
0.5
 11
-171.5929974773992
 21
759.8934195140543
 31
0.5
  0
LINE
  5
212
330
CC
100
AcDbEntity
  8
Sketch2
100
AcDbLine
 10
-134.7373526663512
 20
516.440504602177
 30
0.5
 11
-134.7974395751953
 21
516.5663528442382
 31
0.5
  0
LINE
  5
213
330
CC
100
AcDbEntity
  8
Sketch2
100
AcDbLine
 10
-171.7009735107422
 20
757.9866790771484
 30
0.5
 11
-171.755610111134
 21
758.197634147958
 31
0.5
  0
LINE
  5
214
330
CC
100
AcDbEntity
  8
Sketch2
100
AcDbLine
 10
-171.755610111134
 20
758.197634147958
 30
0.5
 11
-171.810245513916
 21
758.4085845947265
 31
0.5
  0
LINE
  5
215
330
CC
100
AcDbEntity
  8
Sketch2
100
AcDbLine
 10
-134.5757865905762
 20
515.7683181762695
 30
0.5
 11
-134.5892094094653
 21
515.9071334883477
 31
0.5
  0
LINE
  5
216
330
CC
100
AcDbEntity
  8
Sketch2
100
AcDbLine
 10
-135.6422328948974
 20
517.2621536254882
 30
0.5
 11
-135.777252624796
 21
517.2970195763648
 31
0.5
  0
LINE
  5
217
330
CC
100
AcDbEntity
  8
Sketch2
100
AcDbLine
 10
-201.1802673339844
 20
677.5639343261718
 30
0.5
 11
-201.1791038385667
 21
677.7034011867288
 31
0.5
  0
LINE
  5
218
330
CC
100
AcDbEntity
  8
Sketch2
100
AcDbLine
 10
-135.4889502011853
 20
514.3153756232516
 30
0.5
 11
-135.3631114959717
 21
514.3754577636719
 31
0.5
  0
LINE
  5
219
330
CC
100
AcDbEntity
  8
Sketch2
100
AcDbLine
 10
-200.9034919738769
 20
676.7833709716796
 30
0.5
 11
-200.9722144983007
 21
676.9047178216335
 31
0.5
  0
LINE
  5
21A
330
CC
100
AcDbEntity
  8
Sketch2
100
AcDbLine
 10
-137.775650024414
 20
515.7391357421874
 30
0.5
 11
-137.7622319738442
 21
515.6003395033865
 31
0.5
  0
LINE
  5
21B
330
CC
100
AcDbEntity
  8
Sketch2
100
AcDbLine
 10
-136.0223165465906
 20
514.1672132927748
 30
0.5
 11
-135.8835124969482
 21
514.1806411743163
 31
0.5
  0
LINE
  5
21C
330
CC
100
AcDbEntity
  8
Sketch2
100
AcDbLine
 10
-201.1272239685058
 20
678.1170654296874
 30
0.5
 11
-201.0784429925931
 21
678.2477202429827
 31
0.5
  0
LINE
  5
21D
330
CC
100
AcDbEntity
  8
Sketch2
100
AcDbLine
 10
-200.8882141113281
 20
678.6186981201171
 30
0.5
 11
-200.7976903530947
 21
678.7247860137738
 31
0.5
  0
LINE
  5
21E
330
CC
100
AcDbEntity
  8
Sketch2
100
AcDbLine
 10
-136.1611175537109
 20
514.1537857055664
 30
0.5
 11
-136.0223165465906
 21
514.1672132927748
 31
0.5
  0
LINE
  5
21F
330
CC
100
AcDbEntity
  8
Sketch2
100
AcDbLine
 10
-200.7976903530947
 20
678.7247860137738
 30
0.5
 11
-200.7071685791016
 21
678.8308715820313
 31
0.5
  0
LINE
  5
220
330
CC
100
AcDbEntity
  8
Sketch2
100
AcDbLine
 10
-136.7092037200928
 20
514.2453002929687
 30
0.5
 11
-136.5741839901941
 21
514.2104343420921
 31
0.5
  0
LINE
  5
221
330
CC
100
AcDbEntity
  8
Sketch2
100
AcDbLine
 10
-135.2496159594889
 20
514.4564810455774
 30
0.5
 11
-135.1361179351806
 21
514.5375061035156
 31
0.5
  0
LINE
  5
222
330
CC
100
AcDbEntity
  8
Sketch2
100
AcDbLine
 10
-201.0784429925931
 20
678.2477202429827
 30
0.5
 11
-201.0296630859375
 21
678.3783721923827
 31
0.5
  0
LINE
  5
223
330
CC
100
AcDbEntity
  8
Sketch2
100
AcDbLine
 10
-136.5741839901941
 20
514.2104343420921
 30
0.5
 11
-136.4391613006592
 21
514.1755676269531
 31
0.5
  0
LINE
  5
224
330
CC
100
AcDbEntity
  8
Sketch2
100
AcDbLine
 10
-137.7622319738442
 20
515.6003395033865
 30
0.5
 11
-137.7488136291504
 21
515.4615402221679
 31
0.5
  0
LINE
  5
225
330
CC
100
AcDbEntity
  8
Sketch2
100
AcDbLine
 10
-137.7647637127807
 20
515.8781639077504
 30
0.5
 11
-137.775650024414
 21
515.7391357421874
 31
0.5
  0
LINE
  5
226
330
CC
100
AcDbEntity
  8
Sketch2
100
AcDbLine
 10
-137.614083948639
 20
515.0669683895573
 30
0.5
 11
-137.5539970397949
 21
514.9411392211914
 31
0.5
  0
LINE
  5
227
330
CC
100
AcDbEntity
  8
Sketch2
100
AcDbLine
 10
-137.2924577174192
 20
514.6164332606616
 30
0.5
 11
-137.1929550170898
 21
514.5187377929687
 31
0.5
  0
LINE
  5
228
330
CC
100
AcDbEntity
  8
Sketch2
100
AcDbLine
 10
-200.9589378234997
 20
678.4985364732236
 30
0.5
 11
-200.8882141113281
 21
678.6186981201171
 31
0.5
  0
LINE
  5
229
330
CC
100
AcDbEntity
  8
Sketch2
100
AcDbLine
 10
-200.7071685791016
 20
678.8308715820313
 30
0.5
 11
-200.5996024740536
 21
678.9196024128998
 31
0.5
  0
LINE
  5
22A
330
CC
100
AcDbEntity
  8
Sketch2
100
AcDbLine
 10
-200.9722144983007
 20
676.9047178216335
 30
0.5
 11
-201.0409355163574
 21
677.0260620117187
 31
0.5
  0
LINE
  5
22B
330
CC
100
AcDbEntity
  8
Sketch2
100
AcDbLine
 10
-134.8617753097062
 20
514.851454428781
 30
0.5
 11
-134.7828388214111
 21
514.9663925170898
 31
0.5
  0
LINE
  5
22C
330
CC
100
AcDbEntity
  8
Sketch2
100
AcDbLine
 10
-200.5996024740536
 20
678.9196024128998
 30
0.5
 11
-200.4920387268066
 21
679.0083312988281
 31
0.5
  0
LINE
  5
22D
330
CC
100
AcDbEntity
  8
Sketch2
100
AcDbLine
 10
-200.4920387268066
 20
679.0083312988281
 30
0.5
 11
-200.3706918768527
 21
679.0770728969472
 31
0.5
  0
LINE
  5
22E
330
CC
100
AcDbEntity
  8
Sketch2
100
AcDbLine
 10
-200.2493476867676
 20
679.1458129882812
 30
0.5
 11
-200.1179108519621
 21
679.1923909523785
 31
0.5
  0
LINE
  5
22F
330
CC
100
AcDbEntity
  8
Sketch2
100
AcDbLine
 10
-201.1525818906558
 20
677.9799667125651
 30
0.5
 11
-201.1272239685058
 21
678.1170654296874
 31
0.5
  0
LINE
  5
230
330
CC
100
AcDbEntity
  8
Sketch2
100
AcDbLine
 10
-135.8835124969482
 20
514.1806411743163
 30
0.5
 11
-135.749150795116
 21
514.2179675779625
 31
0.5
  0
LINE
  5
231
330
CC
100
AcDbEntity
  8
Sketch2
100
AcDbLine
 10
-137.0780003748948
 20
514.4397934982873
 30
0.5
 11
-136.9630432128906
 21
514.3608474731445
 31
0.5
  0
LINE
  5
232
330
CC
100
AcDbEntity
  8
Sketch2
100
AcDbLine
 10
-199.9864768981933
 20
679.2389678955077
 30
0.5
 11
-199.8489460177167
 21
679.2620470669073
 31
0.5
  0
LINE
  5
233
330
CC
100
AcDbEntity
  8
Sketch2
100
AcDbLine
 10
-199.8489460177167
 20
679.2620470669073
 30
0.5
 11
-199.7114181518554
 21
679.2851257324218
 31
0.5
  0
LINE
  5
234
330
CC
100
AcDbEntity
  8
Sketch2
100
AcDbLine
 10
-199.7114181518554
 20
679.2851257324218
 30
0.5
 11
-199.5719799018416
 21
679.2839813106995
 31
0.5
  0
LINE
  5
235
330
CC
100
AcDbEntity
  8
Sketch2
100
AcDbLine
 10
-199.4325447082519
 20
679.2828369140624
 30
0.5
 11
-199.2954143753781
 21
679.2574688992182
 31
0.5
  0
LINE
  5
236
330
CC
100
AcDbEntity
  8
Sketch2
100
AcDbLine
 10
-137.6741695404053
 20
515.1927947998046
 30
0.5
 11
-137.614083948639
 21
515.0669683895573
 31
0.5
  0
LINE
  5
237
330
CC
100
AcDbEntity
  8
Sketch2
100
AcDbLine
 10
-137.5539970397949
 20
514.9411392211914
 30
0.5
 11
-137.4729785262087
 21
514.8276341480699
 31
0.5
  0
LINE
  5
238
330
CC
100
AcDbEntity
  8
Sketch2
100
AcDbLine
 10
-137.7114919938235
 20
515.327168983697
 30
0.5
 11
-137.6741695404053
 21
515.1927947998046
 31
0.5
  0
LINE
  5
239
330
CC
100
AcDbEntity
  8
Sketch2
100
AcDbLine
 10
-136.9630432128906
 20
514.3608474731445
 30
0.5
 11
-136.8361248575187
 21
514.3030745162491
 31
0.5
  0
LINE
  5
23A
330
CC
100
AcDbEntity
  8
Sketch2
100
AcDbLine
 10
-136.4391613006592
 20
514.1755676269531
 30
0.5
 11
-136.3001409508501
 21
514.1646767856236
 31
0.5
  0
LINE
  5
23B
330
CC
100
AcDbEntity
  8
Sketch2
100
AcDbLine
 10
-135.1361179351806
 20
514.5375061035156
 30
0.5
 11
-135.0384150722896
 21
514.63701139111
 31
0.5
  0
LINE
  5
23C
330
CC
100
AcDbEntity
  8
Sketch2
100
AcDbLine
 10
-134.940710067749
 20
514.7365188598633
 30
0.5
 11
-134.8617753097062
 21
514.851454428781
 31
0.5
  0
LINE
  5
23D
330
CC
100
AcDbEntity
  8
Sketch2
100
AcDbLine
 10
-137.1929550170898
 20
514.5187377929687
 30
0.5
 11
-137.0780003748948
 21
514.4397934982873
 31
0.5
  0
LINE
  5
23E
330
CC
100
AcDbEntity
  8
Sketch2
100
AcDbLine
 10
-136.8361248575187
 20
514.3030745162491
 30
0.5
 11
-136.7092037200928
 21
514.2453002929687
 31
0.5
  0
LINE
  5
23F
330
CC
100
AcDbEntity
  8
Sketch2
100
AcDbLine
 10
-137.3919582366943
 20
514.714126586914
 30
0.5
 11
-137.2924577174192
 21
514.6164332606616
 31
0.5
  0
LINE
  5
240
330
CC
100
AcDbEntity
  8
Sketch2
100
AcDbLine
 10
-134.7828388214111
 20
514.9663925170898
 30
0.5
 11
-134.7250610961964
 21
515.0933251774197
 31
0.5
  0
LINE
  5
241
330
CC
100
AcDbEntity
  8
Sketch2
100
AcDbLine
 10
-201.0875325541502
 20
677.1574797728288
 30
0.5
 11
-201.1341285705567
 21
677.2888946533202
 31
0.5
  0
LINE
  5
242
330
CC
100
AcDbEntity
  8
Sketch2
100
AcDbLine
 10
-199.5719799018416
 20
679.2839813106995
 30
0.5
 11
-199.4325447082519
 21
679.2828369140624
 31
0.5
  0
LINE
  5
243
330
CC
100
AcDbEntity
  8
Sketch2
100
AcDbLine
 10
-199.2954143753781
 20
679.2574688992182
 30
0.5
 11
-199.1582870483398
 21
679.2321014404296
 31
0.5
  0
LINE
  5
244
330
CC
100
AcDbEntity
  8
Sketch2
100
AcDbLine
 10
-134.7250610961964
 20
515.0933251774197
 30
0.5
 11
-134.6672821044922
 21
515.2202606201171
 31
0.5
  0
LINE
  5
245
330
CC
100
AcDbEntity
  8
Sketch2
100
AcDbLine
 10
-201.0296630859375
 20
678.3783721923827
 30
0.5
 11
-200.9589378234997
 21
678.4985364732236
 31
0.5
  0
LINE
  5
246
330
CC
100
AcDbEntity
  8
Sketch2
100
AcDbLine
 10
-200.3706918768527
 20
679.0770728969472
 30
0.5
 11
-200.2493476867676
 21
679.1458129882812
 31
0.5
  0
LINE
  5
247
330
CC
100
AcDbEntity
  8
Sketch2
100
AcDbLine
 10
-201.1779403686523
 20
677.8428649902344
 30
0.5
 11
-201.1525818906558
 21
677.9799667125651
 31
0.5
  0
LINE
  5
248
330
CC
100
AcDbEntity
  8
Sketch2
100
AcDbLine
 10
-200.1179108519621
 20
679.1923909523785
 30
0.5
 11
-199.9864768981933
 21
679.2389678955077
 31
0.5
  0
LINE
  5
249
330
CC
100
AcDbEntity
  8
Sketch2
100
AcDbLine
 10
-201.1571982051086
 20
677.4264159969493
 30
0.5
 11
-201.1802673339844
 21
677.5639343261718
 31
0.5
  0
LINE
  5
24A
330
CC
100
AcDbEntity
  8
Sketch2
100
AcDbLine
 10
-135.6147861480713
 20
514.2552947998047
 30
0.5
 11
-135.4889502011853
 21
514.3153756232516
 31
0.5
  0
LINE
  5
24B
330
CC
100
AcDbEntity
  8
Sketch2
100
AcDbLine
 10
-199.1582870483398
 20
679.2321014404296
 30
0.5
 11
-199.02765130874
 21
679.1833109276693
 31
0.5
  0
LINE
  5
24C
330
CC
100
AcDbEntity
  8
Sketch2
100
AcDbLine
 10
-199.02765130874
 20
679.1833109276693
 30
0.5
 11
-198.8970184326172
 21
679.134521484375
 31
0.5
  0
LINE
  5
24D
330
CC
100
AcDbEntity
  8
Sketch2
100
AcDbLine
 10
-198.8970184326172
 20
679.134521484375
 30
0.5
 11
-198.7768350780809
 21
679.0637962219372
 31
0.5
  0
LINE
  5
24E
330
CC
100
AcDbEntity
  8
Sketch2
100
AcDbLine
 10
-201.0409355163574
 20
677.0260620117187
 30
0.5
 11
-201.0875325541502
 21
677.1574797728288
 31
0.5
  0
LINE
  5
24F
330
CC
100
AcDbEntity
  8
Sketch2
100
AcDbLine
 10
-137.7488136291504
 20
515.4615402221679
 30
0.5
 11
-137.7114919938235
 21
515.327168983697
 31
0.5
  0
LINE
  5
250
330
CC
100
AcDbEntity
  8
Sketch2
100
AcDbLine
 10
-135.749150795116
 20
514.2179675779625
 30
0.5
 11
-135.6147861480713
 21
514.2552947998047
 31
0.5
  0
LINE
  5
251
330
CC
100
AcDbEntity
  8
Sketch2
100
AcDbLine
 10
-137.4729785262087
 20
514.8276341480699
 30
0.5
 11
-137.3919582366943
 21
514.714126586914
 31
0.5
  0
LINE
  5
252
330
CC
100
AcDbEntity
  8
Sketch2
100
AcDbLine
 10
-135.3631114959717
 20
514.3754577636719
 30
0.5
 11
-135.2496159594889
 21
514.4564810455774
 31
0.5
  0
LINE
  5
253
330
CC
100
AcDbEntity
  8
Sketch2
100
AcDbLine
 10
-135.0384150722896
 20
514.63701139111
 30
0.5
 11
-134.940710067749
 21
514.7365188598633
 31
0.5
  0
LINE
  5
254
330
CC
100
AcDbEntity
  8
Sketch2
100
AcDbLine
 10
-201.1341285705567
 20
677.2888946533202
 30
0.5
 11
-201.1571982051086
 21
677.4264159969493
 31
0.5
  0
LINE
  5
255
330
CC
100
AcDbEntity
  8
Sketch2
100
AcDbLine
 10
-201.1791038385667
 20
677.7034011867288
 30
0.5
 11
-201.1779403686523
 21
677.8428649902344
 31
0.5
  0
LINE
  5
256
330
CC
100
AcDbEntity
  8
Sketch2
100
AcDbLine
 10
-136.3001409508501
 20
514.1646767856236
 30
0.5
 11
-136.1611175537109
 21
514.1537857055664
 31
0.5
  0
LINE
  5
257
330
CC
100
AcDbEntity
  8
Sketch2
100
AcDbLine
 10
-197.9902458190918
 20
677.8163146972656
 30
0.5
 11
-197.9913997776618
 21
677.6768478367086
 31
0.5
  0
LINE
  5
258
330
CC
100
AcDbEntity
  8
Sketch2
100
AcDbLine
 10
-200.7260131835937
 20
676.5682220458984
 30
0.5
 11
-200.81475355131
 21
676.6757976877941
 31
0.5
  0
LINE
  5
259
330
CC
100
AcDbEntity
  8
Sketch2
100
AcDbLine
 10
-198.5709106790226
 20
676.4606466105377
 30
0.5
 11
-198.6784744262695
 21
676.3719177246094
 31
0.5
  0
LINE
  5
25A
330
CC
100
AcDbEntity
  8
Sketch2
100
AcDbLine
 10
-198.1408500671387
 20
677.0018768310547
 30
0.5
 11
-198.2115753295764
 21
676.8817125502139
 31
0.5
  0
LINE
  5
25B
330
CC
100
AcDbEntity
  8
Sketch2
100
AcDbLine
 10
-198.043270111084
 20
677.26318359375
 30
0.5
 11
-198.0920606238444
 21
677.1325287804548
 31
0.5
  0
LINE
  5
25C
330
CC
100
AcDbEntity
  8
Sketch2
100
AcDbLine
 10
-198.3557596017662
 20
678.7044513356434
 30
0.5
 11
-198.2670211791992
 21
678.5968780517578
 31
0.5
  0
LINE
  5
25D
330
CC
100
AcDbEntity
  8
Sketch2
100
AcDbLine
 10
-199.8750987776981
 20
676.1227801242192
 30
0.5
 11
-200.0122261047363
 21
676.1481475830078
 31
0.5
  0
LINE
  5
25E
330
CC
100
AcDbEntity
  8
Sketch2
100
AcDbLine
 10
-200.619937151975
 20
676.4777002719053
 30
0.5
 11
-200.7260131835937
 21
676.5682220458984
 31
0.5
  0
LINE
  5
25F
330
CC
100
AcDbEntity
  8
Sketch2
100
AcDbLine
 10
-198.3728227999815
 20
676.6554630096636
 30
0.5
 11
-198.4633445739746
 21
676.5493774414062
 31
0.5
  0
LINE
  5
260
330
CC
100
AcDbEntity
  8
Sketch2
100
AcDbLine
 10
-200.0122261047363
 20
676.1481475830078
 30
0.5
 11
-200.1428618443362
 21
676.1969380957682
 31
0.5
  0
LINE
  5
261
330
CC
100
AcDbEntity
  8
Sketch2
100
AcDbLine
 10
-200.81475355131
 20
676.6757976877941
 30
0.5
 11
-200.9034919738769
 21
676.7833709716796
 31
0.5
  0
LINE
  5
262
330
CC
100
AcDbEntity
  8
Sketch2
100
AcDbLine
 10
-180.8552169799805
 20
626.4731979370117
 30
0.5
 11
-180.7741919220419
 21
626.3596903758553
 31
0.5
  0
LINE
  5
263
330
CC
100
AcDbEntity
  8
Sketch2
100
AcDbLine
 10
-198.6566543579101
 20
678.9930725097656
 30
0.5
 11
-198.5505760011012
 21
678.9025487515321
 31
0.5
  0
LINE
  5
264
330
CC
100
AcDbEntity
  8
Sketch2
100
AcDbLine
 10
-180.6931686401367
 20
626.2461853027343
 30
0.5
 11
-180.6330864997162
 21
626.120356134368
 31
0.5
  0
LINE
  5
265
330
CC
100
AcDbEntity
  8
Sketch2
100
AcDbLine
 10
-180.6330864997162
 20
626.120356134368
 30
0.5
 11
-180.5730056762695
 21
625.9945297241211
 31
0.5
  0
LINE
  5
266
330
CC
100
AcDbEntity
  8
Sketch2
100
AcDbLine
 10
-180.484943242726
 20
625.5869850205388
 30
0.5
 11
-180.4715156555175
 21
625.4481887817383
 31
0.5
  0
LINE
  5
267
330
CC
100
AcDbEntity
  8
Sketch2
100
AcDbLine
 10
-180.4715156555175
 20
625.4481887817383
 30
0.5
 11
-180.4824067355747
 21
625.3091606161746
 31
0.5
  0
LINE
  5
268
330
CC
100
AcDbEntity
  8
Sketch2
100
AcDbLine
 10
-198.7998212762234
 20
676.3031761264902
 30
0.5
 11
-198.9211654663086
 21
676.2344360351562
 31
0.5
  0
LINE
  5
269
330
CC
100
AcDbEntity
  8
Sketch2
100
AcDbLine
 10
-200.273494720459
 20
676.2457275390625
 30
0.5
 11
-200.3936780749953
 21
676.3164528015002
 31
0.5
  0
LINE
  5
26A
330
CC
100
AcDbEntity
  8
Sketch2
100
AcDbLine
 10
-181.8080139160156
 20
627.0117568969726
 30
0.5
 11
-181.6729912264801
 21
626.9768901818333
 31
0.5
  0
LINE
  5
26B
330
CC
100
AcDbEntity
  8
Sketch2
100
AcDbLine
 10
-198.4444999694824
 20
678.812026977539
 30
0.5
 11
-198.3557596017662
 21
678.7044513356434
 31
0.5
  0
LINE
  5
26C
330
CC
100
AcDbEntity
  8
Sketch2
100
AcDbLine
 10
-198.0920606238444
 20
677.1325287804548
 30
0.5
 11
-198.1408500671387
 21
677.0018768310547
 31
0.5
  0
LINE
  5
26D
330
CC
100
AcDbEntity
  8
Sketch2
100
AcDbLine
 10
-181.6729912264801
 20
626.9768901818333
 30
0.5
 11
-181.537971496582
 21
626.942024230957
 31
0.5
  0
LINE
  5
26E
330
CC
100
AcDbEntity
  8
Sketch2
100
AcDbLine
 10
-199.1840362548828
 20
676.1412811279297
 30
0.5
 11
-199.3215575985118
 21
676.1182019565301
 31
0.5
  0
LINE
  5
26F
330
CC
100
AcDbEntity
  8
Sketch2
100
AcDbLine
 10
-181.9470294975049
 20
627.0226286650249
 30
0.5
 11
-181.8080139160156
 21
627.0117568969726
 31
0.5
  0
LINE
  5
270
330
CC
100
AcDbEntity
  8
Sketch2
100
AcDbLine
 10
-180.9547222675745
 20
626.5708912632637
 30
0.5
 11
-180.8552169799805
 21
626.4731979370117
 31
0.5
  0
LINE
  5
271
330
CC
100
AcDbEntity
  8
Sketch2
100
AcDbLine
 10
-198.1295776367187
 20
678.3541870117187
 30
0.5
 11
-198.082980598926
 21
678.2227692506086
 31
0.5
  0
LINE
  5
272
330
CC
100
AcDbEntity
  8
Sketch2
100
AcDbLine
 10
-199.3215575985118
 20
676.1182019565301
 30
0.5
 11
-199.4590759277343
 21
676.0951232910156
 31
0.5
  0
LINE
  5
273
330
CC
100
AcDbEntity
  8
Sketch2
100
AcDbLine
 10
-199.4590759277343
 20
676.0951232910156
 30
0.5
 11
-199.5985237145959
 21
676.0962677127379
 31
0.5
  0
LINE
  5
274
330
CC
100
AcDbEntity
  8
Sketch2
100
AcDbLine
 10
-198.082980598926
 20
678.2227692506086
 30
0.5
 11
-198.0363845825195
 21
678.0913543701172
 31
0.5
  0
LINE
  5
275
330
CC
100
AcDbEntity
  8
Sketch2
100
AcDbLine
 10
-200.513858795166
 20
676.3871765136719
 30
0.5
 11
-200.619937151975
 21
676.4777002719053
 31
0.5
  0
LINE
  5
276
330
CC
100
AcDbEntity
  8
Sketch2
100
AcDbLine
 10
-181.1691748418841
 20
626.7475310256383
 30
0.5
 11
-181.0542297363281
 21
626.668586730957
 31
0.5
  0
LINE
  5
277
330
CC
100
AcDbEntity
  8
Sketch2
100
AcDbLine
 10
-197.9925537109375
 20
677.5373840332031
 30
0.5
 11
-198.017912188934
 21
677.4002823108723
 31
0.5
  0
LINE
  5
278
330
CC
100
AcDbEntity
  8
Sketch2
100
AcDbLine
 10
-181.537971496582
 20
626.942024230957
 30
0.5
 11
-181.4110455907318
 21
626.8842500076765
 31
0.5
  0
LINE
  5
279
330
CC
100
AcDbEntity
  8
Sketch2
100
AcDbLine
 10
-181.284122467041
 20
626.8264770507812
 30
0.5
 11
-181.1691748418841
 21
626.7475310256383
 31
0.5
  0
LINE
  5
27A
330
CC
100
AcDbEntity
  8
Sketch2
100
AcDbLine
 10
-198.0133149479676
 20
677.9538330264881
 30
0.5
 11
-197.9902458190918
 21
677.8163146972656
 31
0.5
  0
LINE
  5
27B
330
CC
100
AcDbEntity
  8
Sketch2
100
AcDbLine
 10
-197.9913997776618
 20
677.6768478367086
 30
0.5
 11
-197.9925537109375
 21
677.5373840332031
 31
0.5
  0
LINE
  5
27C
330
CC
100
AcDbEntity
  8
Sketch2
100
AcDbLine
 10
-199.7379684448242
 20
676.097412109375
 30
0.5
 11
-199.8750987776981
 21
676.1227801242192
 31
0.5
  0
LINE
  5
27D
330
CC
100
AcDbEntity
  8
Sketch2
100
AcDbLine
 10
-180.5730056762695
 20
625.9945297241211
 30
0.5
 11
-180.535687991275
 21
625.8601555402283
 31
0.5
  0
LINE
  5
27E
330
CC
100
AcDbEntity
  8
Sketch2
100
AcDbLine
 10
-199.052602301114
 20
676.1878580710589
 30
0.5
 11
-199.1840362548828
 21
676.1412811279297
 31
0.5
  0
LINE
  5
27F
330
CC
100
AcDbEntity
  8
Sketch2
100
AcDbLine
 10
-181.4110455907318
 20
626.8842500076765
 30
0.5
 11
-181.284122467041
 21
626.8264770507812
 31
0.5
  0
LINE
  5
280
330
CC
100
AcDbEntity
  8
Sketch2
100
AcDbLine
 10
-198.7768350780809
 20
679.0637962219372
 30
0.5
 11
-198.6566543579101
 21
678.9930725097656
 31
0.5
  0
LINE
  5
281
330
CC
100
AcDbEntity
  8
Sketch2
100
AcDbLine
 10
-180.4983711242676
 20
625.7257843017578
 30
0.5
 11
-180.484943242726
 21
625.5869850205388
 31
0.5
  0
LINE
  5
282
330
CC
100
AcDbEntity
  8
Sketch2
100
AcDbLine
 10
-198.2115753295764
 20
676.8817125502139
 30
0.5
 11
-198.282299041748
 21
676.7615509033203
 31
0.5
  0
LINE
  5
283
330
CC
100
AcDbEntity
  8
Sketch2
100
AcDbLine
 10
-181.0542297363281
 20
626.668586730957
 30
0.5
 11
-180.9547222675745
 21
626.5708912632637
 31
0.5
  0
LINE
  5
284
330
CC
100
AcDbEntity
  8
Sketch2
100
AcDbLine
 10
-198.282299041748
 20
676.7615509033203
 30
0.5
 11
-198.3728227999815
 21
676.6554630096636
 31
0.5
  0
LINE
  5
285
330
CC
100
AcDbEntity
  8
Sketch2
100
AcDbLine
 10
-198.9211654663086
 20
676.2344360351562
 30
0.5
 11
-199.052602301114
 21
676.1878580710589
 31
0.5
  0
LINE
  5
286
330
CC
100
AcDbEntity
  8
Sketch2
100
AcDbLine
 10
-180.4824067355747
 20
625.3091606161746
 30
0.5
 11
-180.4932975769043
 21
625.1701354980468
 31
0.5
  0
LINE
  5
287
330
CC
100
AcDbEntity
  8
Sketch2
100
AcDbLine
 10
-198.2670211791992
 20
678.5968780517578
 30
0.5
 11
-198.1982986547754
 21
678.4755312018039
 31
0.5
  0
LINE
  5
288
330
CC
100
AcDbEntity
  8
Sketch2
100
AcDbLine
 10
-198.1982986547754
 20
678.4755312018039
 30
0.5
 11
-198.1295776367187
 21
678.3541870117187
 31
0.5
  0
LINE
  5
289
330
CC
100
AcDbEntity
  8
Sketch2
100
AcDbLine
 10
-180.4932975769043
 20
625.1701354980468
 30
0.5
 11
-180.5281547551959
 21
625.0351128085115
 31
0.5
  0
LINE
  5
28A
330
CC
100
AcDbEntity
  8
Sketch2
100
AcDbLine
 10
-198.4633445739746
 20
676.5493774414062
 30
0.5
 11
-198.5709106790226
 21
676.4606466105377
 31
0.5
  0
LINE
  5
28B
330
CC
100
AcDbEntity
  8
Sketch2
100
AcDbLine
 10
-180.535687991275
 20
625.8601555402283
 30
0.5
 11
-180.4983711242676
 21
625.7257843017578
 31
0.5
  0
LINE
  5
28C
330
CC
100
AcDbEntity
  8
Sketch2
100
AcDbLine
 10
-180.5281547551959
 20
625.0351128085115
 30
0.5
 11
-180.5630111694336
 21
624.9000930786133
 31
0.5
  0
LINE
  5
28D
330
CC
100
AcDbEntity
  8
Sketch2
100
AcDbLine
 10
-180.5630111694336
 20
624.9000930786133
 30
0.5
 11
-180.6207949295618
 21
624.7731767096106
 31
0.5
  0
LINE
  5
28E
330
CC
100
AcDbEntity
  8
Sketch2
100
AcDbLine
 10
-198.5505760011012
 20
678.9025487515321
 30
0.5
 11
-198.4444999694824
 21
678.812026977539
 31
0.5
  0
LINE
  5
28F
330
CC
100
AcDbEntity
  8
Sketch2
100
AcDbLine
 10
-198.6784744262695
 20
676.3719177246094
 30
0.5
 11
-198.7998212762234
 21
676.3031761264902
 31
0.5
  0
LINE
  5
290
330
CC
100
AcDbEntity
  8
Sketch2
100
AcDbLine
 10
-200.1428618443362
 20
676.1969380957682
 30
0.5
 11
-200.273494720459
 21
676.2457275390625
 31
0.5
  0
LINE
  5
291
330
CC
100
AcDbEntity
  8
Sketch2
100
AcDbLine
 10
-198.017912188934
 20
677.4002823108723
 30
0.5
 11
-198.043270111084
 21
677.26318359375
 31
0.5
  0
LINE
  5
292
330
CC
100
AcDbEntity
  8
Sketch2
100
AcDbLine
 10
-200.3936780749953
 20
676.3164528015002
 30
0.5
 11
-200.513858795166
 21
676.3871765136719
 31
0.5
  0
LINE
  5
293
330
CC
100
AcDbEntity
  8
Sketch2
100
AcDbLine
 10
-182.0860481262207
 20
627.0335006713867
 30
0.5
 11
-181.9470294975049
 21
627.0226286650249
 31
0.5
  0
LINE
  5
294
330
CC
100
AcDbEntity
  8
Sketch2
100
AcDbLine
 10
-180.7741919220419
 20
626.3596903758553
 30
0.5
 11
-180.6931686401367
 21
626.2461853027343
 31
0.5
  0
LINE
  5
295
330
CC
100
AcDbEntity
  8
Sketch2
100
AcDbLine
 10
-198.0363845825195
 20
678.0913543701172
 30
0.5
 11
-198.0133149479676
 21
677.9538330264881
 31
0.5
  0
LINE
  5
296
330
CC
100
AcDbEntity
  8
Sketch2
100
AcDbLine
 10
-199.5985237145959
 20
676.0962677127379
 30
0.5
 11
-199.7379684448242
 21
676.097412109375
 31
0.5
  0
LINE
  5
297
330
CC
100
AcDbEntity
  8
Sketch2
100
AcDbLine
 10
-144.4947242736816
 20
596.7009735107422
 30
0.5
 11
-144.4346422392474
 21
596.5751445643414
 31
0.5
  0
LINE
  5
298
330
CC
100
AcDbEntity
  8
Sketch2
100
AcDbLine
 10
-183.4497451782226
 20
624.6209716796875
 30
0.5
 11
-183.5098273186432
 21
624.7468199217491
 31
0.5
  0
LINE
  5
299
330
CC
100
AcDbEntity
  8
Sketch2
100
AcDbLine
 10
-182.3636627197265
 20
627.0066833496094
 30
0.5
 11
-182.2248539016598
 21
627.0200921574556
 31
0.5
  0
LINE
  5
29A
330
CC
100
AcDbEntity
  8
Sketch2
100
AcDbLine
 10
-144.4346422392474
 20
596.5751445643414
 30
0.5
 11
-144.3745613098144
 21
596.4493179321289
 31
0.5
  0
LINE
  5
29B
330
CC
100
AcDbEntity
  8
Sketch2
100
AcDbLine
 10
-144.3745613098144
 20
596.4493179321289
 30
0.5
 11
-144.3372389222338
 21
596.3149439852753
 31
0.5
  0
LINE
  5
29C
330
CC
100
AcDbEntity
  8
Sketch2
100
AcDbLine
 10
-181.5105247497558
 20
623.9351272583007
 30
0.5
 11
-181.644889396801
 21
623.8978000364586
 31
0.5
  0
LINE
  5
29D
330
CC
100
AcDbEntity
  8
Sketch2
100
AcDbLine
 10
-181.7792510986328
 20
623.8604736328125
 30
0.5
 11
-181.9180503798518
 21
623.8470648249663
 31
0.5
  0
LINE
  5
29E
330
CC
100
AcDbEntity
  8
Sketch2
100
AcDbLine
 10
-183.6496162414551
 20
625.6970214843749
 30
0.5
 11
-183.6147495263158
 21
625.8320441739104
 31
0.5
  0
LINE
  5
29F
330
CC
100
AcDbEntity
  8
Sketch2
100
AcDbLine
 10
-181.1453545611738
 20
624.1363135040732
 30
0.5
 11
-181.2588500976562
 21
624.0552902221679
 31
0.5
  0
LINE
  5
2A0
330
CC
100
AcDbEntity
  8
Sketch2
100
AcDbLine
 10
-183.6147495263158
 20
625.8320441739104
 30
0.5
 11
-183.5798835754394
 21
625.9670639038086
 31
0.5
  0
LINE
  5
2A1
330
CC
100
AcDbEntity
  8
Sketch2
100
AcDbLine
 10
-182.3348999023437
 20
623.8554000854492
 30
0.5
 11
-182.4699225918792
 21
623.8902668005884
 31
0.5
  0
LINE
  5
2A2
330
CC
100
AcDbEntity
  8
Sketch2
100
AcDbLine
 10
-182.1958747842158
 20
623.8445283173969
 30
0.5
 11
-182.3348999023437
 21
623.8554000854492
 31
0.5
  0
LINE
  5
2A3
330
CC
100
AcDbEntity
  8
Sketch2
100
AcDbLine
 10
-182.4699225918792
 20
623.8902668005884
 30
0.5
 11
-182.6049423217773
 21
623.9251327514648
 31
0.5
  0
LINE
  5
2A4
330
CC
100
AcDbEntity
  8
Sketch2
100
AcDbLine
 10
-145.6095600128174
 20
597.4665451049804
 30
0.5
 11
-145.4745375614651
 21
597.4316784513469
 31
0.5
  0
LINE
  5
2A5
330
CC
100
AcDbEntity
  8
Sketch2
100
AcDbLine
 10
-180.6207949295618
 20
624.7731767096106
 30
0.5
 11
-180.6785774230957
 21
624.6462631225585
 31
0.5
  0
LINE
  5
2A6
330
CC
100
AcDbEntity
  8
Sketch2
100
AcDbLine
 10
-182.9975592571855
 20
626.7308434783487
 30
0.5
 11
-182.8840637207031
 21
626.8118667602538
 31
0.5
  0
LINE
  5
2A7
330
CC
100
AcDbEntity
  8
Sketch2
100
AcDbLine
 10
-145.3395175933838
 20
597.3968124389648
 30
0.5
 11
-145.2126014482647
 21
597.3390383175994
 31
0.5
  0
LINE
  5
2A8
330
CC
100
AcDbEntity
  8
Sketch2
100
AcDbLine
 10
-182.0568466186523
 20
623.8336563110351
 30
0.5
 11
-182.1958747842158
 21
623.8445283173969
 31
0.5
  0
LINE
  5
2A9
330
CC
100
AcDbEntity
  8
Sketch2
100
AcDbLine
 10
-180.9341536739745
 20
624.3168438496057
 30
0.5
 11
-181.0318565368652
 21
624.2173385620117
 31
0.5
  0
LINE
  5
2AA
330
CC
100
AcDbEntity
  8
Sketch2
100
AcDbLine
 10
-181.0318565368652
 20
624.2173385620117
 30
0.5
 11
-181.1453545611738
 21
624.1363135040732
 31
0.5
  0
LINE
  5
2AB
330
CC
100
AcDbEntity
  8
Sketch2
100
AcDbLine
 10
-183.1110572814941
 20
626.6498184204102
 30
0.5
 11
-182.9975592571855
 21
626.7308434783487
 31
0.5
  0
LINE
  5
2AC
330
CC
100
AcDbEntity
  8
Sketch2
100
AcDbLine
 10
-182.858772277832
 20
624.0406799316406
 30
0.5
 11
-182.9737294398366
 21
624.1196259567836
 31
0.5
  0
LINE
  5
2AD
330
CC
100
AcDbEntity
  8
Sketch2
100
AcDbLine
 10
-183.6445426940918
 20
625.141372680664
 30
0.5
 11
-183.6579610387857
 21
625.2801719618831
 31
0.5
  0
LINE
  5
2AE
330
CC
100
AcDbEntity
  8
Sketch2
100
AcDbLine
 10
-183.4643363952636
 20
626.2208938598632
 30
0.5
 11
-183.3853999069683
 21
626.3358510218678
 31
0.5
  0
LINE
  5
2AF
330
CC
100
AcDbEntity
  8
Sketch2
100
AcDbLine
 10
-145.0856876373291
 20
597.281265258789
 30
0.5
 11
-144.9707306781117
 21
597.2023193729087
 31
0.5
  0
LINE
  5
2B0
330
CC
100
AcDbEntity
  8
Sketch2
100
AcDbLine
 10
-181.644889396801
 20
623.8978000364586
 30
0.5
 11
-181.7792510986328
 21
623.8604736328125
 31
0.5
  0
LINE
  5
2B1
330
CC
100
AcDbEntity
  8
Sketch2
100
AcDbLine
 10
-181.2588500976562
 20
624.0552902221679
 30
0.5
 11
-181.3846888028703
 21
623.9952080817475
 31
0.5
  0
LINE
  5
2B2
330
CC
100
AcDbEntity
  8
Sketch2
100
AcDbLine
 10
-181.9180503798518
 20
623.8470648249663
 30
0.5
 11
-182.0568466186523
 21
623.8336563110351
 31
0.5
  0
LINE
  5
2B3
330
CC
100
AcDbEntity
  8
Sketch2
100
AcDbLine
 10
-180.757513911391
 20
624.531305960554
 30
0.5
 11
-180.8364486694336
 21
624.4163513183593
 31
0.5
  0
LINE
  5
2B4
330
CC
100
AcDbEntity
  8
Sketch2
100
AcDbLine
 10
-183.660497546146
 20
625.5579963662471
 30
0.5
 11
-183.6496162414551
 21
625.6970214843749
 31
0.5
  0
LINE
  5
2B5
330
CC
100
AcDbEntity
  8
Sketch2
100
AcDbLine
 10
-145.4745375614651
 20
597.4316784513469
 30
0.5
 11
-145.3395175933838
 21
597.3968124389648
 31
0.5
  0
LINE
  5
2B6
330
CC
100
AcDbEntity
  8
Sketch2
100
AcDbLine
 10
-183.5798835754394
 20
625.9670639038086
 30
0.5
 11
-183.5221093521589
 21
626.0939802728112
 31
0.5
  0
LINE
  5
2B7
330
CC
100
AcDbEntity
  8
Sketch2
100
AcDbLine
 10
-182.7582250154891
 20
626.8719489006744
 30
0.5
 11
-182.6323890686035
 21
626.932029724121
 31
0.5
  0
LINE
  5
2B8
330
CC
100
AcDbEntity
  8
Sketch2
100
AcDbLine
 10
-182.6323890686035
 20
626.932029724121
 30
0.5
 11
-182.4980244215583
 21
626.9693569459632
 31
0.5
  0
LINE
  5
2B9
330
CC
100
AcDbEntity
  8
Sketch2
100
AcDbLine
 10
-182.7318586907798
 20
623.9829069747453
 30
0.5
 11
-182.858772277832
 21
624.0406799316406
 31
0.5
  0
LINE
  5
2BA
330
CC
100
AcDbEntity
  8
Sketch2
100
AcDbLine
 10
-182.4980244215583
 20
626.9693569459632
 30
0.5
 11
-182.3636627197265
 21
627.0066833496094
 31
0.5
  0
LINE
  5
2BB
330
CC
100
AcDbEntity
  8
Sketch2
100
AcDbLine
 10
-145.2126014482647
 20
597.3390383175994
 30
0.5
 11
-145.0856876373291
 21
597.281265258789
 31
0.5
  0
LINE
  5
2BC
330
CC
100
AcDbEntity
  8
Sketch2
100
AcDbLine
 10
-144.9707306781117
 20
597.2023193729087
 30
0.5
 11
-144.8557758331299
 21
597.1233749389648
 31
0.5
  0
LINE
  5
2BD
330
CC
100
AcDbEntity
  8
Sketch2
100
AcDbLine
 10
-183.0886840820312
 20
624.1985702514648
 30
0.5
 11
-183.1881915507848
 21
624.2962847928534
 31
0.5
  0
LINE
  5
2BE
330
CC
100
AcDbEntity
  8
Sketch2
100
AcDbLine
 10
-182.8840637207031
 20
626.8118667602538
 30
0.5
 11
-182.7582250154891
 21
626.8719489006744
 31
0.5
  0
LINE
  5
2BF
330
CC
100
AcDbEntity
  8
Sketch2
100
AcDbLine
 10
-180.6785774230957
 20
624.6462631225585
 30
0.5
 11
-180.757513911391
 21
624.531305960554
 31
0.5
  0
LINE
  5
2C0
330
CC
100
AcDbEntity
  8
Sketch2
100
AcDbLine
 10
-183.2087601443848
 20
626.550313132816
 30
0.5
 11
-183.1110572814941
 21
626.6498184204102
 31
0.5
  0
LINE
  5
2C1
330
CC
100
AcDbEntity
  8
Sketch2
100
AcDbLine
 10
-183.5098273186432
 20
624.7468199217491
 30
0.5
 11
-183.5699081420898
 21
624.8726654052734
 31
0.5
  0
LINE
  5
2C2
330
CC
100
AcDbEntity
  8
Sketch2
100
AcDbLine
 10
-183.6713790893554
 20
625.4189682006836
 30
0.5
 11
-183.660497546146
 21
625.5579963662471
 31
0.5
  0
LINE
  5
2C3
330
CC
100
AcDbEntity
  8
Sketch2
100
AcDbLine
 10
-145.8876132965088
 20
597.4883270263672
 30
0.5
 11
-145.7485853761943
 21
597.4774359655221
 31
0.5
  0
LINE
  5
2C4
330
CC
100
AcDbEntity
  8
Sketch2
100
AcDbLine
 10
-144.8557758331299
 20
597.1233749389648
 30
0.5
 11
-144.7562733083253
 21
597.0256796436087
 31
0.5
  0
LINE
  5
2C5
330
CC
100
AcDbEntity
  8
Sketch2
100
AcDbLine
 10
-182.6049423217773
 20
623.9251327514648
 30
0.5
 11
-182.7318586907798
 21
623.9829069747453
 31
0.5
  0
LINE
  5
2C6
330
CC
100
AcDbEntity
  8
Sketch2
100
AcDbLine
 10
-183.1881915507848
 20
624.2962847928534
 30
0.5
 11
-183.2876968383789
 21
624.3939971923828
 31
0.5
  0
LINE
  5
2C7
330
CC
100
AcDbEntity
  8
Sketch2
100
AcDbLine
 10
-182.9737294398366
 20
624.1196259567836
 30
0.5
 11
-183.0886840820312
 21
624.1985702514648
 31
0.5
  0
LINE
  5
2C8
330
CC
100
AcDbEntity
  8
Sketch2
100
AcDbLine
 10
-182.2248539016598
 20
627.0200921574556
 30
0.5
 11
-182.0860481262207
 21
627.0335006713867
 31
0.5
  0
LINE
  5
2C9
330
CC
100
AcDbEntity
  8
Sketch2
100
AcDbLine
 10
-181.3846888028703
 20
623.9952080817475
 30
0.5
 11
-181.5105247497558
 21
623.9351272583007
 31
0.5
  0
LINE
  5
2CA
330
CC
100
AcDbEntity
  8
Sketch2
100
AcDbLine
 10
-145.7485853761943
 20
597.4774359655221
 30
0.5
 11
-145.6095600128174
 21
597.4665451049804
 31
0.5
  0
LINE
  5
2CB
330
CC
100
AcDbEntity
  8
Sketch2
100
AcDbLine
 10
-183.3064651489258
 20
626.4508056640624
 30
0.5
 11
-183.2087601443848
 21
626.550313132816
 31
0.5
  0
LINE
  5
2CC
330
CC
100
AcDbEntity
  8
Sketch2
100
AcDbLine
 10
-144.7562733083253
 20
597.0256796436087
 30
0.5
 11
-144.6567726135254
 21
596.9279861450195
 31
0.5
  0
LINE
  5
2CD
330
CC
100
AcDbEntity
  8
Sketch2
100
AcDbLine
 10
-144.6567726135254
 20
596.9279861450195
 30
0.5
 11
-144.575747698517
 21
596.8144787840933
 31
0.5
  0
LINE
  5
2CE
330
CC
100
AcDbEntity
  8
Sketch2
100
AcDbLine
 10
-180.8364486694336
 20
624.4163513183593
 30
0.5
 11
-180.9341536739745
 21
624.3168438496057
 31
0.5
  0
LINE
  5
2CF
330
CC
100
AcDbEntity
  8
Sketch2
100
AcDbLine
 10
-183.6072258270844
 20
625.0070205154709
 30
0.5
 11
-183.6445426940918
 21
625.141372680664
 31
0.5
  0
LINE
  5
2D0
330
CC
100
AcDbEntity
  8
Sketch2
100
AcDbLine
 10
-183.5221093521589
 20
626.0939802728112
 30
0.5
 11
-183.4643363952636
 21
626.2208938598632
 31
0.5
  0
LINE
  5
2D1
330
CC
100
AcDbEntity
  8
Sketch2
100
AcDbLine
 10
-183.3853999069683
 20
626.3358510218678
 30
0.5
 11
-183.3064651489258
 21
626.4508056640624
 31
0.5
  0
LINE
  5
2D2
330
CC
100
AcDbEntity
  8
Sketch2
100
AcDbLine
 10
-144.575747698517
 20
596.8144787840933
 30
0.5
 11
-144.4947242736816
 21
596.7009735107422
 31
0.5
  0
LINE
  5
2D3
330
CC
100
AcDbEntity
  8
Sketch2
100
AcDbLine
 10
-183.5699081420898
 20
624.8726654052734
 30
0.5
 11
-183.6072258270844
 21
625.0070205154709
 31
0.5
  0
LINE
  5
2D4
330
CC
100
AcDbEntity
  8
Sketch2
100
AcDbLine
 10
-183.3687218963174
 20
624.5074856798437
 30
0.5
 11
-183.4497451782226
 21
624.6209716796875
 31
0.5
  0
LINE
  5
2D5
330
CC
100
AcDbEntity
  8
Sketch2
100
AcDbLine
 10
-183.2876968383789
 20
624.3939971923828
 30
0.5
 11
-183.3687218963174
 21
624.5074856798437
 31
0.5
  0
LINE
  5
2D6
330
CC
100
AcDbEntity
  8
Sketch2
100
AcDbLine
 10
-183.6579610387857
 20
625.2801719618831
 30
0.5
 11
-183.6713790893554
 21
625.4189682006836
 31
0.5
  0
LINE
  5
2D7
330
CC
100
AcDbEntity
  8
Sketch2
100
AcDbLine
 10
-147.4595214170758
 20
595.7349789987073
 30
0.5
 11
-147.4729442596435
 21
595.8737945556641
 31
0.5
  0
LINE
  5
2D8
330
CC
100
AcDbEntity
  8
Sketch2
100
AcDbLine
 10
-144.2730712890625
 20
595.9029769897461
 30
0.5
 11
-144.2839575814921
 21
595.7639490694316
 31
0.5
  0
LINE
  5
2D9
330
CC
100
AcDbEntity
  8
Sketch2
100
AcDbLine
 10
-146.4064979553223
 20
594.3799209594726
 30
0.5
 11
-146.5334141004413
 21
594.4377141544997
 31
0.5
  0
LINE
  5
2DA
330
CC
100
AcDbEntity
  8
Sketch2
100
AcDbLine
 10
-147.451171875
 20
596.1518096923827
 30
0.5
 11
-147.4163099897819
 21
596.286832143735
 31
0.5
  0
LINE
  5
2DB
330
CC
100
AcDbEntity
  8
Sketch2
100
AcDbLine
 10
-147.4163099897819
 20
596.286832143735
 30
0.5
 11
-147.3814487457275
 21
596.4218521118164
 31
0.5
  0
LINE
  5
2DC
330
CC
100
AcDbEntity
  8
Sketch2
100
AcDbLine
 10
-146.0264145484822
 20
597.4748994154716
 30
0.5
 11
-145.8876132965088
 21
597.4883270263672
 31
0.5
  0
LINE
  5
2DD
330
CC
100
AcDbEntity
  8
Sketch2
100
AcDbLine
 10
-136.0141563415527
 20
466.6410064697266
 30
0.5000000000000001
 11
-135.8087374108254
 21
466.5683547640565
 31
0.5
  0
LINE
  5
2DE
330
CC
100
AcDbEntity
  8
Sketch2
100
AcDbLine
 10
-144.6380043029785
 20
594.8711395263671
 30
0.5
 11
-144.73570436675
 21
594.7716322331472
 31
0.5
  0
LINE
  5
2DF
330
CC
100
AcDbEntity
  8
Sketch2
100
AcDbLine
 10
-144.73570436675
 20
594.7716322331472
 30
0.5
 11
-144.833402633667
 21
594.6721267700195
 31
0.5
  0
LINE
  5
2E0
330
CC
100
AcDbEntity
  8
Sketch2
100
AcDbLine
 10
-146.7752848705943
 20
594.5744330988397
 30
0.5
 11
-146.8902397155761
 21
594.6533584594726
 31
0.5
  0
LINE
  5
2E1
330
CC
100
AcDbEntity
  8
Sketch2
100
AcDbLine
 10
-147.170267850189
 20
594.9622736876551
 30
0.5
 11
-147.2512912750244
 21
595.0757598876953
 31
0.5
  0
LINE
  5
2E2
330
CC
100
AcDbEntity
  8
Sketch2
100
AcDbLine
 10
-146.8902397155761
 20
594.6533584594726
 30
0.5
 11
-146.9897422403807
 21
594.7510728284905
 31
0.5
  0
LINE
  5
2E3
330
CC
100
AcDbEntity
  8
Sketch2
100
AcDbLine
 10
-147.3714637756347
 20
595.3274536132812
 30
0.5
 11
-147.4087813948
 21
595.461808486473
 31
0.5
  0
LINE
  5
2E4
330
CC
100
AcDbEntity
  8
Sketch2
100
AcDbLine
 10
-147.1869509113437
 20
596.7906390270884
 30
0.5
 11
-147.1080112457275
 21
596.9055938720702
 31
0.5
  0
LINE
  5
2E5
330
CC
100
AcDbEntity
  8
Sketch2
100
AcDbLine
 10
-145.719610536967
 20
594.3018721299385
 30
0.5
 11
-145.8584117889404
 21
594.2884445190429
 31
0.5
  0
LINE
  5
2E6
330
CC
100
AcDbEntity
  8
Sketch2
100
AcDbLine
 10
-147.3814487457275
 20
596.4218521118164
 30
0.5
 11
-147.3236698559467
 21
596.5487682569355
 31
0.5
  0
LINE
  5
2E7
330
CC
100
AcDbEntity
  8
Sketch2
100
AcDbLine
 10
-147.0103111819559
 20
597.0051011652903
 30
0.5
 11
-146.912612915039
 21
597.104606628418
 31
0.5
  0
LINE
  5
2E8
330
CC
100
AcDbEntity
  8
Sketch2
100
AcDbLine
 10
-146.912612915039
 20
597.104606628418
 30
0.5
 11
-146.7991150909436
 21
597.1856315434263
 31
0.5
  0
LINE
  5
2E9
330
CC
100
AcDbEntity
  8
Sketch2
100
AcDbLine
 10
-146.559776102601
 20
597.3267370026958
 30
0.5
 11
-146.4339351654053
 21
597.3868179321288
 31
0.5
  0
LINE
  5
2EA
330
CC
100
AcDbEntity
  8
Sketch2
100
AcDbLine
 10
-146.4339351654053
 20
597.3868179321288
 30
0.5
 11
-146.2995755237979
 21
597.4241450881249
 31
0.5
  0
LINE
  5
2EB
330
CC
100
AcDbEntity
  8
Sketch2
100
AcDbLine
 10
-145.5808067321777
 20
594.315299987793
 30
0.5
 11
-145.719610536967
 21
594.3018721299385
 31
0.5
  0
LINE
  5
2EC
330
CC
100
AcDbEntity
  8
Sketch2
100
AcDbLine
 10
-145.060396194458
 20
594.5100784301757
 30
0.5
 11
-145.186239446105
 21
594.4499963957416
 31
0.5
  0
LINE
  5
2ED
330
CC
100
AcDbEntity
  8
Sketch2
100
AcDbLine
 10
-144.3645668029785
 20
595.3548812866211
 30
0.5
 11
-144.4223456927593
 21
595.227965141502
 31
0.5
  0
LINE
  5
2EE
330
CC
100
AcDbEntity
  8
Sketch2
100
AcDbLine
 10
-147.2512912750244
 20
595.0757598876953
 30
0.5
 11
-147.311378077874
 21
595.2016079077577
 31
0.5
  0
LINE
  5
2EF
330
CC
100
AcDbEntity
  8
Sketch2
100
AcDbLine
 10
-146.685619354248
 20
597.2666549682617
 30
0.5
 11
-146.559776102601
 21
597.3267370026958
 31
0.5
  0
LINE
  5
2F0
330
CC
100
AcDbEntity
  8
Sketch2
100
AcDbLine
 10
-147.0892429351806
 20
594.8487854003906
 30
0.5
 11
-147.170267850189
 21
594.9622736876551
 31
0.5
  0
LINE
  5
2F1
330
CC
100
AcDbEntity
  8
Sketch2
100
AcDbLine
 10
-136.6618704758669
 20
466.7107773044554
 30
0.5
 11
-136.4439964294433
 21
466.7127609252929
 31
0.5000000000000001
  0
LINE
  5
2F2
330
CC
100
AcDbEntity
  8
Sketch2
100
AcDbLine
 10
-136.4439964294433
 20
466.7127609252929
 30
0.5000000000000001
 11
-136.2290740299971
 21
466.6768833042992
 31
0.5
  0
LINE
  5
2F3
330
CC
100
AcDbEntity
  8
Sketch2
100
AcDbLine
 10
-144.5590646373623
 20
594.986094371349
 30
0.5
 11
-144.6380043029785
 21
594.8711395263671
 31
0.5
  0
LINE
  5
2F4
330
CC
100
AcDbEntity
  8
Sketch2
100
AcDbLine
 10
-146.9897422403807
 20
594.7510728284905
 30
0.5
 11
-147.0892429351806
 21
594.8487854003906
 31
0.5
  0
LINE
  5
2F5
330
CC
100
AcDbEntity
  8
Sketch2
100
AcDbLine
 10
-147.4729442596435
 20
595.8737945556641
 30
0.5
 11
-147.4620579672139
 21
596.0128034023169
 31
0.5
  0
LINE
  5
2F6
330
CC
100
AcDbEntity
  8
Sketch2
100
AcDbLine
 10
-144.833402633667
 20
594.6721267700195
 30
0.5
 11
-144.9469004577624
 21
594.5911018550112
 31
0.5
  0
LINE
  5
2F7
330
CC
100
AcDbEntity
  8
Sketch2
100
AcDbLine
 10
-145.9974349408395
 20
594.299335579888
 30
0.5
 11
-146.1364555358886
 21
594.3102264404297
 31
0.5
  0
LINE
  5
2F8
330
CC
100
AcDbEntity
  8
Sketch2
100
AcDbLine
 10
-146.1364555358886
 20
594.3102264404297
 30
0.5
 11
-146.2714779872409
 21
594.3450740204014
 31
0.5
  0
LINE
  5
2F9
330
CC
100
AcDbEntity
  8
Sketch2
100
AcDbLine
 10
-146.2714779872409
 20
594.3450740204014
 30
0.5
 11
-146.4064979553223
 21
594.3799209594726
 31
0.5
  0
LINE
  5
2FA
330
CC
100
AcDbEntity
  8
Sketch2
100
AcDbLine
 10
-147.4620579672139
 20
596.0128034023169
 30
0.5
 11
-147.451171875
 21
596.1518096923827
 31
0.5
  0
LINE
  5
2FB
330
CC
100
AcDbEntity
  8
Sketch2
100
AcDbLine
 10
-147.3236698559467
 20
596.5487682569355
 30
0.5
 11
-147.2658920288086
 21
596.675682067871
 31
0.5
  0
LINE
  5
2FC
330
CC
100
AcDbEntity
  8
Sketch2
100
AcDbLine
 10
-147.1080112457275
 20
596.9055938720702
 30
0.5
 11
-147.0103111819559
 21
597.0051011652903
 31
0.5
  0
LINE
  5
2FD
330
CC
100
AcDbEntity
  8
Sketch2
100
AcDbLine
 10
-145.8584117889404
 20
594.2884445190429
 30
0.5
 11
-145.9974349408395
 21
594.299335579888
 31
0.5
  0
LINE
  5
2FE
330
CC
100
AcDbEntity
  8
Sketch2
100
AcDbLine
 10
-146.6603279113769
 20
594.4955062866211
 30
0.5
 11
-146.7752848705943
 21
594.5744330988397
 31
0.5
  0
LINE
  5
2FF
330
CC
100
AcDbEntity
  8
Sketch2
100
AcDbLine
 10
-145.4464447933235
 20
594.3526073839742
 30
0.5
 11
-145.5808067321777
 21
594.315299987793
 31
0.5
  0
LINE
  5
300
330
CC
100
AcDbEntity
  8
Sketch2
100
AcDbLine
 10
-146.7991150909436
 20
597.1856315434263
 30
0.5
 11
-146.685619354248
 21
597.2666549682617
 31
0.5
  0
LINE
  5
301
330
CC
100
AcDbEntity
  8
Sketch2
100
AcDbLine
 10
-144.2839575814921
 20
595.7639490694316
 30
0.5
 11
-144.294843673706
 21
595.6249237060546
 31
0.5
  0
LINE
  5
302
330
CC
100
AcDbEntity
  8
Sketch2
100
AcDbLine
 10
-144.4801235198974
 20
595.1010513305663
 30
0.5
 11
-144.5590646373623
 21
594.986094371349
 31
0.5
  0
LINE
  5
303
330
CC
100
AcDbEntity
  8
Sketch2
100
AcDbLine
 10
-147.4460983276367
 20
595.5961608886719
 30
0.5
 11
-147.4595214170758
 21
595.7349789987073
 31
0.5
  0
LINE
  5
304
330
CC
100
AcDbEntity
  8
Sketch2
100
AcDbLine
 10
-146.2995755237979
 20
597.4241450881249
 30
0.5
 11
-146.1652183532715
 21
597.4614715576172
 31
0.5
  0
LINE
  5
305
330
CC
100
AcDbEntity
  8
Sketch2
100
AcDbLine
 10
-136.8797492980957
 20
466.7087936401367
 30
0.5000000000000001
 11
-136.6618704758669
 21
466.7107773044554
 31
0.5
  0
LINE
  5
306
330
CC
100
AcDbEntity
  8
Sketch2
100
AcDbLine
 10
-144.3372389222338
 20
596.3149439852753
 30
0.5
 11
-144.2999172210693
 21
596.1805725097656
 31
0.5
  0
LINE
  5
307
330
CC
100
AcDbEntity
  8
Sketch2
100
AcDbLine
 10
-146.5334141004413
 20
594.4377141544997
 30
0.5
 11
-146.6603279113769
 21
594.4955062866211
 31
0.5
  0
LINE
  5
308
330
CC
100
AcDbEntity
  8
Sketch2
100
AcDbLine
 10
-136.2290740299971
 20
466.6768833042992
 30
0.5
 11
-136.0141563415527
 21
466.6410064697266
 31
0.5000000000000001
  0
LINE
  5
309
330
CC
100
AcDbEntity
  8
Sketch2
100
AcDbLine
 10
-135.6033229827881
 20
466.4957046508789
 30
0.5000000000000001
 11
-135.4136350823184
 21
466.3884914091956
 31
0.5
  0
LINE
  5
30A
330
CC
100
AcDbEntity
  8
Sketch2
100
AcDbLine
 10
-147.311378077874
 20
595.2016079077577
 30
0.5
 11
-147.3714637756347
 21
595.3274536132812
 31
0.5
  0
LINE
  5
30B
330
CC
100
AcDbEntity
  8
Sketch2
100
AcDbLine
 10
-145.3120803833008
 20
594.3899154663085
 30
0.5
 11
-145.4464447933235
 21
594.3526073839742
 31
0.5
  0
LINE
  5
30C
330
CC
100
AcDbEntity
  8
Sketch2
100
AcDbLine
 10
-135.8087374108254
 20
466.5683547640565
 30
0.5
 11
-135.6033229827881
 21
466.4957046508789
 31
0.5000000000000001
  0
LINE
  5
30D
330
CC
100
AcDbEntity
  8
Sketch2
100
AcDbLine
 10
-147.2658920288086
 20
596.675682067871
 30
0.5
 11
-147.1869509113437
 21
596.7906390270884
 31
0.5
  0
LINE
  5
30E
330
CC
100
AcDbEntity
  8
Sketch2
100
AcDbLine
 10
-146.1652183532715
 20
597.4614715576172
 30
0.5
 11
-146.0264145484822
 21
597.4748994154716
 31
0.5
  0
LINE
  5
30F
330
CC
100
AcDbEntity
  8
Sketch2
100
AcDbLine
 10
-144.3297055589241
 20
595.4899012547024
 30
0.5
 11
-144.3645668029785
 21
595.3548812866211
 31
0.5
  0
LINE
  5
310
330
CC
100
AcDbEntity
  8
Sketch2
100
AcDbLine
 10
-144.9469004577624
 20
594.5911018550112
 30
0.5
 11
-145.060396194458
 21
594.5100784301757
 31
0.5
  0
LINE
  5
311
330
CC
100
AcDbEntity
  8
Sketch2
100
AcDbLine
 10
-145.186239446105
 20
594.4499963957416
 30
0.5
 11
-145.3120803833008
 21
594.3899154663085
 31
0.5
  0
LINE
  5
312
330
CC
100
AcDbEntity
  8
Sketch2
100
AcDbLine
 10
-147.4087813948
 20
595.461808486473
 30
0.5
 11
-147.4460983276367
 21
595.5961608886719
 31
0.5
  0
LINE
  5
313
330
CC
100
AcDbEntity
  8
Sketch2
100
AcDbLine
 10
-144.294843673706
 20
595.6249237060546
 30
0.5
 11
-144.3297055589241
 21
595.4899012547024
 31
0.5
  0
LINE
  5
314
330
CC
100
AcDbEntity
  8
Sketch2
100
AcDbLine
 10
-144.2864941316302
 20
596.0417734733919
 30
0.5
 11
-144.2730712890625
 21
595.9029769897461
 31
0.5
  0
LINE
  5
315
330
CC
100
AcDbEntity
  8
Sketch2
100
AcDbLine
 10
-144.2999172210693
 20
596.1805725097656
 30
0.5
 11
-144.2864941316302
 21
596.0417734733919
 31
0.5
  0
LINE
  5
316
330
CC
100
AcDbEntity
  8
Sketch2
100
AcDbLine
 10
-144.4223456927593
 20
595.227965141502
 30
0.5
 11
-144.4801235198974
 21
595.1010513305663
 31
0.5
  0
LINE
  5
317
330
CC
100
AcDbEntity
  8
Sketch2
100
AcDbLine
 10
-136.1843132609567
 20
461.7717738559276
 30
0.5
 11
-136.3985347747803
 21
461.7319869995117
 31
0.5000000000000001
  0
LINE
  5
318
330
CC
100
AcDbEntity
  8
Sketch2
100
AcDbLine
 10
-136.3985347747803
 20
461.7319869995117
 30
0.5000000000000001
 11
-136.6164183654329
 21
461.730003335193
 31
0.5
  0
LINE
  5
319
330
CC
100
AcDbEntity
  8
Sketch2
100
AcDbLine
 10
-134.855318069458
 20
462.4688339233398
 30
0.5000000000000001
 11
-135.0209492716404
 21
462.3272498825971
 31
0.5
  0
LINE
  5
31A
330
CC
100
AcDbEntity
  8
Sketch2
100
AcDbLine
 10
-134.1507530212402
 20
464.4609832763672
 30
0.5000000000000001
 11
-134.1487645884977
 21
464.2431044541383
 31
0.5
  0
LINE
  5
31B
330
CC
100
AcDbEntity
  8
Sketch2
100
AcDbLine
 10
-138.532277705189
 20
462.6021975550789
 30
0.5
 11
-138.6738491058349
 21
462.7678298950195
 31
0.5
  0
LINE
  5
31C
330
CC
100
AcDbEntity
  8
Sketch2
100
AcDbLine
 10
-137.5122620152583
 20
466.5527924326777
 30
0.5
 11
-137.3082065582275
 21
466.6291809082031
 31
0.5000000000000001
  0
LINE
  5
31D
330
CC
100
AcDbEntity
  8
Sketch2
100
AcDbLine
 10
-135.9700870513916
 20
461.8115615844726
 30
0.5000000000000001
 11
-136.1843132609567
 21
461.7717738559276
 31
0.5
  0
LINE
  5
31E
330
CC
100
AcDbEntity
  8
Sketch2
100
AcDbLine
 10
-139.1295290211214
 20
464.1976761855101
 30
0.5
 11
-139.1315174102783
 21
464.4155502319335
 31
0.5
  0
LINE
  5
31F
330
CC
100
AcDbEntity
  8
Sketch2
100
AcDbLine
 10
-135.0209492716404
 20
462.3272498825971
 30
0.5
 11
-135.1865768432617
 21
462.1856689453125
 31
0.5000000000000001
  0
LINE
  5
320
330
CC
100
AcDbEntity
  8
Sketch2
100
AcDbLine
 10
-134.2185306549072
 20
463.5953903198242
 30
0.5000000000000001
 11
-134.2911823605773
 21
463.389966620673
 31
0.5
  0
LINE
  5
321
330
CC
100
AcDbEntity
  8
Sketch2
100
AcDbLine
 10
-135.0557642623595
 20
466.1427482680948
 30
0.5
 11
-134.887580871582
 21
466.0042190551758
 31
0.5000000000000001
  0
LINE
  5
322
330
CC
100
AcDbEntity
  8
Sketch2
100
AcDbLine
 10
-134.3067256184697
 20
465.0934959936343
 30
0.5
 11
-134.2303371429443
 21
464.8894500732422
 31
0.5000000000000001
  0
LINE
  5
323
330
CC
100
AcDbEntity
  8
Sketch2
100
AcDbLine
 10
-138.8951778411865
 20
463.143196105957
 30
0.5
 11
-138.9715679911494
 21
463.347265572737
 31
0.5
  0
LINE
  5
324
330
CC
100
AcDbEntity
  8
Sketch2
100
AcDbLine
 10
-134.1826538203346
 20
463.8103080082686
 30
0.5
 11
-134.2185306549072
 21
463.5953903198242
 31
0.5000000000000001
  0
LINE
  5
325
330
CC
100
AcDbEntity
  8
Sketch2
100
AcDbLine
 10
-134.604434967041
 20
465.6729507446288
 30
0.5000000000000001
 11
-134.4937741549193
 21
465.4852465084778
 31
0.5
  0
LINE
  5
326
330
CC
100
AcDbEntity
  8
Sketch2
100
AcDbLine
 10
-138.7845146863805
 20
462.9555150574753
 30
0.5
 11
-138.8951778411865
 21
463.143196105957
 31
0.5
  0
LINE
  5
327
330
CC
100
AcDbEntity
  8
Sketch2
100
AcDbLine
 10
-139.0956397892845
 20
464.6304535576845
 30
0.5
 11
-139.0597629547119
 21
464.8453521728515
 31
0.5
  0
LINE
  5
328
330
CC
100
AcDbEntity
  8
Sketch2
100
AcDbLine
 10
-135.3742715425651
 20
462.0750033647669
 30
0.5
 11
-135.5619621276855
 21
461.9643402099609
 31
0.5000000000000001
  0
LINE
  5
329
330
CC
100
AcDbEntity
  8
Sketch2
100
AcDbLine
 10
-134.1467761993408
 20
464.0252304077148
 30
0.5000000000000001
 11
-134.1826538203346
 21
463.8103080082686
 31
0.5
  0
LINE
  5
32A
330
CC
100
AcDbEntity
  8
Sketch2
100
AcDbLine
 10
-137.0492148111981
 20
461.7638973353492
 30
0.5
 11
-137.2641277313232
 21
461.7997741699219
 31
0.5000000000000001
  0
LINE
  5
32B
330
CC
100
AcDbEntity
  8
Sketch2
100
AcDbLine
 10
-137.2641277313232
 20
461.7997741699219
 30
0.5000000000000001
 11
-137.4695514304744
 21
461.8724258755919
 31
0.5
  0
LINE
  5
32C
330
CC
100
AcDbEntity
  8
Sketch2
100
AcDbLine
 10
-138.3907032012939
 20
462.4365615844726
 30
0.5000000000000001
 11
-138.532277705189
 21
462.6021975550789
 31
0.5
  0
LINE
  5
32D
330
CC
100
AcDbEntity
  8
Sketch2
100
AcDbLine
 10
-139.0877489636436
 20
463.7655663128191
 30
0.5
 11
-139.1275405883789
 21
463.9797973632812
 31
0.5
  0
LINE
  5
32E
330
CC
100
AcDbEntity
  8
Sketch2
100
AcDbLine
 10
-138.9144611358642
 20
465.2561950683593
 30
0.5
 11
-138.8072431257571
 21
465.4458829688291
 31
0.5
  0
LINE
  5
32F
330
CC
100
AcDbEntity
  8
Sketch2
100
AcDbLine
 10
-136.8342971801758
 20
461.7280197143554
 30
0.5000000000000001
 11
-137.0492148111981
 21
461.7638973353492
 31
0.5
  0
LINE
  5
330
330
CC
100
AcDbEntity
  8
Sketch2
100
AcDbLine
 10
-134.746006367687
 20
465.8385830845695
 30
0.5
 11
-134.604434967041
 21
465.6729507446288
 31
0.5000000000000001
  0
LINE
  5
331
330
CC
100
AcDbEntity
  8
Sketch2
100
AcDbLine
 10
-139.1315174102783
 20
464.4155502319335
 30
0.5
 11
-139.0956397892845
 21
464.6304535576845
 31
0.5
  0
LINE
  5
332
330
CC
100
AcDbEntity
  8
Sketch2
100
AcDbLine
 10
-134.4710504838619
 20
462.9948595238467
 30
0.5
 11
-134.5782661437988
 21
462.80517578125
 31
0.5000000000000001
  0
LINE
  5
333
330
CC
100
AcDbEntity
  8
Sketch2
100
AcDbLine
 10
-135.7660268260415
 20
461.8879500599979
 30
0.5
 11
-135.9700870513916
 21
461.8115615844726
 31
0.5000000000000001
  0
LINE
  5
334
330
CC
100
AcDbEntity
  8
Sketch2
100
AcDbLine
 10
-138.0543422698974
 20
462.1595001220703
 30
0.5000000000000001
 11
-138.2225245788357
 21
462.2980323715536
 31
0.5
  0
LINE
  5
335
330
CC
100
AcDbEntity
  8
Sketch2
100
AcDbLine
 10
-134.1905446459755
 20
464.6752143268293
 30
0.5
 11
-134.1507530212402
 21
464.4609832763672
 31
0.5000000000000001
  0
LINE
  5
336
330
CC
100
AcDbEntity
  8
Sketch2
100
AcDbLine
 10
-139.0597629547119
 20
464.8453521728515
 30
0.5
 11
-138.9871112490418
 21
465.0507758720028
 31
0.5
  0
LINE
  5
337
330
CC
100
AcDbEntity
  8
Sketch2
100
AcDbLine
 10
-134.1487645884977
 20
464.2431044541383
 30
0.5
 11
-134.1467761993408
 21
464.0252304077148
 31
0.5000000000000001
  0
LINE
  5
338
330
CC
100
AcDbEntity
  8
Sketch2
100
AcDbLine
 10
-134.2911823605773
 20
463.389966620673
 30
0.5
 11
-134.3638324737549
 21
463.1845474243164
 31
0.5000000000000001
  0
LINE
  5
339
330
CC
100
AcDbEntity
  8
Sketch2
100
AcDbLine
 10
-137.4695514304744
 20
461.8724258755919
 30
0.5
 11
-137.674970626831
 21
461.9450759887695
 31
0.5000000000000001
  0
LINE
  5
33A
330
CC
100
AcDbEntity
  8
Sketch2
100
AcDbLine
 10
-134.3831157684326
 20
465.2975463867187
 30
0.5000000000000001
 11
-134.3067256184697
 21
465.0934959936343
 31
0.5
  0
LINE
  5
33B
330
CC
100
AcDbEntity
  8
Sketch2
100
AcDbLine
 10
-134.7167936248582
 20
462.6370030091593
 30
0.5
 11
-134.855318069458
 21
462.4688339233398
 31
0.5000000000000001
  0
LINE
  5
33C
330
CC
100
AcDbEntity
  8
Sketch2
100
AcDbLine
 10
-137.8646585273007
 20
462.0522892304528
 30
0.5
 11
-138.0543422698974
 21
462.1595001220703
 31
0.5000000000000001
  0
LINE
  5
33D
330
CC
100
AcDbEntity
  8
Sketch2
100
AcDbLine
 10
-135.4136350823184
 20
466.3884914091956
 30
0.5
 11
-135.2239513397217
 21
466.2812805175781
 31
0.5000000000000001
  0
LINE
  5
33E
330
CC
100
AcDbEntity
  8
Sketch2
100
AcDbLine
 10
-137.674970626831
 20
461.9450759887695
 30
0.5000000000000001
 11
-137.8646585273007
 21
462.0522892304528
 31
0.5
  0
LINE
  5
33F
330
CC
100
AcDbEntity
  8
Sketch2
100
AcDbLine
 10
-138.9715679911494
 20
463.347265572737
 30
0.5
 11
-139.0479564666748
 21
463.5513305664062
 31
0.5
  0
LINE
  5
340
330
CC
100
AcDbEntity
  8
Sketch2
100
AcDbLine
 10
-138.8072431257571
 20
465.4458829688291
 30
0.5
 11
-138.7000274658203
 21
465.6355667114257
 31
0.5
  0
LINE
  5
341
330
CC
100
AcDbEntity
  8
Sketch2
100
AcDbLine
 10
-138.7000274658203
 20
465.6355667114257
 30
0.5
 11
-138.5614952163369
 21
465.8037585572118
 31
0.5
  0
LINE
  5
342
330
CC
100
AcDbEntity
  8
Sketch2
100
AcDbLine
 10
-138.2225245788357
 20
462.2980323715536
 30
0.5
 11
-138.3907032012939
 21
462.4365615844726
 31
0.5000000000000001
  0
LINE
  5
343
330
CC
100
AcDbEntity
  8
Sketch2
100
AcDbLine
 10
-134.887580871582
 20
466.0042190551758
 30
0.5000000000000001
 11
-134.746006367687
 21
465.8385830845695
 31
0.5
  0
LINE
  5
344
330
CC
100
AcDbEntity
  8
Sketch2
100
AcDbLine
 10
-134.4937741549193
 20
465.4852465084778
 30
0.5
 11
-134.3831157684326
 21
465.2975463867187
 31
0.5000000000000001
  0
LINE
  5
345
330
CC
100
AcDbEntity
  8
Sketch2
100
AcDbLine
 10
-138.4229660034179
 20
465.9719467163085
 30
0.5000000000000001
 11
-138.2573395696594
 21
466.1135307570512
 31
0.5
  0
LINE
  5
346
330
CC
100
AcDbEntity
  8
Sketch2
100
AcDbLine
 10
-138.2573395696594
 20
466.1135307570512
 30
0.5
 11
-138.0917167663574
 21
466.2551116943359
 31
0.5000000000000001
  0
LINE
  5
347
330
CC
100
AcDbEntity
  8
Sketch2
100
AcDbLine
 10
-134.2303371429443
 20
464.8894500732422
 30
0.5000000000000001
 11
-134.1905446459755
 21
464.6752143268293
 31
0.5
  0
LINE
  5
348
330
CC
100
AcDbEntity
  8
Sketch2
100
AcDbLine
 10
-138.0917167663574
 20
466.2551116943359
 30
0.5000000000000001
 11
-137.9040172986302
 21
466.365758201186
 31
0.5
  0
LINE
  5
349
330
CC
100
AcDbEntity
  8
Sketch2
100
AcDbLine
 10
-137.9040172986302
 20
466.365758201186
 30
0.5
 11
-137.7163219451904
 21
466.4764022827148
 31
0.5000000000000001
  0
LINE
  5
34A
330
CC
100
AcDbEntity
  8
Sketch2
100
AcDbLine
 10
-137.7163219451904
 20
466.4764022827148
 30
0.5000000000000001
 11
-137.5122620152583
 21
466.5527924326777
 31
0.5
  0
LINE
  5
34B
330
CC
100
AcDbEntity
  8
Sketch2
100
AcDbLine
 10
-135.2239513397217
 20
466.2812805175781
 30
0.5000000000000001
 11
-135.0557642623595
 21
466.1427482680948
 31
0.5
  0
LINE
  5
34C
330
CC
100
AcDbEntity
  8
Sketch2
100
AcDbLine
 10
-139.0479564666748
 20
463.5513305664062
 30
0.5
 11
-139.0877489636436
 21
463.7655663128191
 31
0.5
  0
LINE
  5
34D
330
CC
100
AcDbEntity
  8
Sketch2
100
AcDbLine
 10
-134.3638324737549
 20
463.1845474243164
 30
0.5000000000000001
 11
-134.4710504838619
 21
462.9948595238467
 31
0.5
  0
LINE
  5
34E
330
CC
100
AcDbEntity
  8
Sketch2
100
AcDbLine
 10
-135.1865768432617
 20
462.1856689453125
 30
0.5000000000000001
 11
-135.3742715425651
 21
462.0750033647669
 31
0.5
  0
LINE
  5
34F
330
CC
100
AcDbEntity
  8
Sketch2
100
AcDbLine
 10
-136.6164183654329
 20
461.730003335193
 30
0.5
 11
-136.8342971801758
 21
461.7280197143554
 31
0.5000000000000001
  0
LINE
  5
350
330
CC
100
AcDbEntity
  8
Sketch2
100
AcDbLine
 10
-138.6738491058349
 20
462.7678298950195
 30
0.5
 11
-138.7845146863805
 21
462.9555150574753
 31
0.5
  0
LINE
  5
351
330
CC
100
AcDbEntity
  8
Sketch2
100
AcDbLine
 10
-135.5619621276855
 20
461.9643402099609
 30
0.5000000000000001
 11
-135.7660268260415
 21
461.8879500599979
 31
0.5
  0
LINE
  5
352
330
CC
100
AcDbEntity
  8
Sketch2
100
AcDbLine
 10
-138.9871112490418
 20
465.0507758720028
 30
0.5
 11
-138.9144611358642
 21
465.2561950683593
 31
0.5
  0
LINE
  5
353
330
CC
100
AcDbEntity
  8
Sketch2
100
AcDbLine
 10
-138.5614952163369
 20
465.8037585572118
 30
0.5
 11
-138.4229660034179
 21
465.9719467163085
 31
0.5000000000000001
  0
LINE
  5
354
330
CC
100
AcDbEntity
  8
Sketch2
100
AcDbLine
 10
-139.1275405883789
 20
463.9797973632812
 30
0.5
 11
-139.1295290211214
 21
464.1976761855101
 31
0.5
  0
LINE
  5
355
330
CC
100
AcDbEntity
  8
Sketch2
100
AcDbLine
 10
-137.3082065582275
 20
466.6291809082031
 30
0.5000000000000001
 11
-137.0939755802385
 21
466.6689877104434
 31
0.5
  0
LINE
  5
356
330
CC
100
AcDbEntity
  8
Sketch2
100
AcDbLine
 10
-134.5782661437988
 20
462.80517578125
 30
0.5000000000000001
 11
-134.7167936248582
 21
462.6370030091593
 31
0.5
  0
LINE
  5
357
330
CC
100
AcDbEntity
  8
Sketch2
100
AcDbLine
 10
-223.3630752563477
 20
769.6566009521484
 30
0.5
 11
-223.4625827251012
 21
769.7542964198418
 31
0.5
  0
LINE
  5
358
330
CC
100
AcDbEntity
  8
Sketch2
100
AcDbLine
 10
-220.9074776740326
 20
771.5783296143836
 30
0.5
 11
-220.847396850586
 21
771.4524841308594
 31
0.5
  0
LINE
  5
359
330
CC
100
AcDbEntity
  8
Sketch2
100
AcDbLine
 10
-223.5620880126953
 20
769.8519897460937
 30
0.5
 11
-223.6431130706338
 21
769.9654782335547
 31
0.5
  0
LINE
  5
35A
330
CC
100
AcDbEntity
  8
Sketch2
100
AcDbLine
 10
-221.3062477111817
 20
769.6753692626953
 30
0.5
 11
-221.4197457354903
 21
769.5943442047567
 31
0.5
  0
LINE
  5
35B
330
CC
100
AcDbEntity
  8
Sketch2
100
AcDbLine
 10
-222.0536422729492
 20
769.3184661865234
 30
0.5
 11
-222.1924510910159
 21
769.3050764523725
 31
0.5
  0
LINE
  5
35C
330
CC
100
AcDbEntity
  8
Sketch2
100
AcDbLine
 10
-222.7443137661957
 20
769.3482975012721
 30
0.5
 11
-222.8793334960938
 21
769.3831634521484
 31
0.5
  0
LINE
  5
35D
330
CC
100
AcDbEntity
  8
Sketch2
100
AcDbLine
 10
-137.0939755802385
 20
466.6689877104434
 30
0.5
 11
-136.8797492980957
 21
466.7087936401367
 31
0.5000000000000001
  0
LINE
  5
35E
330
CC
100
AcDbEntity
  8
Sketch2
100
AcDbLine
 10
-220.8025459295123
 20
770.4931244359177
 30
0.5
 11
-220.83740234375
 21
770.3581237792969
 31
0.5
  0
LINE
  5
35F
330
CC
100
AcDbEntity
  8
Sketch2
100
AcDbLine
 10
-220.83740234375
 20
770.3581237792969
 30
0.5
 11
-220.8951861038782
 21
770.2312074102942
 31
0.5
  0
LINE
  5
360
330
CC
100
AcDbEntity
  8
Sketch2
100
AcDbLine
 10
-221.5332412719726
 20
769.5133209228515
 30
0.5
 11
-221.6590799771867
 21
769.4532387824311
 31
0.5
  0
LINE
  5
361
330
CC
100
AcDbEntity
  8
Sketch2
100
AcDbLine
 10
-221.9473824007966
 20
772.4349208825169
 30
0.5
 11
-221.8123626708984
 21
772.4000549316406
 31
0.5
  0
LINE
  5
362
330
CC
100
AcDbEntity
  8
Sketch2
100
AcDbLine
 10
-222.0824050903321
 20
772.4697875976562
 30
0.5
 11
-221.9473824007966
 21
772.4349208825169
 31
0.5
  0
LINE
  5
363
330
CC
100
AcDbEntity
  8
Sketch2
100
AcDbLine
 10
-221.8123626708984
 20
772.4000549316406
 30
0.5
 11
-221.6854463018959
 21
772.3422616346647
 31
0.5
  0
LINE
  5
364
330
CC
100
AcDbEntity
  8
Sketch2
100
AcDbLine
 10
-221.6590799771867
 20
769.4532387824311
 30
0.5
 11
-221.7849159240723
 21
769.3931579589843
 31
0.5
  0
LINE
  5
365
330
CC
100
AcDbEntity
  8
Sketch2
100
AcDbLine
 10
-221.9192805711174
 20
769.3558116634467
 30
0.5
 11
-222.0536422729492
 21
769.3184661865234
 31
0.5
  0
LINE
  5
366
330
CC
100
AcDbEntity
  8
Sketch2
100
AcDbLine
 10
-222.3312568664551
 20
769.2916870117187
 30
0.5
 11
-222.4702754951709
 21
769.3025590180805
 31
0.5
  0
LINE
  5
367
330
CC
100
AcDbEntity
  8
Sketch2
100
AcDbLine
 10
-223.8442993164063
 20
770.3306579589844
 30
0.5
 11
-223.8816170014008
 21
770.4650130691818
 31
0.5
  0
LINE
  5
368
330
CC
100
AcDbEntity
  8
Sketch2
100
AcDbLine
 10
-222.2214302084599
 20
772.4806593657086
 30
0.5
 11
-222.0824050903321
 21
772.4697875976562
 31
0.5
  0
LINE
  5
369
330
CC
100
AcDbEntity
  8
Sketch2
100
AcDbLine
 10
-223.9189338684082
 20
770.599365234375
 30
0.5
 11
-223.9323617499498
 21
770.7381835892895
 31
0.5
  0
LINE
  5
36A
330
CC
100
AcDbEntity
  8
Sketch2
100
AcDbLine
 10
-223.934898257101
 20
771.0160079932353
 30
0.5
 11
-223.9240074157715
 21
771.1550140380859
 31
0.5
  0
LINE
  5
36B
330
CC
100
AcDbEntity
  8
Sketch2
100
AcDbLine
 10
-222.6092910766602
 20
769.3134307861328
 30
0.5
 11
-222.7443137661957
 21
769.3482975012721
 31
0.5
  0
LINE
  5
36C
330
CC
100
AcDbEntity
  8
Sketch2
100
AcDbLine
 10
-221.4435755528392
 20
772.2055426530446
 30
0.5
 11
-221.3286209106446
 21
772.1266174316406
 31
0.5
  0
LINE
  5
36D
330
CC
100
AcDbEntity
  8
Sketch2
100
AcDbLine
 10
-220.7593344170424
 20
771.044996647945
 30
0.5
 11
-220.745906829834
 21
770.9062194824219
 31
0.5
  0
LINE
  5
36E
330
CC
100
AcDbEntity
  8
Sketch2
100
AcDbLine
 10
-221.0319050857075
 20
769.9893175875422
 30
0.5
 11
-221.11083984375
 21
769.8743438720703
 31
0.5
  0
LINE
  5
36F
330
CC
100
AcDbEntity
  8
Sketch2
100
AcDbLine
 10
-223.8816170014008
 20
770.4650130691818
 30
0.5
 11
-223.9189338684082
 21
770.599365234375
 31
0.5
  0
LINE
  5
370
330
CC
100
AcDbEntity
  8
Sketch2
100
AcDbLine
 10
-222.3604583740234
 20
772.4915313720702
 30
0.5
 11
-222.2214302084599
 21
772.4806593657086
 31
0.5
  0
LINE
  5
371
330
CC
100
AcDbEntity
  8
Sketch2
100
AcDbLine
 10
-221.7849159240723
 20
769.3931579589843
 30
0.5
 11
-221.9192805711174
 21
769.3558116634467
 31
0.5
  0
LINE
  5
372
330
CC
100
AcDbEntity
  8
Sketch2
100
AcDbLine
 10
-223.1331634521485
 20
769.4986724853515
 30
0.5
 11
-223.248120614153
 21
769.5776375841899
 31
0.5
  0
LINE
  5
373
330
CC
100
AcDbEntity
  8
Sketch2
100
AcDbLine
 10
-220.7676887512207
 20
770.6281280517578
 30
0.5
 11
-220.8025459295123
 21
770.4931244359177
 31
0.5
  0
LINE
  5
374
330
CC
100
AcDbEntity
  8
Sketch2
100
AcDbLine
 10
-223.248120614153
 20
769.5776375841899
 30
0.5
 11
-223.3630752563477
 21
769.6566009521484
 31
0.5
  0
LINE
  5
375
330
CC
100
AcDbEntity
  8
Sketch2
100
AcDbLine
 10
-223.8891502374799
 20
771.2900558013167
 30
0.5
 11
-223.8542938232422
 21
771.4250946044922
 31
0.5
  0
LINE
  5
376
330
CC
100
AcDbEntity
  8
Sketch2
100
AcDbLine
 10
-220.8951861038782
 20
770.2312074102942
 30
0.5
 11
-220.9529685974121
 21
770.1042938232421
 31
0.5
  0
LINE
  5
377
330
CC
100
AcDbEntity
  8
Sketch2
100
AcDbLine
 10
-221.4197457354903
 20
769.5943442047567
 30
0.5
 11
-221.5332412719726
 21
769.5133209228515
 31
0.5
  0
LINE
  5
378
330
CC
100
AcDbEntity
  8
Sketch2
100
AcDbLine
 10
-223.7241363525391
 20
770.0789642333984
 30
0.5
 11
-223.7842184929596
 21
770.2048124754601
 31
0.5
  0
LINE
  5
379
330
CC
100
AcDbEntity
  8
Sketch2
100
AcDbLine
 10
-221.5585327148438
 20
772.2844696044922
 30
0.5
 11
-221.4435755528392
 21
772.2055426530446
 31
0.5
  0
LINE
  5
37A
330
CC
100
AcDbEntity
  8
Sketch2
100
AcDbLine
 10
-223.4625827251012
 20
769.7542964198418
 30
0.5
 11
-223.5620880126953
 21
769.8519897460937
 31
0.5
  0
LINE
  5
37B
330
CC
100
AcDbEntity
  8
Sketch2
100
AcDbLine
 10
-223.6431130706338
 20
769.9654782335547
 30
0.5
 11
-223.7241363525391
 21
770.0789642333984
 31
0.5
  0
LINE
  5
37C
330
CC
100
AcDbEntity
  8
Sketch2
100
AcDbLine
 10
-223.8542938232422
 20
771.4250946044922
 30
0.5
 11
-223.7965100631139
 21
771.5520109734947
 31
0.5
  0
LINE
  5
37D
330
CC
100
AcDbEntity
  8
Sketch2
100
AcDbLine
 10
-221.2291134418909
 20
772.0289219639473
 30
0.5
 11
-221.1296081542969
 21
771.9312286376953
 31
0.5
  0
LINE
  5
37E
330
CC
100
AcDbEntity
  8
Sketch2
100
AcDbLine
 10
-223.7965100631139
 20
771.5520109734947
 30
0.5
 11
-223.7387275695801
 21
771.6789245605468
 31
0.5
  0
LINE
  5
37F
330
CC
100
AcDbEntity
  8
Sketch2
100
AcDbLine
 10
-223.6597910812847
 20
771.793862648856
 30
0.5
 11
-223.5808563232422
 21
771.9087982177734
 31
0.5
  0
LINE
  5
380
330
CC
100
AcDbEntity
  8
Sketch2
100
AcDbLine
 10
-222.1924510910159
 20
769.3050764523725
 30
0.5
 11
-222.3312568664551
 21
769.2916870117187
 31
0.5
  0
LINE
  5
381
330
CC
100
AcDbEntity
  8
Sketch2
100
AcDbLine
 10
-220.847396850586
 20
771.4524841308594
 30
0.5
 11
-220.8100791655914
 21
771.3181290206619
 31
0.5
  0
LINE
  5
382
330
CC
100
AcDbEntity
  8
Sketch2
100
AcDbLine
 10
-220.7567979098912
 20
770.767172243163
 30
0.5
 11
-220.7676887512207
 21
770.6281280517578
 31
0.5
  0
LINE
  5
383
330
CC
100
AcDbEntity
  8
Sketch2
100
AcDbLine
 10
-223.9323617499498
 20
770.7381835892895
 30
0.5
 11
-223.9457893371582
 21
770.8769989013672
 31
0.5
  0
LINE
  5
384
330
CC
100
AcDbEntity
  8
Sketch2
100
AcDbLine
 10
-223.9457893371582
 20
770.8769989013672
 30
0.5
 11
-223.934898257101
 21
771.0160079932353
 31
0.5
  0
LINE
  5
385
330
CC
100
AcDbEntity
  8
Sketch2
100
AcDbLine
 10
-221.6854463018959
 20
772.3422616346647
 30
0.5
 11
-221.5585327148438
 21
772.2844696044922
 31
0.5
  0
LINE
  5
386
330
CC
100
AcDbEntity
  8
Sketch2
100
AcDbLine
 10
-221.1296081542969
 20
771.9312286376953
 30
0.5
 11
-221.0485830963583
 21
771.8177020028435
 31
0.5
  0
LINE
  5
387
330
CC
100
AcDbEntity
  8
Sketch2
100
AcDbLine
 10
-221.3286209106446
 20
772.1266174316406
 30
0.5
 11
-221.2291134418909
 21
772.0289219639473
 31
0.5
  0
LINE
  5
388
330
CC
100
AcDbEntity
  8
Sketch2
100
AcDbLine
 10
-222.8793334960938
 20
769.3831634521484
 30
0.5
 11
-223.0062498650963
 21
769.4409186017335
 31
0.5
  0
LINE
  5
389
330
CC
100
AcDbEntity
  8
Sketch2
100
AcDbLine
 10
-223.0062498650963
 20
769.4409186017335
 30
0.5
 11
-223.1331634521485
 21
769.4986724853515
 31
0.5
  0
LINE
  5
38A
330
CC
100
AcDbEntity
  8
Sketch2
100
AcDbLine
 10
-223.9240074157715
 20
771.1550140380859
 30
0.5
 11
-223.8891502374799
 21
771.2900558013167
 31
0.5
  0
LINE
  5
38B
330
CC
100
AcDbEntity
  8
Sketch2
100
AcDbLine
 10
-221.2085448482909
 20
769.7748554770121
 30
0.5
 11
-221.3062477111817
 21
769.6753692626953
 31
0.5
  0
LINE
  5
38C
330
CC
100
AcDbEntity
  8
Sketch2
100
AcDbLine
 10
-223.7387275695801
 20
771.6789245605468
 30
0.5
 11
-223.6597910812847
 21
771.793862648856
 31
0.5
  0
LINE
  5
38D
330
CC
100
AcDbEntity
  8
Sketch2
100
AcDbLine
 10
-223.5808563232422
 20
771.9087982177734
 30
0.5
 11
-223.4831513187012
 21
772.0083247602224
 31
0.5
  0
LINE
  5
38E
330
CC
100
AcDbEntity
  8
Sketch2
100
AcDbLine
 10
-222.4702754951709
 20
769.3025590180805
 30
0.5
 11
-222.6092910766602
 21
769.3134307861328
 31
0.5
  0
LINE
  5
38F
330
CC
100
AcDbEntity
  8
Sketch2
100
AcDbLine
 10
-220.772762298584
 20
771.1837768554687
 30
0.5
 11
-220.7593344170424
 21
771.044996647945
 31
0.5
  0
LINE
  5
390
330
CC
100
AcDbEntity
  8
Sketch2
100
AcDbLine
 10
-220.9529685974121
 20
770.1042938232421
 30
0.5
 11
-221.0319050857075
 21
769.9893175875422
 31
0.5
  0
LINE
  5
391
330
CC
100
AcDbEntity
  8
Sketch2
100
AcDbLine
 10
-221.11083984375
 20
769.8743438720703
 30
0.5
 11
-221.2085448482909
 21
769.7748554770121
 31
0.5
  0
LINE
  5
392
330
CC
100
AcDbEntity
  8
Sketch2
100
AcDbLine
 10
-223.7842184929596
 20
770.2048124754601
 30
0.5
 11
-223.8442993164063
 21
770.3306579589844
 31
0.5
  0
LINE
  5
393
330
CC
100
AcDbEntity
  8
Sketch2
100
AcDbLine
 10
-220.8100791655914
 20
771.3181290206619
 30
0.5
 11
-220.772762298584
 21
771.1837768554687
 31
0.5
  0
LINE
  5
394
330
CC
100
AcDbEntity
  8
Sketch2
100
AcDbLine
 10
-220.9675598144531
 20
771.7041778564452
 30
0.5
 11
-220.9074776740326
 21
771.5783296143836
 31
0.5
  0
LINE
  5
395
330
CC
100
AcDbEntity
  8
Sketch2
100
AcDbLine
 10
-221.0485830963583
 20
771.8177020028435
 30
0.5
 11
-220.9675598144531
 21
771.7041778564452
 31
0.5
  0
LINE
  5
396
330
CC
100
AcDbEntity
  8
Sketch2
100
AcDbLine
 10
-220.745906829834
 20
770.9062194824219
 30
0.5
 11
-220.7567979098912
 21
770.767172243163
 31
0.5
  0
LINE
  5
397
330
CC
100
AcDbEntity
  8
Sketch2
100
AcDbLine
 10
-223.0326161898055
 20
772.329979601358
 30
0.5
 11
-222.9067802429199
 21
772.3900604248046
 31
0.5
  0
LINE
  5
398
330
CC
100
AcDbEntity
  8
Sketch2
100
AcDbLine
 10
-222.638053894043
 20
772.4646759033203
 30
0.5
 11
-222.4992546128239
 21
772.4781037848619
 31
0.5
  0
LINE
  5
399
330
CC
100
AcDbEntity
  8
Sketch2
100
AcDbLine
 10
-222.4992546128239
 20
772.4781037848619
 30
0.5
 11
-222.3604583740234
 21
772.4915313720702
 31
0.5
  0
LINE
  5
39A
330
CC
100
AcDbEntity
  8
Sketch2
100
AcDbLine
 10
-223.4831513187012
 20
772.0083247602224
 30
0.5
 11
-223.3854484558106
 21
772.1078491210938
 31
0.5
  0
LINE
  5
39B
330
CC
100
AcDbEntity
  8
Sketch2
100
AcDbLine
 10
-223.1584548950195
 20
772.2698974609374
 30
0.5
 11
-223.0326161898055
 21
772.329979601358
 31
0.5
  0
LINE
  5
39C
330
CC
100
AcDbEntity
  8
Sketch2
100
AcDbLine
 10
-222.7724155958748
 20
772.4273685729515
 30
0.5
 11
-222.638053894043
 21
772.4646759033203
 31
0.5
  0
LINE
  5
39D
330
CC
100
AcDbEntity
  8
Sketch2
100
AcDbLine
 10
-222.9067802429199
 20
772.3900604248046
 30
0.5
 11
-222.7724155958748
 21
772.4273685729515
 31
0.5
  0
LINE
  5
39E
330
CC
100
AcDbEntity
  8
Sketch2
100
AcDbLine
 10
-223.2719504315019
 20
772.1888741790324
 30
0.5
 11
-223.1584548950195
 21
772.2698974609374
 31
0.5
  0
LINE
  5
39F
330
CC
100
AcDbEntity
  8
Sketch2
100
AcDbLine
 10
-223.3854484558106
 20
772.1078491210938
 30
0.5
 11
-223.2719504315019
 21
772.1888741790324
 31
0.5
  0
LINE
  5
3A0
330
CC
100
AcDbEntity
  8
Sketch2
100
AcDbLine
 10
-176.3682257285529
 20
603.7770844740655
 30
0.5
 11
-176.5070343017578
 21
603.7636566162109
 31
0.5
  0
LINE
  5
3A1
330
CC
100
AcDbEntity
  8
Sketch2
100
AcDbLine
 10
-174.2161360443565
 20
682.0384203866328
 30
0.5
 11
-174.1351127624511
 21
681.9248962402343
 31
0.5
  0
LINE
  5
3A2
330
CC
100
AcDbEntity
  8
Sketch2
100
AcDbLine
 10
-174.0750306220308
 20
681.7990861455634
 30
0.5
 11
-174.014949798584
 21
681.6732788085937
 31
0.5
  0
LINE
  5
3A3
330
CC
100
AcDbEntity
  8
Sketch2
100
AcDbLine
 10
-174.014949798584
 20
681.6732788085937
 30
0.5
 11
-173.9776321135895
 21
681.5388855510057
 31
0.5
  0
LINE
  5
3A4
330
CC
100
AcDbEntity
  8
Sketch2
100
AcDbLine
 10
-174.4961738586425
 20
682.3473358154297
 30
0.5
 11
-174.3966663898891
 21
682.2496403477366
 31
0.5
  0
LINE
  5
3A5
330
CC
100
AcDbEntity
  8
Sketch2
100
AcDbLine
 10
-174.3966663898891
 20
682.2496403477366
 30
0.5
 11
-174.2971611022949
 21
682.1519470214844
 31
0.5
  0
LINE
  5
3A6
330
CC
100
AcDbEntity
  8
Sketch2
100
AcDbLine
 10
-173.9776321135895
 20
681.5388855510057
 30
0.5
 11
-173.940315246582
 21
681.4044952392578
 31
0.5
  0
LINE
  5
3A7
330
CC
100
AcDbEntity
  8
Sketch2
100
AcDbLine
 10
-173.940315246582
 20
681.4044952392578
 30
0.5
 11
-173.9268873650404
 21
681.2657150317343
 31
0.5
  0
LINE
  5
3A8
330
CC
100
AcDbEntity
  8
Sketch2
100
AcDbLine
 10
-173.9268873650404
 20
681.2657150317343
 30
0.5
 11
-173.913459777832
 21
681.1269378662109
 31
0.5
  0
LINE
  5
3A9
330
CC
100
AcDbEntity
  8
Sketch2
100
AcDbLine
 10
-173.913459777832
 20
681.1269378662109
 30
0.5
 11
-173.9243508578891
 21
680.9878906269523
 31
0.5
  0
LINE
  5
3AA
330
CC
100
AcDbEntity
  8
Sketch2
100
AcDbLine
 10
-174.6111189641988
 20
682.4262610368338
 30
0.5
 11
-174.4961738586425
 21
682.3473358154297
 31
0.5
  0
LINE
  5
3AB
330
CC
100
AcDbEntity
  8
Sketch2
100
AcDbLine
 10
-174.1351127624511
 20
681.9248962402343
 30
0.5
 11
-174.0750306220308
 21
681.7990861455634
 31
0.5
  0
LINE
  5
3AC
330
CC
100
AcDbEntity
  8
Sketch2
100
AcDbLine
 10
-174.2971611022949
 20
682.1519470214844
 30
0.5
 11
-174.2161360443565
 21
682.0384203866328
 31
0.5
  0
LINE
  5
3AD
330
CC
100
AcDbEntity
  8
Sketch2
100
AcDbLine
 10
-176.0468864440918
 20
679.6038818359375
 30
0.5
 11
-176.1738028130941
 21
679.6616751329132
 31
0.5
  0
LINE
  5
3AE
330
CC
100
AcDbEntity
  8
Sketch2
100
AcDbLine
 10
-176.9517714409575
 20
680.425530859249
 30
0.5
 11
-177.0118522644043
 21
680.5513763427734
 31
0.5
  0
LINE
  5
3AF
330
CC
100
AcDbEntity
  8
Sketch2
100
AcDbLine
 10
-176.3007164001465
 20
679.7194671630859
 30
0.5
 11
-176.4156735621508
 21
679.7983941145333
 31
0.5
  0
LINE
  5
3B0
330
CC
100
AcDbEntity
  8
Sketch2
100
AcDbLine
 10
-174.9524688720703
 20
679.6138763427734
 30
0.5
 11
-175.0868335191152
 21
679.576530047236
 31
0.5
  0
LINE
  5
3B1
330
CC
100
AcDbEntity
  8
Sketch2
100
AcDbLine
 10
-177.0118522644043
 20
680.5513763427734
 30
0.5
 11
-177.0491699493987
 21
680.6857314529707
 31
0.5
  0
LINE
  5
3B2
330
CC
100
AcDbEntity
  8
Sketch2
100
AcDbLine
 10
-174.1205215454101
 20
680.3250122070312
 30
0.5
 11
-174.1994580337053
 21
680.2100359713314
 31
0.5
  0
LINE
  5
3B3
330
CC
100
AcDbEntity
  8
Sketch2
100
AcDbLine
 10
-176.8916893005371
 20
680.2996826171875
 30
0.5
 11
-176.9517714409575
 21
680.425530859249
 31
0.5
  0
LINE
  5
3B4
330
CC
100
AcDbEntity
  8
Sketch2
100
AcDbLine
 10
-177.0491699493987
 20
680.6857314529707
 30
0.5
 11
-177.0864868164062
 21
680.820083618164
 31
0.5
  0
LINE
  5
3B5
330
CC
100
AcDbEntity
  8
Sketch2
100
AcDbLine
 10
-176.4156735621508
 20
679.7983941145333
 30
0.5
 11
-176.5306282043457
 21
679.8773193359375
 31
0.5
  0
LINE
  5
3B6
330
CC
100
AcDbEntity
  8
Sketch2
100
AcDbLine
 10
-175.4987907409668
 20
679.5124053955078
 30
0.5
 11
-175.63781890653
 21
679.5232774018695
 31
0.5
  0
LINE
  5
3B7
330
CC
100
AcDbEntity
  8
Sketch2
100
AcDbLine
 10
-177.0999051611001
 20
680.9589019730782
 30
0.5
 11
-177.1133232116699
 21
681.0977172851562
 31
0.5
  0
LINE
  5
3B8
330
CC
100
AcDbEntity
  8
Sketch2
100
AcDbLine
 10
-174.5872986834881
 20
679.8150625885459
 30
0.5
 11
-174.7007942199707
 21
679.7340393066406
 31
0.5
  0
LINE
  5
3B9
330
CC
100
AcDbEntity
  8
Sketch2
100
AcDbLine
 10
-177.1133232116699
 20
681.0977172851562
 30
0.5
 11
-177.1024416684604
 21
681.2367263770241
 31
0.5
  0
LINE
  5
3BA
330
CC
100
AcDbEntity
  8
Sketch2
100
AcDbLine
 10
-173.9243508578891
 20
680.9878906269523
 30
0.5
 11
-173.9352416992187
 21
680.8488464355469
 31
0.5
  0
LINE
  5
3BB
330
CC
100
AcDbEntity
  8
Sketch2
100
AcDbLine
 10
-175.3599945021661
 20
679.5257948361616
 30
0.5
 11
-175.4987907409668
 21
679.5124053955078
 31
0.5
  0
LINE
  5
3BC
330
CC
100
AcDbEntity
  8
Sketch2
100
AcDbLine
 10
-174.0627390518762
 20
680.4519257940836
 30
0.5
 11
-174.1205215454101
 21
680.3250122070312
 31
0.5
  0
LINE
  5
3BD
330
CC
100
AcDbEntity
  8
Sketch2
100
AcDbLine
 10
-177.0915603637695
 20
681.375732421875
 30
0.5
 11
-177.0566936486303
 21
681.5107741851057
 31
0.5
  0
LINE
  5
3BE
330
CC
100
AcDbEntity
  8
Sketch2
100
AcDbLine
 10
-176.6301356730991
 20
679.9750148036305
 30
0.5
 11
-176.7296409606933
 21
680.0727081298828
 31
0.5
  0
LINE
  5
3BF
330
CC
100
AcDbEntity
  8
Sketch2
100
AcDbLine
 10
-175.2211952209473
 20
679.5391845703124
 30
0.5
 11
-175.3599945021661
 21
679.5257948361616
 31
0.5
  0
LINE
  5
3C0
330
CC
100
AcDbEntity
  8
Sketch2
100
AcDbLine
 10
-177.0566936486303
 20
681.5107741851057
 30
0.5
 11
-177.0218276977539
 21
681.6458129882812
 31
0.5
  0
LINE
  5
3C1
330
CC
100
AcDbEntity
  8
Sketch2
100
AcDbLine
 10
-176.7484092712402
 20
682.1295166015625
 30
0.5
 11
-176.6507042666994
 21
682.2290431440113
 31
0.5
  0
LINE
  5
3C2
330
CC
100
AcDbEntity
  8
Sketch2
100
AcDbLine
 10
-175.939968543873
 20
682.6480869567404
 30
0.5
 11
-175.805606842041
 21
682.6853942871093
 31
0.5
  0
LINE
  5
3C3
330
CC
100
AcDbEntity
  8
Sketch2
100
AcDbLine
 10
-175.3889736198195
 20
682.7013777494975
 30
0.5
 11
-175.24995803833
 21
682.6905059814452
 31
0.5
  0
LINE
  5
3C4
330
CC
100
AcDbEntity
  8
Sketch2
100
AcDbLine
 10
-175.24995803833
 20
682.6905059814452
 30
0.5
 11
-175.1149353487948
 21
682.655639266306
 31
0.5
  0
LINE
  5
3C5
330
CC
100
AcDbEntity
  8
Sketch2
100
AcDbLine
 10
-175.1149353487948
 20
682.655639266306
 30
0.5
 11
-174.9799156188965
 21
682.6207733154297
 31
0.5
  0
LINE
  5
3C6
330
CC
100
AcDbEntity
  8
Sketch2
100
AcDbLine
 10
-174.7260665893555
 20
682.5051879882813
 30
0.5
 11
-174.6111189641988
 21
682.4262610368338
 31
0.5
  0
LINE
  5
3C7
330
CC
100
AcDbEntity
  8
Sketch2
100
AcDbLine
 10
-177.1024416684604
 20
681.2367263770241
 30
0.5
 11
-177.0915603637695
 21
681.375732421875
 31
0.5
  0
LINE
  5
3C8
330
CC
100
AcDbEntity
  8
Sketch2
100
AcDbLine
 10
-175.9118667141934
 20
679.5690158850611
 30
0.5
 11
-176.0468864440918
 21
679.6038818359375
 31
0.5
  0
LINE
  5
3C9
330
CC
100
AcDbEntity
  8
Sketch2
100
AcDbLine
 10
-176.8106660186317
 20
680.1861966173436
 30
0.5
 11
-176.8916893005371
 21
680.2996826171875
 31
0.5
  0
LINE
  5
3CA
330
CC
100
AcDbEntity
  8
Sketch2
100
AcDbLine
 10
-176.4395033795001
 20
682.4095925628212
 30
0.5
 11
-176.3260078430175
 21
682.4906158447265
 31
0.5
  0
LINE
  5
3CB
330
CC
100
AcDbEntity
  8
Sketch2
100
AcDbLine
 10
-174.8266329251845
 20
679.6739571662202
 30
0.5
 11
-174.9524688720703
 21
679.6138763427734
 31
0.5
  0
LINE
  5
3CC
330
CC
100
AcDbEntity
  8
Sketch2
100
AcDbLine
 10
-174.004955291748
 20
680.5788421630859
 30
0.5
 11
-174.0627390518762
 21
680.4519257940836
 31
0.5
  0
LINE
  5
3CD
330
CC
100
AcDbEntity
  8
Sketch2
100
AcDbLine
 10
-175.0868335191152
 20
679.576530047236
 30
0.5
 11
-175.2211952209473
 21
679.5391845703124
 31
0.5
  0
LINE
  5
3CE
330
CC
100
AcDbEntity
  8
Sketch2
100
AcDbLine
 10
-173.9700988775102
 20
680.7138428197069
 30
0.5
 11
-174.004955291748
 21
680.5788421630859
 31
0.5
  0
LINE
  5
3CF
330
CC
100
AcDbEntity
  8
Sketch2
100
AcDbLine
 10
-175.63781890653
 20
679.5232774018695
 30
0.5
 11
-175.7768440246582
 21
679.5341491699218
 31
0.5
  0
LINE
  5
3D0
330
CC
100
AcDbEntity
  8
Sketch2
100
AcDbLine
 10
-174.4738006591797
 20
679.8960876464843
 30
0.5
 11
-174.5872986834881
 21
679.8150625885459
 31
0.5
  0
LINE
  5
3D1
330
CC
100
AcDbEntity
  8
Sketch2
100
AcDbLine
 10
-176.1738028130941
 20
679.6616751329132
 30
0.5
 11
-176.3007164001465
 21
679.7194671630859
 31
0.5
  0
LINE
  5
3D2
330
CC
100
AcDbEntity
  8
Sketch2
100
AcDbLine
 10
-177.0864868164062
 20
680.820083618164
 30
0.5
 11
-177.0999051611001
 21
680.9589019730782
 31
0.5
  0
LINE
  5
3D3
330
CC
100
AcDbEntity
  8
Sketch2
100
AcDbLine
 10
-176.9062805175781
 20
681.8996429443359
 30
0.5
 11
-176.8273440292829
 21
682.0145810326449
 31
0.5
  0
LINE
  5
3D4
330
CC
100
AcDbEntity
  8
Sketch2
100
AcDbLine
 10
-176.3260078430175
 20
682.4906158447265
 30
0.5
 11
-176.2001691378037
 21
682.5506979851469
 31
0.5
  0
LINE
  5
3D5
330
CC
100
AcDbEntity
  8
Sketch2
100
AcDbLine
 10
-176.0743331909179
 20
682.6107788085937
 30
0.5
 11
-175.939968543873
 21
682.6480869567404
 31
0.5
  0
LINE
  5
3D6
330
CC
100
AcDbEntity
  8
Sketch2
100
AcDbLine
 10
-177.0218276977539
 20
681.6458129882812
 30
0.5
 11
-176.9640534744735
 21
681.7727293572835
 31
0.5
  0
LINE
  5
3D7
330
CC
100
AcDbEntity
  8
Sketch2
100
AcDbLine
 10
-175.805606842041
 20
682.6853942871093
 30
0.5
 11
-175.6667980239745
 21
682.698822168651
 31
0.5
  0
LINE
  5
3D8
330
CC
100
AcDbEntity
  8
Sketch2
100
AcDbLine
 10
-174.278392791748
 20
680.0950622558594
 30
0.5
 11
-174.3760977962888
 21
679.9955738608012
 31
0.5
  0
LINE
  5
3D9
330
CC
100
AcDbEntity
  8
Sketch2
100
AcDbLine
 10
-175.6667980239745
 20
682.698822168651
 30
0.5
 11
-175.5279922485351
 21
682.7122497558593
 31
0.5
  0
LINE
  5
3DA
330
CC
100
AcDbEntity
  8
Sketch2
100
AcDbLine
 10
-176.9640534744735
 20
681.7727293572835
 30
0.5
 11
-176.9062805175781
 21
681.8996429443359
 31
0.5
  0
LINE
  5
3DB
330
CC
100
AcDbEntity
  8
Sketch2
100
AcDbLine
 10
-174.9799156188965
 20
682.6207733154297
 30
0.5
 11
-174.8529897130465
 21
682.5629800184539
 31
0.5
  0
LINE
  5
3DC
330
CC
100
AcDbEntity
  8
Sketch2
100
AcDbLine
 10
-174.8529897130465
 20
682.5629800184539
 30
0.5
 11
-174.7260665893555
 21
682.5051879882813
 31
0.5
  0
LINE
  5
3DD
330
CC
100
AcDbEntity
  8
Sketch2
100
AcDbLine
 10
-174.1994580337053
 20
680.2100359713314
 30
0.5
 11
-174.278392791748
 21
680.0950622558594
 31
0.5
  0
LINE
  5
3DE
330
CC
100
AcDbEntity
  8
Sketch2
100
AcDbLine
 10
-174.7007942199707
 20
679.7340393066406
 30
0.5
 11
-174.8266329251845
 21
679.6739571662202
 31
0.5
  0
LINE
  5
3DF
330
CC
100
AcDbEntity
  8
Sketch2
100
AcDbLine
 10
-176.6507042666994
 20
682.2290431440113
 30
0.5
 11
-176.5530014038086
 21
682.3285675048828
 31
0.5
  0
LINE
  5
3E0
330
CC
100
AcDbEntity
  8
Sketch2
100
AcDbLine
 10
-176.5530014038086
 20
682.3285675048828
 30
0.5
 11
-176.4395033795001
 21
682.4095925628212
 31
0.5
  0
LINE
  5
3E1
330
CC
100
AcDbEntity
  8
Sketch2
100
AcDbLine
 10
-147.1386528015137
 20
613.5488128662109
 30
0.5
 11
-147.0623532516036
 21
613.6655438818848
 31
0.5
  0
LINE
  5
3E2
330
CC
100
AcDbEntity
  8
Sketch2
100
AcDbLine
 10
-147.0623532516036
 20
613.6655438818848
 30
0.5
 11
-146.9860553741455
 21
613.7822723388672
 31
0.5
  0
LINE
  5
3E3
330
CC
100
AcDbEntity
  8
Sketch2
100
AcDbLine
 10
-175.7768440246582
 20
679.5341491699218
 30
0.5
 11
-175.9118667141934
 21
679.5690158850611
 31
0.5
  0
LINE
  5
3E4
330
CC
100
AcDbEntity
  8
Sketch2
100
AcDbLine
 10
-176.5306282043457
 20
679.8773193359375
 30
0.5
 11
-176.6301356730991
 21
679.9750148036305
 31
0.5
  0
LINE
  5
3E5
330
CC
100
AcDbEntity
  8
Sketch2
100
AcDbLine
 10
-173.9352416992187
 20
680.8488464355469
 30
0.5
 11
-173.9700988775102
 21
680.7138428197069
 31
0.5
  0
LINE
  5
3E6
330
CC
100
AcDbEntity
  8
Sketch2
100
AcDbLine
 10
-146.9860553741455
 20
613.7822723388672
 30
0.5
 11
-146.9311803525615
 21
613.9104666454593
 31
0.5
  0
LINE
  5
3E7
330
CC
100
AcDbEntity
  8
Sketch2
100
AcDbLine
 10
-176.7296409606933
 20
680.0727081298828
 30
0.5
 11
-176.8106660186317
 21
680.1861966173436
 31
0.5
  0
LINE
  5
3E8
330
CC
100
AcDbEntity
  8
Sketch2
100
AcDbLine
 10
-175.5279922485351
 20
682.7122497558593
 30
0.5
 11
-175.3889736198195
 21
682.7013777494975
 31
0.5
  0
LINE
  5
3E9
330
CC
100
AcDbEntity
  8
Sketch2
100
AcDbLine
 10
-176.8273440292829
 20
682.0145810326449
 30
0.5
 11
-176.7484092712402
 21
682.1295166015625
 31
0.5
  0
LINE
  5
3EA
330
CC
100
AcDbEntity
  8
Sketch2
100
AcDbLine
 10
-146.9311803525615
 20
613.9104666454593
 30
0.5
 11
-146.8763065338134
 21
614.0386581420898
 31
0.5
  0
LINE
  5
3EB
330
CC
100
AcDbEntity
  8
Sketch2
100
AcDbLine
 10
-176.2001691378037
 20
682.5506979851469
 30
0.5
 11
-176.0743331909179
 21
682.6107788085937
 31
0.5
  0
LINE
  5
3EC
330
CC
100
AcDbEntity
  8
Sketch2
100
AcDbLine
 10
-174.3760977962888
 20
679.9955738608012
 30
0.5
 11
-174.4738006591797
 21
679.8960876464843
 31
0.5
  0
LINE
  5
3ED
330
CC
100
AcDbEntity
  8
Sketch2
100
AcDbLine
 10
-147.7693142636146
 20
616.0029798799824
 30
0.5
 11
-147.8975105285644
 21
616.0578536987304
 31
0.5
  0
LINE
  5
3EE
330
CC
100
AcDbEntity
  8
Sketch2
100
AcDbLine
 10
-149.3519223048651
 20
615.8134832758662
 30
0.5
 11
-149.4635391235351
 21
615.7299041748046
 31
0.5
  0
LINE
  5
3EF
330
CC
100
AcDbEntity
  8
Sketch2
100
AcDbLine
 10
-149.9625396728515
 20
614.2097091674805
 30
0.5
 11
-149.9221701965977
 21
614.0762314472702
 31
0.5
  0
LINE
  5
3F0
330
CC
100
AcDbEntity
  8
Sketch2
100
AcDbLine
 10
-148.1690692901611
 20
616.1214065551757
 30
0.5
 11
-148.3083072663735
 21
616.1291314018012
 31
0.5
  0
LINE
  5
3F1
330
CC
100
AcDbEntity
  8
Sketch2
100
AcDbLine
 10
-149.806957244873
 20
615.2930450439453
 30
0.5
 11
-149.861832266457
 21
615.1648507373531
 31
0.5
  0
LINE
  5
3F2
330
CC
100
AcDbEntity
  8
Sketch2
100
AcDbLine
 10
-148.9914226531982
 20
616.0229492187499
 30
0.5
 11
-149.1158642102261
 21
615.9600060240238
 31
0.5
  0
LINE
  5
3F3
330
CC
100
AcDbEntity
  8
Sketch2
100
AcDbLine
 10
-149.8818016052246
 20
613.942756652832
 30
0.5
 11
-149.8188631789223
 21
613.818319864228
 31
0.5
  0
LINE
  5
3F4
330
CC
100
AcDbEntity
  8
Sketch2
100
AcDbLine
 10
-149.385347366333
 20
613.279800415039
 30
0.5
 11
-149.2686258875068
 21
613.2035056335528
 31
0.5
  0
LINE
  5
3F5
330
CC
100
AcDbEntity
  8
Sketch2
100
AcDbLine
 10
-149.8188631789223
 20
613.818319864228
 30
0.5
 11
-149.7559261322021
 21
613.6938858032226
 31
0.5
  0
LINE
  5
3F6
330
CC
100
AcDbEntity
  8
Sketch2
100
AcDbLine
 10
-149.9802589416504
 20
614.7650909423828
 30
0.5
 11
-149.987979019852
 21
614.6258529661704
 31
0.5
  0
LINE
  5
3F7
330
CC
100
AcDbEntity
  8
Sketch2
100
AcDbLine
 10
-147.3059665382035
 20
615.7001124347954
 30
0.5
 11
-147.4076652526855
 21
615.7955169677734
 31
0.5
  0
LINE
  5
3F8
330
CC
100
AcDbEntity
  8
Sketch2
100
AcDbLine
 10
-149.5589505162075
 20
615.6282032310834
 30
0.5
 11
-149.6543598175049
 21
615.5265045166015
 31
0.5
  0
LINE
  5
3F9
330
CC
100
AcDbEntity
  8
Sketch2
100
AcDbLine
 10
-149.2686258875068
 20
613.2035056335528
 30
0.5
 11
-149.1519069671631
 21
613.127212524414
 31
0.5
  0
LINE
  5
3FA
330
CC
100
AcDbEntity
  8
Sketch2
100
AcDbLine
 10
-148.3083072663735
 20
616.1291314018012
 30
0.5
 11
-148.4475421905517
 21
616.1368560791015
 31
0.5
  0
LINE
  5
3FB
330
CC
100
AcDbEntity
  8
Sketch2
100
AcDbLine
 10
-148.0332913974907
 20
616.0896304752194
 30
0.5
 11
-148.1690692901611
 21
616.1214065551757
 31
0.5
  0
LINE
  5
3FC
330
CC
100
AcDbEntity
  8
Sketch2
100
AcDbLine
 10
-148.8579430904406
 20
616.0633273467617
 30
0.5
 11
-148.9914226531982
 21
616.0229492187499
 31
0.5
  0
LINE
  5
3FD
330
CC
100
AcDbEntity
  8
Sketch2
100
AcDbLine
 10
-149.9484828616941
 20
614.9008736033725
 30
0.5
 11
-149.9802589416504
 21
614.7650909423828
 31
0.5
  0
LINE
  5
3FE
330
CC
100
AcDbEntity
  8
Sketch2
100
AcDbLine
 10
-149.6723356622363
 20
613.582247464213
 30
0.5
 11
-149.5887470245361
 21
613.4706115722656
 31
0.5
  0
LINE
  5
3FF
330
CC
100
AcDbEntity
  8
Sketch2
100
AcDbLine
 10
-149.9167060852051
 20
615.0366592407226
 30
0.5
 11
-149.9484828616941
 21
614.9008736033725
 31
0.5
  0
LINE
  5
400
330
CC
100
AcDbEntity
  8
Sketch2
100
AcDbLine
 10
-149.1519069671631
 20
613.127212524414
 30
0.5
 11
-149.0237031237231
 21
613.0723375028301
 31
0.5
  0
LINE
  5
401
330
CC
100
AcDbEntity
  8
Sketch2
100
AcDbLine
 10
-146.870851959164
 20
614.9990859355422
 30
0.5
 11
-146.9112205505371
 21
615.1325607299805
 31
0.5
  0
LINE
  5
402
330
CC
100
AcDbEntity
  8
Sketch2
100
AcDbLine
 10
-147.0370864868164
 20
615.3814697265625
 30
0.5
 11
-147.1206769567822
 21
615.4930889918769
 31
0.5
  0
LINE
  5
403
330
CC
100
AcDbEntity
  8
Sketch2
100
AcDbLine
 10
-148.2070097053408
 20
612.9550554186842
 30
0.5
 11
-148.0685520172119
 21
612.9716491699219
 31
0.5
  0
LINE
  5
404
330
CC
100
AcDbEntity
  8
Sketch2
100
AcDbLine
 10
-146.8127536773681
 20
614.3102264404297
 30
0.5
 11
-146.8050383675904
 21
614.449464416642
 31
0.5
  0
LINE
  5
405
330
CC
100
AcDbEntity
  8
Sketch2
100
AcDbLine
 10
-147.1206769567822
 20
615.4930889918769
 30
0.5
 11
-147.2042655944824
 21
615.6047058105468
 31
0.5
  0
LINE
  5
406
330
CC
100
AcDbEntity
  8
Sketch2
100
AcDbLine
 10
-148.0685520172119
 20
612.9716491699219
 30
0.5
 11
-147.9350742970018
 21
613.0120091093281
 31
0.5
  0
LINE
  5
407
330
CC
100
AcDbEntity
  8
Sketch2
100
AcDbLine
 10
-146.8050383675904
 20
614.449464416642
 30
0.5
 11
-146.7973232269287
 21
614.5886993408203
 31
0.5
  0
LINE
  5
408
330
CC
100
AcDbEntity
  8
Sketch2
100
AcDbLine
 10
-146.8304824829101
 20
614.865608215332
 30
0.5
 11
-146.870851959164
 21
614.9990859355422
 31
0.5
  0
LINE
  5
409
330
CC
100
AcDbEntity
  8
Sketch2
100
AcDbLine
 10
-149.9791191191312
 20
614.34816208729
 30
0.5
 11
-149.9625396728515
 21
614.2097091674805
 31
0.5
  0
LINE
  5
40A
330
CC
100
AcDbEntity
  8
Sketch2
100
AcDbLine
 10
-149.487046080815
 20
613.3752049480171
 30
0.5
 11
-149.385347366333
 21
613.279800415039
 31
0.5
  0
LINE
  5
40B
330
CC
100
AcDbEntity
  8
Sketch2
100
AcDbLine
 10
-149.7306593674149
 20
615.4097735009277
 30
0.5
 11
-149.806957244873
 21
615.2930450439453
 31
0.5
  0
LINE
  5
40C
330
CC
100
AcDbEntity
  8
Sketch2
100
AcDbLine
 10
-148.7244606018066
 20
616.1037063598633
 30
0.5
 11
-148.8579430904406
 21
616.0633273467617
 31
0.5
  0
LINE
  5
40D
330
CC
100
AcDbEntity
  8
Sketch2
100
AcDbLine
 10
-149.861832266457
 20
615.1648507373531
 30
0.5
 11
-149.9167060852051
 21
615.0366592407226
 31
0.5
  0
LINE
  5
40E
330
CC
100
AcDbEntity
  8
Sketch2
100
AcDbLine
 10
-148.5860029136777
 20
616.1202810378236
 30
0.5
 11
-148.7244606018066
 21
616.1037063598633
 31
0.5
  0
LINE
  5
40F
330
CC
100
AcDbEntity
  8
Sketch2
100
AcDbLine
 10
-149.987979019852
 20
614.6258529661704
 30
0.5
 11
-149.995698928833
 21
614.4866180419922
 31
0.5
  0
LINE
  5
410
330
CC
100
AcDbEntity
  8
Sketch2
100
AcDbLine
 10
-146.9741542084155
 20
615.2570165922798
 30
0.5
 11
-147.0370864868164
 21
615.3814697265625
 31
0.5
  0
LINE
  5
411
330
CC
100
AcDbEntity
  8
Sketch2
100
AcDbLine
 10
-147.4076652526855
 20
615.7955169677734
 30
0.5
 11
-147.5243914999356
 21
615.8718117492597
 31
0.5
  0
LINE
  5
412
330
CC
100
AcDbEntity
  8
Sketch2
100
AcDbLine
 10
-146.9112205505371
 20
615.1325607299805
 30
0.5
 11
-146.9741542084155
 21
615.2570165922798
 31
0.5
  0
LINE
  5
413
330
CC
100
AcDbEntity
  8
Sketch2
100
AcDbLine
 10
-149.4635391235351
 20
615.7299041748046
 30
0.5
 11
-149.5589505162075
 21
615.6282032310834
 31
0.5
  0
LINE
  5
414
330
CC
100
AcDbEntity
  8
Sketch2
100
AcDbLine
 10
-146.8445297573244
 20
614.1744437794399
 30
0.5
 11
-146.8127536773681
 21
614.3102264404297
 31
0.5
  0
LINE
  5
415
330
CC
100
AcDbEntity
  8
Sketch2
100
AcDbLine
 10
-149.9221701965977
 20
614.0762314472702
 30
0.5
 11
-149.8818016052246
 21
613.942756652832
 31
0.5
  0
LINE
  5
416
330
CC
100
AcDbEntity
  8
Sketch2
100
AcDbLine
 10
-149.0237031237231
 20
613.0723375028301
 30
0.5
 11
-148.8955020904541
 21
613.017463684082
 31
0.5
  0
LINE
  5
417
330
CC
100
AcDbEntity
  8
Sketch2
100
AcDbLine
 10
-148.8955020904541
 20
613.017463684082
 30
0.5
 11
-148.7597212215278
 21
612.985686907593
 31
0.5
  0
LINE
  5
418
330
CC
100
AcDbEntity
  8
Sketch2
100
AcDbLine
 10
-149.2403030395507
 20
615.8970642089843
 30
0.5
 11
-149.3519223048651
 21
615.8134832758662
 31
0.5
  0
LINE
  5
419
330
CC
100
AcDbEntity
  8
Sketch2
100
AcDbLine
 10
-147.6411151885986
 20
615.9481048583984
 30
0.5
 11
-147.7693142636146
 21
616.0029798799824
 31
0.5
  0
LINE
  5
41A
330
CC
100
AcDbEntity
  8
Sketch2
100
AcDbLine
 10
-148.7597212215278
 20
612.985686907593
 30
0.5
 11
-148.6239433288574
 21
612.9539108276367
 31
0.5
  0
LINE
  5
41B
330
CC
100
AcDbEntity
  8
Sketch2
100
AcDbLine
 10
-146.8763065338134
 20
614.0386581420898
 30
0.5
 11
-146.8445297573244
 21
614.1744437794399
 31
0.5
  0
LINE
  5
41C
330
CC
100
AcDbEntity
  8
Sketch2
100
AcDbLine
 10
-147.5243914999356
 20
615.8718117492597
 30
0.5
 11
-147.6411151885986
 21
615.9481048583984
 31
0.5
  0
LINE
  5
41D
330
CC
100
AcDbEntity
  8
Sketch2
100
AcDbLine
 10
-146.8139030366304
 20
614.7271552955224
 30
0.5
 11
-146.8304824829101
 21
614.865608215332
 31
0.5
  0
LINE
  5
41E
330
CC
100
AcDbEntity
  8
Sketch2
100
AcDbLine
 10
-149.1158642102261
 20
615.9600060240238
 30
0.5
 11
-149.2403030395507
 21
615.8970642089843
 31
0.5
  0
LINE
  5
41F
330
CC
100
AcDbEntity
  8
Sketch2
100
AcDbLine
 10
-149.6543598175049
 20
615.5265045166015
 30
0.5
 11
-149.7306593674149
 21
615.4097735009277
 31
0.5
  0
LINE
  5
420
330
CC
100
AcDbEntity
  8
Sketch2
100
AcDbLine
 10
-148.6239433288574
 20
612.9539108276367
 30
0.5
 11
-148.4847053526451
 21
612.9461859810112
 31
0.5
  0
LINE
  5
421
330
CC
100
AcDbEntity
  8
Sketch2
100
AcDbLine
 10
-148.4847053526451
 20
612.9461859810112
 30
0.5
 11
-148.3454704284668
 21
612.9384613037109
 31
0.5
  0
LINE
  5
422
330
CC
100
AcDbEntity
  8
Sketch2
100
AcDbLine
 10
-147.9350742970018
 20
613.0120091093281
 30
0.5
 11
-147.8015995025635
 21
613.0523681640625
 31
0.5
  0
LINE
  5
423
330
CC
100
AcDbEntity
  8
Sketch2
100
AcDbLine
 10
-147.2042655944824
 20
615.6047058105468
 30
0.5
 11
-147.3059665382035
 21
615.7001124347954
 31
0.5
  0
LINE
  5
424
330
CC
100
AcDbEntity
  8
Sketch2
100
AcDbLine
 10
-149.995698928833
 20
614.4866180419922
 30
0.5
 11
-149.9791191191312
 21
614.34816208729
 31
0.5
  0
LINE
  5
425
330
CC
100
AcDbEntity
  8
Sketch2
100
AcDbLine
 10
-148.4475421905517
 20
616.1368560791015
 30
0.5
 11
-148.5860029136777
 21
616.1202810378236
 31
0.5
  0
LINE
  5
426
330
CC
100
AcDbEntity
  8
Sketch2
100
AcDbLine
 10
-149.7559261322021
 20
613.6938858032226
 30
0.5
 11
-149.6723356622363
 21
613.582247464213
 31
0.5
  0
LINE
  5
427
330
CC
100
AcDbEntity
  8
Sketch2
100
AcDbLine
 10
-149.5887470245361
 20
613.4706115722656
 30
0.5
 11
-149.487046080815
 21
613.3752049480171
 31
0.5
  0
LINE
  5
428
330
CC
100
AcDbEntity
  8
Sketch2
100
AcDbLine
 10
-148.3454704284668
 20
612.9384613037109
 30
0.5
 11
-148.2070097053408
 21
612.9550554186842
 31
0.5
  0
LINE
  5
429
330
CC
100
AcDbEntity
  8
Sketch2
100
AcDbLine
 10
-147.8015995025635
 20
613.0523681640625
 30
0.5
 11
-147.6771579455356
 21
613.1153113587886
 31
0.5
  0
LINE
  5
42A
330
CC
100
AcDbEntity
  8
Sketch2
100
AcDbLine
 10
-147.6771579455356
 20
613.1153113587886
 30
0.5
 11
-147.5527191162109
 21
613.1782531738281
 31
0.5
  0
LINE
  5
42B
330
CC
100
AcDbEntity
  8
Sketch2
100
AcDbLine
 10
-146.7973232269287
 20
614.5886993408203
 30
0.5
 11
-146.8139030366304
 21
614.7271552955224
 31
0.5
  0
LINE
  5
42C
330
CC
100
AcDbEntity
  8
Sketch2
100
AcDbLine
 10
-147.8975105285644
 20
616.0578536987304
 30
0.5
 11
-148.0332913974907
 21
616.0896304752194
 31
0.5
  0
LINE
  5
42D
330
CC
100
AcDbEntity
  8
Sketch2
100
AcDbLine
 10
-141.047976164681
 20
490.3691681650996
 30
0.5
 11
-141.2520408630371
 21
490.2927780151367
 31
0.5
  0
LINE
  5
42E
330
CC
100
AcDbEntity
  8
Sketch2
100
AcDbLine
 10
-139.9797058105469
 20
490.5291366577148
 30
0.5
 11
-140.1975846252896
 21
490.5271339636
 31
0.5
  0
LINE
  5
42F
330
CC
100
AcDbEntity
  8
Sketch2
100
AcDbLine
 10
-142.5836658477783
 20
487.3677062988281
 30
0.5
 11
-142.5072821405723
 21
487.1636413051589
 31
0.5
  0
LINE
  5
430
330
CC
100
AcDbEntity
  8
Sketch2
100
AcDbLine
 10
-141.4003679084044
 20
485.8686649628747
 30
0.5
 11
-141.2106800079345
 21
485.7614517211914
 31
0.5
  0
LINE
  5
431
330
CC
100
AcDbEntity
  8
Sketch2
100
AcDbLine
 10
-141.2106800079345
 20
485.7614517211914
 30
0.5
 11
-141.0052655798974
 21
485.6888016080138
 31
0.5
  0
LINE
  5
432
330
CC
100
AcDbEntity
  8
Sketch2
100
AcDbLine
 10
-137.6864624023437
 20
488.277359008789
 30
0.5
 11
-137.726254027079
 21
488.4915900592511
 31
0.5
  0
LINE
  5
433
330
CC
100
AcDbEntity
  8
Sketch2
100
AcDbLine
 10
-147.4410950824727
 20
613.2618341069462
 30
0.5
 11
-147.3294734954834
 21
613.3454132080077
 31
0.5
  0
LINE
  5
434
330
CC
100
AcDbEntity
  8
Sketch2
100
AcDbLine
 10
-137.7660465240478
 20
488.705825805664
 30
0.5
 11
-137.8424349995732
 21
488.909871726056
 31
0.5
  0
LINE
  5
435
330
CC
100
AcDbEntity
  8
Sketch2
100
AcDbLine
 10
-137.7183632014381
 20
487.6266837406904
 30
0.5
 11
-137.6824855804443
 21
487.8416061401367
 31
0.5
  0
LINE
  5
436
330
CC
100
AcDbEntity
  8
Sketch2
100
AcDbLine
 10
-141.6274261474609
 20
490.0714492797852
 30
0.5
 11
-141.7930537190822
 21
489.9298874157778
 31
0.5
  0
LINE
  5
437
330
CC
100
AcDbEntity
  8
Sketch2
100
AcDbLine
 10
-138.1401538848877
 20
489.4893264770508
 30
0.5
 11
-138.2817252855335
 21
489.654939743714
 31
0.5
  0
LINE
  5
438
330
CC
100
AcDbEntity
  8
Sketch2
100
AcDbLine
 10
-138.0294883043421
 20
489.3016222408996
 30
0.5
 11
-138.1401538848877
 21
489.4893264770508
 31
0.5
  0
LINE
  5
439
330
CC
100
AcDbEntity
  8
Sketch2
100
AcDbLine
 10
-138.2817252855335
 20
489.654939743714
 30
0.5
 11
-138.4232997894287
 21
489.8205566406249
 31
0.5
  0
LINE
  5
43A
330
CC
100
AcDbEntity
  8
Sketch2
100
AcDbLine
 10
-141.7930537190822
 20
489.9298874157778
 30
0.5
 11
-141.9586849212646
 21
489.7883224487304
 31
0.5
  0
LINE
  5
43B
330
CC
100
AcDbEntity
  8
Sketch2
100
AcDbLine
 10
-138.2525077743857
 20
486.4533596678858
 30
0.5
 11
-138.1139755249023
 21
486.6215515136718
 31
0.5
  0
LINE
  5
43C
330
CC
100
AcDbEntity
  8
Sketch2
100
AcDbLine
 10
-147.234062102811
 20
613.4471141517289
 30
0.5
 11
-147.1386528015137
 21
613.5488128662109
 31
0.5
  0
LINE
  5
43D
330
CC
100
AcDbEntity
  8
Sketch2
100
AcDbLine
 10
-142.6313539388118
 20
488.4468102168291
 30
0.5
 11
-142.6672267913818
 21
488.2318878173828
 31
0.5
  0
LINE
  5
43E
330
CC
100
AcDbEntity
  8
Sketch2
100
AcDbLine
 10
-137.9188251495361
 20
489.1139221191406
 30
0.5
 11
-138.0294883043421
 21
489.3016222408996
 31
0.5
  0
LINE
  5
43F
330
CC
100
AcDbEntity
  8
Sketch2
100
AcDbLine
 10
-137.8268917416809
 20
487.2063423530948
 30
0.5
 11
-137.7542400360107
 21
487.411766052246
 31
0.5
  0
LINE
  5
440
330
CC
100
AcDbEntity
  8
Sketch2
100
AcDbLine
 10
-137.7542400360107
 20
487.411766052246
 30
0.5
 11
-137.7183632014381
 21
487.6266837406904
 31
0.5
  0
LINE
  5
441
330
CC
100
AcDbEntity
  8
Sketch2
100
AcDbLine
 10
-142.5954818725586
 20
488.6617279052734
 30
0.5
 11
-142.6313539388118
 21
488.4468102168291
 31
0.5
  0
LINE
  5
442
330
CC
100
AcDbEntity
  8
Sketch2
100
AcDbLine
 10
-138.7596702575683
 20
490.0976181030273
 30
0.5
 11
-138.9493492318456
 21
490.2048480679221
 31
0.5
  0
LINE
  5
443
330
CC
100
AcDbEntity
  8
Sketch2
100
AcDbLine
 10
-140.843915939331
 20
490.445556640625
 30
0.5
 11
-141.047976164681
 21
490.3691681650996
 31
0.5
  0
LINE
  5
444
330
CC
100
AcDbEntity
  8
Sketch2
100
AcDbLine
 10
-142.2357368469238
 20
489.4519424438477
 30
0.5
 11
-142.3429572751799
 21
489.2622587012509
 31
0.5
  0
LINE
  5
445
330
CC
100
AcDbEntity
  8
Sketch2
100
AcDbLine
 10
-142.3202336042272
 20
486.7718717166199
 30
0.5
 11
-142.2095680236816
 21
486.5841674804687
 31
0.5
  0
LINE
  5
446
330
CC
100
AcDbEntity
  8
Sketch2
100
AcDbLine
 10
-137.726254027079
 20
488.4915900592511
 30
0.5
 11
-137.7660465240478
 21
488.705825805664
 31
0.5
  0
LINE
  5
447
330
CC
100
AcDbEntity
  8
Sketch2
100
AcDbLine
 10
-147.3294734954834
 20
613.3454132080077
 30
0.5
 11
-147.234062102811
 21
613.4471141517289
 31
0.5
  0
LINE
  5
448
330
CC
100
AcDbEntity
  8
Sketch2
100
AcDbLine
 10
-137.6824855804443
 20
487.8416061401367
 30
0.5
 11
-137.6844739696013
 21
488.0594801865601
 31
0.5
  0
LINE
  5
449
330
CC
100
AcDbEntity
  8
Sketch2
100
AcDbLine
 10
-138.0067598649656
 20
486.8112352562684
 30
0.5
 11
-137.8995418548584
 21
487.0009231567382
 31
0.5
  0
LINE
  5
44A
330
CC
100
AcDbEntity
  8
Sketch2
100
AcDbLine
 10
-137.8424349995732
 20
488.909871726056
 30
0.5
 11
-137.9188251495361
 21
489.1139221191406
 31
0.5
  0
LINE
  5
44B
330
CC
100
AcDbEntity
  8
Sketch2
100
AcDbLine
 10
-138.5566634210633
 20
486.1436065417416
 30
0.5
 11
-138.3910369873047
 21
486.2851715087891
 31
0.5
  0
LINE
  5
44C
330
CC
100
AcDbEntity
  8
Sketch2
100
AcDbLine
 10
-141.4397314481574
 20
490.1821148603307
 30
0.5
 11
-141.6274261474609
 21
490.0714492797852
 31
0.5
  0
LINE
  5
44D
330
CC
100
AcDbEntity
  8
Sketch2
100
AcDbLine
 10
-141.9586849212646
 20
489.7883224487304
 30
0.5
 11
-142.0972093658643
 21
489.6201342896337
 31
0.5
  0
LINE
  5
44E
330
CC
100
AcDbEntity
  8
Sketch2
100
AcDbLine
 10
-142.6652384022249
 20
488.0140137709593
 30
0.5
 11
-142.6632499694824
 21
487.7961349487304
 31
0.5
  0
LINE
  5
44F
330
CC
100
AcDbEntity
  8
Sketch2
100
AcDbLine
 10
-138.5914831802061
 20
489.9590858535439
 30
0.5
 11
-138.7596702575683
 21
490.0976181030273
 31
0.5
  0
LINE
  5
450
330
CC
100
AcDbEntity
  8
Sketch2
100
AcDbLine
 10
-142.6632499694824
 20
487.7961349487304
 30
0.5
 11
-142.6234583447472
 21
487.5819229715457
 31
0.5
  0
LINE
  5
451
330
CC
100
AcDbEntity
  8
Sketch2
100
AcDbLine
 10
-142.6234583447472
 20
487.5819229715457
 30
0.5
 11
-142.5836658477783
 21
487.3677062988281
 31
0.5
  0
LINE
  5
452
330
CC
100
AcDbEntity
  8
Sketch2
100
AcDbLine
 10
-142.2095680236816
 20
486.5841674804687
 30
0.5
 11
-142.0679966230357
 21
486.4185542138054
 31
0.5
  0
LINE
  5
453
330
CC
100
AcDbEntity
  8
Sketch2
100
AcDbLine
 10
-139.1390323638916
 20
490.3120803833007
 30
0.5
 11
-139.3444515602481
 21
490.3847304964783
 31
0.5
  0
LINE
  5
454
330
CC
100
AcDbEntity
  8
Sketch2
100
AcDbLine
 10
-142.6672267913818
 20
488.2318878173828
 30
0.5
 11
-142.6652384022249
 21
488.0140137709593
 31
0.5
  0
LINE
  5
455
330
CC
100
AcDbEntity
  8
Sketch2
100
AcDbLine
 10
-138.1139755249023
 20
486.6215515136718
 30
0.5
 11
-138.0067598649656
 21
486.8112352562684
 31
0.5
  0
LINE
  5
456
330
CC
100
AcDbEntity
  8
Sketch2
100
AcDbLine
 10
-142.5228301668884
 20
488.8671516044246
 30
0.5
 11
-142.5954818725586
 21
488.6617279052734
 31
0.5
  0
LINE
  5
457
330
CC
100
AcDbEntity
  8
Sketch2
100
AcDbLine
 10
-140.1975846252896
 20
490.5271339636
 30
0.5
 11
-140.4154682159424
 21
490.5251312255859
 31
0.5
  0
LINE
  5
458
330
CC
100
AcDbEntity
  8
Sketch2
100
AcDbLine
 10
-141.2520408630371
 20
490.2927780151367
 30
0.5
 11
-141.4397314481574
 21
490.1821148603307
 31
0.5
  0
LINE
  5
459
330
CC
100
AcDbEntity
  8
Sketch2
100
AcDbLine
 10
-142.4308967590332
 20
486.9595718383789
 30
0.5
 11
-142.3202336042272
 21
486.7718717166199
 31
0.5
  0
LINE
  5
45A
330
CC
100
AcDbEntity
  8
Sketch2
100
AcDbLine
 10
-142.0679966230357
 20
486.4185542138054
 30
0.5
 11
-141.9264221191406
 21
486.2529373168945
 31
0.5
  0
LINE
  5
45B
330
CC
100
AcDbEntity
  8
Sketch2
100
AcDbLine
 10
-138.4232997894287
 20
489.8205566406249
 30
0.5
 11
-138.5914831802061
 21
489.9590858535439
 31
0.5
  0
LINE
  5
45C
330
CC
100
AcDbEntity
  8
Sketch2
100
AcDbLine
 10
-139.3444515602481
 20
490.3847304964783
 30
0.5
 11
-139.5498752593994
 21
490.4573822021484
 31
0.5
  0
LINE
  5
45D
330
CC
100
AcDbEntity
  8
Sketch2
100
AcDbLine
 10
-138.9493492318456
 20
490.2048480679221
 30
0.5
 11
-139.1390323638916
 21
490.3120803833007
 31
0.5
  0
LINE
  5
45E
330
CC
100
AcDbEntity
  8
Sketch2
100
AcDbLine
 10
-142.5072821405723
 20
487.1636413051589
 30
0.5
 11
-142.4308967590332
 21
486.9595718383789
 31
0.5
  0
LINE
  5
45F
330
CC
100
AcDbEntity
  8
Sketch2
100
AcDbLine
 10
-137.6844739696013
 20
488.0594801865601
 30
0.5
 11
-137.6864624023437
 21
488.277359008789
 31
0.5
  0
LINE
  5
460
330
CC
100
AcDbEntity
  8
Sketch2
100
AcDbLine
 10
-141.9264221191406
 20
486.2529373168945
 30
0.5
 11
-141.7582387283632
 21
486.1144081039754
 31
0.5
  0
LINE
  5
461
330
CC
100
AcDbEntity
  8
Sketch2
100
AcDbLine
 10
-142.4501800537109
 20
489.0725708007813
 30
0.5
 11
-142.5228301668884
 21
488.8671516044246
 31
0.5
  0
LINE
  5
462
330
CC
100
AcDbEntity
  8
Sketch2
100
AcDbLine
 10
-141.7582387283632
 20
486.1144081039754
 30
0.5
 11
-141.590051651001
 21
485.9758758544922
 31
0.5
  0
LINE
  5
463
330
CC
100
AcDbEntity
  8
Sketch2
100
AcDbLine
 10
-141.590051651001
 20
485.9758758544922
 30
0.5
 11
-141.4003679084044
 21
485.8686649628747
 31
0.5
  0
LINE
  5
464
330
CC
100
AcDbEntity
  8
Sketch2
100
AcDbLine
 10
-137.8995418548584
 20
487.0009231567382
 30
0.5
 11
-137.8268917416809
 21
487.2063423530948
 31
0.5
  0
LINE
  5
465
330
CC
100
AcDbEntity
  8
Sketch2
100
AcDbLine
 10
-138.3910369873047
 20
486.2851715087891
 30
0.5
 11
-138.2525077743857
 21
486.4533596678858
 31
0.5
  0
LINE
  5
466
330
CC
100
AcDbEntity
  8
Sketch2
100
AcDbLine
 10
-140.6296897297658
 20
490.48534436917
 30
0.5
 11
-140.843915939331
 21
490.445556640625
 31
0.5
  0
LINE
  5
467
330
CC
100
AcDbEntity
  8
Sketch2
100
AcDbLine
 10
-142.0972093658643
 20
489.6201342896337
 30
0.5
 11
-142.2357368469238
 21
489.4519424438477
 31
0.5
  0
LINE
  5
468
330
CC
100
AcDbEntity
  8
Sketch2
100
AcDbLine
 10
-142.3429572751799
 20
489.2622587012509
 30
0.5
 11
-142.4501800537109
 21
489.0725708007813
 31
0.5
  0
LINE
  5
469
330
CC
100
AcDbEntity
  8
Sketch2
100
AcDbLine
 10
-140.4154682159424
 20
490.5251312255859
 30
0.5
 11
-140.6296897297658
 21
490.48534436917
 31
0.5
  0
LINE
  5
46A
330
CC
100
AcDbEntity
  8
Sketch2
100
AcDbLine
 10
-147.5527191162109
 20
613.1782531738281
 30
0.5
 11
-147.4410950824727
 21
613.2618341069462
 31
0.5
  0
LINE
  5
46B
330
CC
100
AcDbEntity
  8
Sketch2
100
AcDbLine
 10
-139.5498752593994
 20
490.4573822021484
 30
0.5
 11
-139.7647881795244
 21
490.4932590367209
 31
0.5
  0
LINE
  5
46C
330
CC
100
AcDbEntity
  8
Sketch2
100
AcDbLine
 10
-139.7647881795244
 20
490.4932590367209
 30
0.5
 11
-139.9797058105469
 21
490.5291366577148
 31
0.5
  0
LINE
  5
46D
330
CC
100
AcDbEntity
  8
Sketch2
100
AcDbLine
 10
-140.5849337290449
 20
485.5802730677711
 30
0.5
 11
-140.3700160980224
 21
485.5443954467773
 31
0.5
  0
LINE
  5
46E
330
CC
100
AcDbEntity
  8
Sketch2
100
AcDbLine
 10
-165.3862762451172
 20
720.0710296630859
 30
0.5
 11
-165.2885807774241
 21
720.170518058144
 31
0.5
  0
LINE
  5
46F
330
CC
100
AcDbEntity
  8
Sketch2
100
AcDbLine
 10
-164.8380456483193
 20
720.4921347527251
 30
0.5
 11
-164.7122001647949
 21
720.5522155761719
 31
0.5
  0
LINE
  5
470
330
CC
100
AcDbEntity
  8
Sketch2
100
AcDbLine
 10
-162.7729988098144
 20
719.8664093017578
 30
0.5
 11
-162.712916669394
 21
719.7405610596962
 31
0.5
  0
LINE
  5
471
330
CC
100
AcDbEntity
  8
Sketch2
100
AcDbLine
 10
-139.7200321788035
 20
485.5881495883495
 30
0.5
 11
-139.5058059692383
 21
485.6279373168945
 31
0.5
  0
LINE
  5
472
330
CC
100
AcDbEntity
  8
Sketch2
100
AcDbLine
 10
-162.7006155623917
 20
718.3933625616617
 30
0.5
 11
-162.7583885192871
 21
718.2664489746094
 31
0.5
  0
LINE
  5
473
330
CC
100
AcDbEntity
  8
Sketch2
100
AcDbLine
 10
-138.7222862243652
 20
486.0020446777343
 30
0.5
 11
-138.5566634210633
 21
486.1436065417416
 31
0.5
  0
LINE
  5
474
330
CC
100
AcDbEntity
  8
Sketch2
100
AcDbLine
 10
-164.4434928894043
 20
720.6268310546875
 30
0.5
 11
-164.3046840713378
 21
720.6402589362291
 31
0.5
  0
LINE
  5
475
330
CC
100
AcDbEntity
  8
Sketch2
100
AcDbLine
 10
-164.3046840713378
 20
720.6402589362291
 30
0.5
 11
-164.1658782958984
 21
720.6536865234375
 31
0.5
  0
LINE
  5
476
330
CC
100
AcDbEntity
  8
Sketch2
100
AcDbLine
 10
-138.9099856920925
 20
485.8913790971888
 30
0.5
 11
-138.7222862243652
 21
486.0020446777343
 31
0.5
  0
LINE
  5
477
330
CC
100
AcDbEntity
  8
Sketch2
100
AcDbLine
 10
-165.7243728637695
 20
718.7615966796875
 30
0.5
 11
-165.7377912084634
 21
718.900376887211
 31
0.5
  0
LINE
  5
478
330
CC
100
AcDbEntity
  8
Sketch2
100
AcDbLine
 10
-165.687055996762
 20
718.6272063679394
 30
0.5
 11
-165.7243728637695
 21
718.7615966796875
 31
0.5
  0
LINE
  5
479
330
CC
100
AcDbEntity
  8
Sketch2
100
AcDbLine
 10
-165.7377912084634
 20
718.900376887211
 30
0.5
 11
-165.7512092590332
 21
719.0391540527343
 31
0.5
  0
LINE
  5
47A
330
CC
100
AcDbEntity
  8
Sketch2
100
AcDbLine
 10
-162.6155086241051
 20
719.4803604659746
 30
0.5
 11
-162.578182220459
 21
719.3460083007813
 31
0.5
  0
LINE
  5
47B
330
CC
100
AcDbEntity
  8
Sketch2
100
AcDbLine
 10
-163.2489954747144
 20
720.3676978044119
 30
0.5
 11
-163.1340408325195
 21
720.2887725830078
 31
0.5
  0
LINE
  5
47C
330
CC
100
AcDbEntity
  8
Sketch2
100
AcDbLine
 10
-139.5058059692383
 20
485.6279373168945
 30
0.5
 11
-139.3017457438883
 21
485.7043257924198
 31
0.5
  0
LINE
  5
47D
330
CC
100
AcDbEntity
  8
Sketch2
100
AcDbLine
 10
-162.578182220459
 20
719.3460083007813
 30
0.5
 11
-162.5647638757651
 21
719.207189945867
 31
0.5
  0
LINE
  5
47E
330
CC
100
AcDbEntity
  8
Sketch2
100
AcDbLine
 10
-165.6497383117676
 20
718.4928131103515
 30
0.5
 11
-165.687055996762
 21
718.6272063679394
 31
0.5
  0
LINE
  5
47F
330
CC
100
AcDbEntity
  8
Sketch2
100
AcDbLine
 10
-162.5622273684047
 20
718.9293655419212
 30
0.5
 11
-162.5731086730957
 21
718.7903594970703
 31
0.5
  0
LINE
  5
480
330
CC
100
AcDbEntity
  8
Sketch2
100
AcDbLine
 10
-162.6428413391113
 20
718.520278930664
 30
0.5
 11
-162.7006155623917
 21
718.3933625616617
 31
0.5
  0
LINE
  5
481
330
CC
100
AcDbEntity
  8
Sketch2
100
AcDbLine
 10
-163.3639526367187
 20
720.4466247558594
 30
0.5
 11
-163.2489954747144
 21
720.3676978044119
 31
0.5
  0
LINE
  5
482
330
CC
100
AcDbEntity
  8
Sketch2
100
AcDbLine
 10
-165.7294464111328
 20
719.3172454833984
 30
0.5
 11
-165.6945796959936
 21
719.4522490992383
 31
0.5
  0
LINE
  5
483
330
CC
100
AcDbEntity
  8
Sketch2
100
AcDbLine
 10
-164.9638938903808
 20
720.4320526123047
 30
0.5
 11
-164.8380456483193
 21
720.4921347527251
 31
0.5
  0
LINE
  5
484
330
CC
100
AcDbEntity
  8
Sketch2
100
AcDbLine
 10
-163.887825012207
 20
720.6319427490234
 30
0.5
 11
-163.7528023226718
 21
720.5970760338841
 31
0.5
  0
LINE
  5
485
330
CC
100
AcDbEntity
  8
Sketch2
100
AcDbLine
 10
-162.5731086730957
 20
718.7903594970703
 30
0.5
 11
-162.6079753882349
 21
718.6553177338396
 31
0.5
  0
LINE
  5
486
330
CC
100
AcDbEntity
  8
Sketch2
100
AcDbLine
 10
-165.5896479516821
 20
718.3669676268272
 30
0.5
 11
-165.6497383117676
 21
718.4928131103515
 31
0.5
  0
LINE
  5
487
330
CC
100
AcDbEntity
  8
Sketch2
100
AcDbLine
 10
-162.5513458251953
 20
719.068374633789
 30
0.5
 11
-162.5622273684047
 21
718.9293655419212
 31
0.5
  0
LINE
  5
488
330
CC
100
AcDbEntity
  8
Sketch2
100
AcDbLine
 10
-162.83733454443
 20
718.1514727389095
 30
0.5
 11
-162.9162788391113
 21
718.0364990234375
 31
0.5
  0
LINE
  5
489
330
CC
100
AcDbEntity
  8
Sketch2
100
AcDbLine
 10
-140.3700160980224
 20
485.5443954467773
 30
0.5
 11
-140.1521372832797
 21
485.5463790676148
 31
0.5
  0
LINE
  5
48A
330
CC
100
AcDbEntity
  8
Sketch2
100
AcDbLine
 10
-140.1521372832797
 20
485.5463790676148
 30
0.5
 11
-139.9342536926269
 21
485.5483627319336
 31
0.5
  0
LINE
  5
48B
330
CC
100
AcDbEntity
  8
Sketch2
100
AcDbLine
 10
-139.3017457438883
 20
485.7043257924198
 30
0.5
 11
-139.0976810455322
 21
485.7807159423828
 31
0.5
  0
LINE
  5
48C
330
CC
100
AcDbEntity
  8
Sketch2
100
AcDbLine
 10
-164.5778450545977
 20
720.5895237243185
 30
0.5
 11
-164.4434928894043
 21
720.6268310546875
 31
0.5
  0
LINE
  5
48D
330
CC
100
AcDbEntity
  8
Sketch2
100
AcDbLine
 10
-164.1658782958984
 20
720.6536865234375
 30
0.5
 11
-164.0268501303351
 21
720.6428145170757
 31
0.5
  0
LINE
  5
48E
330
CC
100
AcDbEntity
  8
Sketch2
100
AcDbLine
 10
-163.0345429006138
 20
720.1910771153148
 30
0.5
 11
-162.9350471496582
 21
720.0933837890625
 31
0.5
  0
LINE
  5
48F
330
CC
100
AcDbEntity
  8
Sketch2
100
AcDbLine
 10
-165.7403277158237
 20
719.1782012919929
 30
0.5
 11
-165.7294464111328
 21
719.3172454833984
 31
0.5
  0
LINE
  5
490
330
CC
100
AcDbEntity
  8
Sketch2
100
AcDbLine
 10
-162.9350471496582
 20
720.0933837890625
 30
0.5
 11
-162.8540220917198
 21
719.9798953016016
 31
0.5
  0
LINE
  5
491
330
CC
100
AcDbEntity
  8
Sketch2
100
AcDbLine
 10
-162.8540220917198
 20
719.9798953016016
 30
0.5
 11
-162.7729988098144
 21
719.8664093017578
 31
0.5
  0
LINE
  5
492
330
CC
100
AcDbEntity
  8
Sketch2
100
AcDbLine
 10
-162.5647638757651
 20
719.207189945867
 30
0.5
 11
-162.5513458251953
 21
719.068374633789
 31
0.5
  0
LINE
  5
493
330
CC
100
AcDbEntity
  8
Sketch2
100
AcDbLine
 10
-165.6597137451172
 20
719.5872497558593
 30
0.5
 11
-165.6019395218367
 21
719.7141661248616
 31
0.5
  0
LINE
  5
494
330
CC
100
AcDbEntity
  8
Sketch2
100
AcDbLine
 10
-163.1340408325195
 20
720.2887725830078
 30
0.5
 11
-163.0345429006138
 21
720.1910771153148
 31
0.5
  0
LINE
  5
495
330
CC
100
AcDbEntity
  8
Sketch2
100
AcDbLine
 10
-163.4908662237711
 20
720.504416786032
 30
0.5
 11
-163.3639526367187
 21
720.4466247558594
 31
0.5
  0
LINE
  5
496
330
CC
100
AcDbEntity
  8
Sketch2
100
AcDbLine
 10
-162.6528358459473
 20
719.6147155761718
 30
0.5
 11
-162.6155086241051
 21
719.4803604659746
 31
0.5
  0
LINE
  5
497
330
CC
100
AcDbEntity
  8
Sketch2
100
AcDbLine
 10
-165.2885807774241
 20
720.170518058144
 30
0.5
 11
-165.1908874511718
 21
720.2700042724609
 31
0.5
  0
LINE
  5
498
330
CC
100
AcDbEntity
  8
Sketch2
100
AcDbLine
 10
-140.7998466491699
 20
485.6161499023437
 30
0.5
 11
-140.5849337290449
 21
485.5802730677711
 31
0.5
  0
LINE
  5
499
330
CC
100
AcDbEntity
  8
Sketch2
100
AcDbLine
 10
-164.7122001647949
 20
720.5522155761719
 30
0.5
 11
-164.5778450545977
 21
720.5895237243185
 31
0.5
  0
LINE
  5
49A
330
CC
100
AcDbEntity
  8
Sketch2
100
AcDbLine
 10
-162.7583885192871
 20
718.2664489746094
 30
0.5
 11
-162.83733454443
 21
718.1514727389095
 31
0.5
  0
LINE
  5
49B
330
CC
100
AcDbEntity
  8
Sketch2
100
AcDbLine
 10
-165.7512092590332
 20
719.0391540527343
 30
0.5
 11
-165.7403277158237
 21
719.1782012919929
 31
0.5
  0
LINE
  5
49C
330
CC
100
AcDbEntity
  8
Sketch2
100
AcDbLine
 10
-165.6019395218367
 20
719.7141661248616
 30
0.5
 11
-165.5441665649414
 21
719.841079711914
 31
0.5
  0
LINE
  5
49D
330
CC
100
AcDbEntity
  8
Sketch2
100
AcDbLine
 10
-165.6945796959936
 20
719.4522490992383
 30
0.5
 11
-165.6597137451172
 21
719.5872497558593
 31
0.5
  0
LINE
  5
49E
330
CC
100
AcDbEntity
  8
Sketch2
100
AcDbLine
 10
-162.712916669394
 20
719.7405610596962
 30
0.5
 11
-162.6528358459473
 21
719.6147155761718
 31
0.5
  0
LINE
  5
49F
330
CC
100
AcDbEntity
  8
Sketch2
100
AcDbLine
 10
-162.9162788391113
 20
718.0364990234375
 30
0.5
 11
-163.0139743068044
 21
717.9370106283794
 31
0.5
  0
LINE
  5
4A0
330
CC
100
AcDbEntity
  8
Sketch2
100
AcDbLine
 10
-162.6079753882349
 20
718.6553177338396
 30
0.5
 11
-162.6428413391113
 21
718.520278930664
 31
0.5
  0
LINE
  5
4A1
330
CC
100
AcDbEntity
  8
Sketch2
100
AcDbLine
 10
-163.6177825927734
 20
720.5622100830078
 30
0.5
 11
-163.4908662237711
 21
720.504416786032
 31
0.5
  0
LINE
  5
4A2
330
CC
100
AcDbEntity
  8
Sketch2
100
AcDbLine
 10
-163.0139743068044
 20
717.9370106283794
 30
0.5
 11
-163.1116676330566
 21
717.8375244140625
 31
0.5
  0
LINE
  5
4A3
330
CC
100
AcDbEntity
  8
Sketch2
100
AcDbLine
 10
-139.0976810455322
 20
485.7807159423828
 30
0.5
 11
-138.9099856920925
 21
485.8913790971888
 31
0.5
  0
LINE
  5
4A4
330
CC
100
AcDbEntity
  8
Sketch2
100
AcDbLine
 10
-163.1116676330566
 20
717.8375244140625
 30
0.5
 11
-163.225165657365
 21
717.756499356124
 31
0.5
  0
LINE
  5
4A5
330
CC
100
AcDbEntity
  8
Sketch2
100
AcDbLine
 10
-141.0052655798974
 20
485.6888016080138
 30
0.5
 11
-140.7998466491699
 21
485.6161499023437
 31
0.5
  0
LINE
  5
4A6
330
CC
100
AcDbEntity
  8
Sketch2
100
AcDbLine
 10
-165.0773894268634
 20
720.3510293303993
 30
0.5
 11
-164.9638938903808
 21
720.4320526123047
 31
0.5
  0
LINE
  5
4A7
330
CC
100
AcDbEntity
  8
Sketch2
100
AcDbLine
 10
-164.0268501303351
 20
720.6428145170757
 30
0.5
 11
-163.887825012207
 21
720.6319427490234
 31
0.5
  0
LINE
  5
4A8
330
CC
100
AcDbEntity
  8
Sketch2
100
AcDbLine
 10
-163.7528023226718
 20
720.5970760338841
 30
0.5
 11
-163.6177825927734
 21
720.5622100830078
 31
0.5
  0
LINE
  5
4A9
330
CC
100
AcDbEntity
  8
Sketch2
100
AcDbLine
 10
-139.9342536926269
 20
485.5483627319336
 30
0.5
 11
-139.7200321788035
 21
485.5881495883495
 31
0.5
  0
LINE
  5
4AA
330
CC
100
AcDbEntity
  8
Sketch2
100
AcDbLine
 10
-165.4652205397985
 20
719.9560559476139
 30
0.5
 11
-165.3862762451172
 21
720.0710296630859
 31
0.5
  0
LINE
  5
4AB
330
CC
100
AcDbEntity
  8
Sketch2
100
AcDbLine
 10
-165.5441665649414
 20
719.841079711914
 30
0.5
 11
-165.4652205397985
 21
719.9560559476139
 31
0.5
  0
LINE
  5
4AC
330
CC
100
AcDbEntity
  8
Sketch2
100
AcDbLine
 10
-165.1908874511718
 20
720.2700042724609
 30
0.5
 11
-165.0773894268634
 21
720.3510293303993
 31
0.5
  0
LINE
  5
4AD
330
CC
100
AcDbEntity
  8
Sketch2
100
AcDbLine
 10
-148.3233489237338
 20
693.0674722104147
 30
0.5
 11
-148.4172344207763
 21
693.2640838623046
 31
0.5
  0
LINE
  5
4AE
330
CC
100
AcDbEntity
  8
Sketch2
100
AcDbLine
 10
-148.0918691244048
 20
692.2340750767896
 30
0.5
 11
-148.1128406524658
 21
692.450942993164
 31
0.5
  0
LINE
  5
4AF
330
CC
100
AcDbEntity
  8
Sketch2
100
AcDbLine
 10
-149.3010902404785
 20
689.8408508300781
 30
0.5
 11
-149.1237564449239
 21
689.9674592446939
 31
0.5
  0
LINE
  5
4B0
330
CC
100
AcDbEntity
  8
Sketch2
100
AcDbLine
 10
-148.9813709259033
 20
693.9241027832031
 30
0.5
 11
-149.1609887464127
 21
694.0474305941261
 31
0.5
  0
LINE
  5
4B1
330
CC
100
AcDbEntity
  8
Sketch2
100
AcDbLine
 10
-163.225165657365
 20
717.756499356124
 30
0.5
 11
-163.3386611938476
 21
717.6754760742187
 31
0.5
  0
LINE
  5
4B2
330
CC
100
AcDbEntity
  8
Sketch2
100
AcDbLine
 10
-149.3406105041504
 20
694.1707611083984
 30
0.5
 11
-149.5389153680795
 21
694.2610540030642
 31
0.5
  0
LINE
  5
4B3
330
CC
100
AcDbEntity
  8
Sketch2
100
AcDbLine
 10
-149.7372245788574
 20
694.3513488769531
 30
0.5
 11
-149.9481893305842
 21
694.4058221568782
 31
0.5
  0
LINE
  5
4B4
330
CC
100
AcDbEntity
  8
Sketch2
100
AcDbLine
 10
-150.159158706665
 20
694.4602966308593
 30
0.5
 11
-150.3763842616605
 21
694.4773099941973
 31
0.5
  0
LINE
  5
4B5
330
CC
100
AcDbEntity
  8
Sketch2
100
AcDbLine
 10
-150.3763842616605
 20
694.4773099941973
 30
0.5
 11
-150.593614578247
 21
694.4943237304687
 31
0.5
  0
LINE
  5
4B6
330
CC
100
AcDbEntity
  8
Sketch2
100
AcDbLine
 10
-163.7247195664785
 20
717.5180049622048
 30
0.5
 11
-163.8590812683105
 21
717.4806976318359
 31
0.5
  0
LINE
  5
4B7
330
CC
100
AcDbEntity
  8
Sketch2
100
AcDbLine
 10
-148.7937610191395
 20
690.2495176444406
 30
0.5
 11
-148.6410999298096
 21
690.4049682617187
 31
0.5
  0
LINE
  5
4B8
330
CC
100
AcDbEntity
  8
Sketch2
100
AcDbLine
 10
-148.1711524294444
 20
692.6609016295141
 30
0.5
 11
-148.2294654846191
 21
692.8708648681641
 31
0.5
  0
LINE
  5
4B9
330
CC
100
AcDbEntity
  8
Sketch2
100
AcDbLine
 10
-150.593614578247
 20
694.4943237304687
 30
0.5
 11
-150.8104872776128
 21
694.4733431254555
 31
0.5
  0
LINE
  5
4BA
330
CC
100
AcDbEntity
  8
Sketch2
100
AcDbLine
 10
-163.9978805495293
 20
717.4672697502943
 30
0.5
 11
-164.1366767883301
 21
717.4538421630859
 31
0.5
  0
LINE
  5
4BB
330
CC
100
AcDbEntity
  8
Sketch2
100
AcDbLine
 10
-148.3944225311279
 20
690.7642364501953
 30
0.5
 11
-148.3041439414201
 21
690.9625222408471
 31
0.5
  0
LINE
  5
4BC
330
CC
100
AcDbEntity
  8
Sketch2
100
AcDbLine
 10
-163.3386611938476
 20
717.6754760742187
 30
0.5
 11
-163.4645094359091
 21
717.6153939337983
 31
0.5
  0
LINE
  5
4BD
330
CC
100
AcDbEntity
  8
Sketch2
100
AcDbLine
 10
-165.4485329925086
 20
718.1276333849218
 30
0.5
 11
-165.529556274414
 21
718.2411193847656
 31
0.5
  0
LINE
  5
4BE
330
CC
100
AcDbEntity
  8
Sketch2
100
AcDbLine
 10
-164.684772491455
 20
717.5453186035156
 30
0.5
 11
-164.8116888604574
 21
717.6031119004914
 31
0.5
  0
LINE
  5
4BF
330
CC
100
AcDbEntity
  8
Sketch2
100
AcDbLine
 10
-164.5497527615567
 20
717.5104526526393
 30
0.5
 11
-164.684772491455
 21
717.5453186035156
 31
0.5
  0
LINE
  5
4C0
330
CC
100
AcDbEntity
  8
Sketch2
100
AcDbLine
 10
-149.1609887464127
 20
694.0474305941261
 30
0.5
 11
-149.3406105041504
 21
694.1707611083984
 31
0.5
  0
LINE
  5
4C1
330
CC
100
AcDbEntity
  8
Sketch2
100
AcDbLine
 10
-148.5438332987536
 20
693.4414271944979
 30
0.5
 11
-148.6704349517822
 21
693.6187744140625
 31
0.5
  0
LINE
  5
4C2
330
CC
100
AcDbEntity
  8
Sketch2
100
AcDbLine
 10
-165.2680121836147
 20
717.9164515712086
 30
0.5
 11
-165.3675079345703
 21
718.0141448974609
 31
0.5
  0
LINE
  5
4C3
330
CC
100
AcDbEntity
  8
Sketch2
100
AcDbLine
 10
-151.0273647308349
 20
694.4523620605468
 30
0.5
 11
-151.2373042939077
 21
694.3940359786103
 31
0.5
  0
LINE
  5
4C4
330
CC
100
AcDbEntity
  8
Sketch2
100
AcDbLine
 10
-151.2373042939077
 20
694.3940359786103
 30
0.5
 11
-151.4472484588623
 21
694.3357086181641
 31
0.5
  0
LINE
  5
4C5
330
CC
100
AcDbEntity
  8
Sketch2
100
AcDbLine
 10
-150.8104872776128
 20
694.4733431254555
 30
0.5
 11
-151.0273647308349
 21
694.4523620605468
 31
0.5
  0
LINE
  5
4C6
330
CC
100
AcDbEntity
  8
Sketch2
100
AcDbLine
 10
-165.3675079345703
 20
718.0141448974609
 30
0.5
 11
-165.4485329925086
 21
718.1276333849218
 31
0.5
  0
LINE
  5
4C7
330
CC
100
AcDbEntity
  8
Sketch2
100
AcDbLine
 10
-148.517762582248
 20
690.5846003871861
 30
0.5
 11
-148.3944225311279
 21
690.7642364501953
 31
0.5
  0
LINE
  5
4C8
330
CC
100
AcDbEntity
  8
Sketch2
100
AcDbLine
 10
-164.4147300720215
 20
717.4755859374999
 30
0.5
 11
-164.5497527615567
 21
717.5104526526393
 31
0.5
  0
LINE
  5
4C9
330
CC
100
AcDbEntity
  8
Sketch2
100
AcDbLine
 10
-163.4645094359091
 20
717.6153939337983
 30
0.5
 11
-163.5903549194336
 21
717.5553131103515
 31
0.5
  0
LINE
  5
4CA
330
CC
100
AcDbEntity
  8
Sketch2
100
AcDbLine
 10
-151.4472484588623
 20
694.3357086181641
 30
0.5
 11
-151.6438748743903
 21
694.2418299473688
 31
0.5
  0
LINE
  5
4CB
330
CC
100
AcDbEntity
  8
Sketch2
100
AcDbLine
 10
-151.6438748743903
 20
694.2418299473688
 30
0.5
 11
-151.8405055999756
 21
694.1479492187499
 31
0.5
  0
LINE
  5
4CC
330
CC
100
AcDbEntity
  8
Sketch2
100
AcDbLine
 10
-151.8405055999756
 20
694.1479492187499
 30
0.5
 11
-152.0178393955301
 21
694.0213789506888
 31
0.5
  0
LINE
  5
4CD
330
CC
100
AcDbEntity
  8
Sketch2
100
AcDbLine
 10
-152.0178393955301
 20
694.0213789506888
 30
0.5
 11
-152.1951770782471
 21
693.8948059082031
 31
0.5
  0
LINE
  5
4CE
330
CC
100
AcDbEntity
  8
Sketch2
100
AcDbLine
 10
-149.5389153680795
 20
694.2610540030642
 30
0.5
 11
-149.7372245788574
 21
694.3513488769531
 31
0.5
  0
LINE
  5
4CF
330
CC
100
AcDbEntity
  8
Sketch2
100
AcDbLine
 10
-148.2294654846191
 20
692.8708648681641
 30
0.5
 11
-148.3233489237338
 21
693.0674722104147
 31
0.5
  0
LINE
  5
4D0
330
CC
100
AcDbEntity
  8
Sketch2
100
AcDbLine
 10
-163.8590812683105
 20
717.4806976318359
 30
0.5
 11
-163.9978805495293
 21
717.4672697502943
 31
0.5
  0
LINE
  5
4D1
330
CC
100
AcDbEntity
  8
Sketch2
100
AcDbLine
 10
-148.4172344207763
 20
693.2640838623046
 30
0.5
 11
-148.5438332987536
 21
693.4414271944979
 31
0.5
  0
LINE
  5
4D2
330
CC
100
AcDbEntity
  8
Sketch2
100
AcDbLine
 10
-152.1951770782471
 20
693.8948059082031
 30
0.5
 11
-152.3478348213145
 21
693.7393205517781
 31
0.5
  0
LINE
  5
4D3
330
CC
100
AcDbEntity
  8
Sketch2
100
AcDbLine
 10
-149.1237564449239
 20
689.9674592446939
 30
0.5
 11
-148.946418762207
 21
690.0940704345702
 31
0.5
  0
LINE
  5
4D4
330
CC
100
AcDbEntity
  8
Sketch2
100
AcDbLine
 10
-148.6704349517822
 20
693.6187744140625
 30
0.5
 11
-148.8259012349298
 21
693.7714369254493
 31
0.5
  0
LINE
  5
4D5
330
CC
100
AcDbEntity
  8
Sketch2
100
AcDbLine
 10
-152.3478348213145
 20
693.7393205517781
 30
0.5
 11
-152.5004959106445
 21
693.5838317871094
 31
0.5
  0
LINE
  5
4D6
330
CC
100
AcDbEntity
  8
Sketch2
100
AcDbLine
 10
-152.5004959106445
 20
693.5838317871094
 30
0.5
 11
-152.6238380265254
 21
693.404199661642
 31
0.5
  0
LINE
  5
4D7
330
CC
100
AcDbEntity
  8
Sketch2
100
AcDbLine
 10
-152.6238380265254
 20
693.404199661642
 30
0.5
 11
-152.7471828460693
 21
693.2245635986328
 31
0.5
  0
LINE
  5
4D8
330
CC
100
AcDbEntity
  8
Sketch2
100
AcDbLine
 10
-152.7471828460693
 20
693.2245635986328
 30
0.5
 11
-152.8374566674578
 21
693.026277807981
 31
0.5
  0
LINE
  5
4D9
330
CC
100
AcDbEntity
  8
Sketch2
100
AcDbLine
 10
-164.8116888604574
 20
717.6031119004914
 30
0.5
 11
-164.9386024475098
 21
717.660903930664
 31
0.5
  0
LINE
  5
4DA
330
CC
100
AcDbEntity
  8
Sketch2
100
AcDbLine
 10
-165.168514251709
 20
717.8187561035156
 30
0.5
 11
-165.2680121836147
 21
717.9164515712086
 31
0.5
  0
LINE
  5
4DB
330
CC
100
AcDbEntity
  8
Sketch2
100
AcDbLine
 10
-148.6410999298096
 20
690.4049682617187
 30
0.5
 11
-148.517762582248
 21
690.5846003871861
 31
0.5
  0
LINE
  5
4DC
330
CC
100
AcDbEntity
  8
Sketch2
100
AcDbLine
 10
-148.3041439414201
 20
690.9625222408471
 30
0.5
 11
-148.2138633728027
 21
691.1608123779297
 31
0.5
  0
LINE
  5
4DD
330
CC
100
AcDbEntity
  8
Sketch2
100
AcDbLine
 10
-148.8259012349298
 20
693.7714369254493
 30
0.5
 11
-148.9813709259033
 21
693.9241027832031
 31
0.5
  0
LINE
  5
4DE
330
CC
100
AcDbEntity
  8
Sketch2
100
AcDbLine
 10
-148.1593900928776
 20
691.3718009712531
 30
0.5
 11
-148.1049156188965
 21
691.5827941894531
 31
0.5
  0
LINE
  5
4DF
330
CC
100
AcDbEntity
  8
Sketch2
100
AcDbLine
 10
-149.9481893305842
 20
694.4058221568782
 30
0.5
 11
-150.159158706665
 21
694.4602966308593
 31
0.5
  0
LINE
  5
4E0
330
CC
100
AcDbEntity
  8
Sketch2
100
AcDbLine
 10
-164.2757049538933
 20
717.4647141694476
 30
0.5
 11
-164.4147300720215
 21
717.4755859374999
 31
0.5
  0
LINE
  5
4E1
330
CC
100
AcDbEntity
  8
Sketch2
100
AcDbLine
 10
-149.4977209660637
 20
689.7469701014593
 30
0.5
 11
-149.3010902404785
 21
689.8408508300781
 31
0.5
  0
LINE
  5
4E2
330
CC
100
AcDbEntity
  8
Sketch2
100
AcDbLine
 10
-148.946418762207
 20
690.0940704345702
 30
0.5
 11
-148.7937610191395
 21
690.2495176444406
 31
0.5
  0
LINE
  5
4E3
330
CC
100
AcDbEntity
  8
Sketch2
100
AcDbLine
 10
-163.5903549194336
 20
717.5553131103515
 30
0.5
 11
-163.7247195664785
 21
717.5180049622048
 31
0.5
  0
LINE
  5
4E4
330
CC
100
AcDbEntity
  8
Sketch2
100
AcDbLine
 10
-164.9386024475098
 20
717.660903930664
 30
0.5
 11
-165.0535596095141
 21
717.7398308821115
 31
0.5
  0
LINE
  5
4E5
330
CC
100
AcDbEntity
  8
Sketch2
100
AcDbLine
 10
-165.0535596095141
 20
717.7398308821115
 30
0.5
 11
-165.168514251709
 21
717.8187561035156
 31
0.5
  0
LINE
  5
4E6
330
CC
100
AcDbEntity
  8
Sketch2
100
AcDbLine
 10
-165.529556274414
 20
718.2411193847656
 30
0.5
 11
-165.5896479516821
 21
718.3669676268272
 31
0.5
  0
LINE
  5
4E7
330
CC
100
AcDbEntity
  8
Sketch2
100
AcDbLine
 10
-148.1049156188965
 20
691.5827941894531
 30
0.5
 11
-148.0879070238778
 21
691.8000006711714
 31
0.5
  0
LINE
  5
4E8
330
CC
100
AcDbEntity
  8
Sketch2
100
AcDbLine
 10
-148.0879070238778
 20
691.8000006711714
 30
0.5
 11
-148.0708980560303
 21
692.0172119140625
 31
0.5
  0
LINE
  5
4E9
330
CC
100
AcDbEntity
  8
Sketch2
100
AcDbLine
 10
-164.1366767883301
 20
717.4538421630859
 30
0.5
 11
-164.2757049538933
 21
717.4647141694476
 31
0.5
  0
LINE
  5
4EA
330
CC
100
AcDbEntity
  8
Sketch2
100
AcDbLine
 10
-148.2138633728027
 20
691.1608123779297
 30
0.5
 11
-148.1593900928776
 21
691.3718009712531
 31
0.5
  0
LINE
  5
4EB
330
CC
100
AcDbEntity
  8
Sketch2
100
AcDbLine
 10
-148.0708980560303
 20
692.0172119140625
 30
0.5
 11
-148.0918691244048
 21
692.2340750767896
 31
0.5
  0
LINE
  5
4EC
330
CC
100
AcDbEntity
  8
Sketch2
100
AcDbLine
 10
-148.1128406524658
 20
692.450942993164
 30
0.5
 11
-148.1711524294444
 21
692.6609016295141
 31
0.5
  0
LINE
  5
4ED
330
CC
100
AcDbEntity
  8
Sketch2
100
AcDbLine
 10
-150.982437133789
 20
689.5285034179687
 30
0.5
 11
-150.7652115787935
 21
689.5114900546308
 31
0.5
  0
LINE
  5
4EE
330
CC
100
AcDbEntity
  8
Sketch2
100
AcDbLine
 10
-174.9175636470032
 20
603.1166638426868
 30
0.5
 11
-174.9985885620117
 21
603.2301712036132
 31
0.5
  0
LINE
  5
4EF
330
CC
100
AcDbEntity
  8
Sketch2
100
AcDbLine
 10
-175.5280601629192
 20
600.7521814543353
 30
0.5
 11
-175.4022216796875
 21
600.8122634887695
 31
0.5
  0
LINE
  5
4F0
330
CC
100
AcDbEntity
  8
Sketch2
100
AcDbLine
 10
-153.0366802215576
 20
692.406005859375
 30
0.5
 11
-153.0536888165762
 21
692.1887993776567
 31
0.5
  0
LINE
  5
4F1
330
CC
100
AcDbEntity
  8
Sketch2
100
AcDbLine
 10
-152.9121303558349
 20
691.117935180664
 30
0.5
 11
-152.8182469167203
 21
690.9213278384133
 31
0.5
  0
LINE
  5
4F2
330
CC
100
AcDbEntity
  8
Sketch2
100
AcDbLine
 10
-152.3156946055242
 20
690.2173631233788
 30
0.5
 11
-152.1602249145508
 21
690.0646972656249
 31
0.5
  0
LINE
  5
4F3
330
CC
100
AcDbEntity
  8
Sketch2
100
AcDbLine
 10
-153.0706977844238
 20
691.9715881347656
 30
0.5
 11
-153.0497267160493
 21
691.7547249720385
 31
0.5
  0
LINE
  5
4F4
330
CC
100
AcDbEntity
  8
Sketch2
100
AcDbLine
 10
-153.0497267160493
 20
691.7547249720385
 30
0.5
 11
-153.0287551879883
 21
691.537857055664
 31
0.5
  0
LINE
  5
4F5
330
CC
100
AcDbEntity
  8
Sketch2
100
AcDbLine
 10
-152.9704434110096
 20
691.327898419314
 30
0.5
 11
-152.9121303558349
 21
691.117935180664
 31
0.5
  0
LINE
  5
4F6
330
CC
100
AcDbEntity
  8
Sketch2
100
AcDbLine
 10
-150.1142311096191
 20
689.5364379882813
 30
0.5
 11
-149.9042915465464
 21
689.5947640702178
 31
0.5
  0
LINE
  5
4F7
330
CC
100
AcDbEntity
  8
Sketch2
100
AcDbLine
 10
-149.6943473815918
 20
689.653091430664
 30
0.5
 11
-149.4977209660637
 21
689.7469701014593
 31
0.5
  0
LINE
  5
4F8
330
CC
100
AcDbEntity
  8
Sketch2
100
AcDbLine
 10
-175.78826074181
 20
600.6547924425679
 30
0.5
 11
-175.6538963317871
 21
600.6921005249023
 31
0.5
  0
LINE
  5
4F9
330
CC
100
AcDbEntity
  8
Sketch2
100
AcDbLine
 10
-174.6790596391355
 20
602.6171290438688
 30
0.5
 11
-174.7163772583007
 21
602.7515029907227
 31
0.5
  0
LINE
  5
4FA
330
CC
100
AcDbEntity
  8
Sketch2
100
AcDbLine
 10
-175.1976013183593
 20
603.4255599975586
 30
0.5
 11
-175.312556163341
 21
603.5045044315023
 31
0.5
  0
LINE
  5
4FB
330
CC
100
AcDbEntity
  8
Sketch2
100
AcDbLine
 10
-152.9822057475765
 20
692.616999077575
 30
0.5
 11
-153.0366802215576
 21
692.406005859375
 31
0.5
  0
LINE
  5
4FC
330
CC
100
AcDbEntity
  8
Sketch2
100
AcDbLine
 10
-175.6813430786133
 20
603.6989974975585
 30
0.5
 11
-175.8163630466945
 21
603.7338635099406
 31
0.5
  0
LINE
  5
4FD
330
CC
100
AcDbEntity
  8
Sketch2
100
AcDbLine
 10
-175.8163630466945
 20
603.7338635099406
 30
0.5
 11
-175.9513854980468
 21
603.7687301635742
 31
0.5
  0
LINE
  5
4FE
330
CC
100
AcDbEntity
  8
Sketch2
100
AcDbLine
 10
-175.288725942992
 20
600.8932869136048
 30
0.5
 11
-175.1752281188965
 21
600.9743118286133
 31
0.5
  0
LINE
  5
4FF
330
CC
100
AcDbEntity
  8
Sketch2
100
AcDbLine
 10
-175.9513854980468
 20
603.7687301635742
 30
0.5
 11
-176.0904013247681
 21
603.7796210241158
 31
0.5
  0
LINE
  5
500
330
CC
100
AcDbEntity
  8
Sketch2
100
AcDbLine
 10
-176.0904013247681
 20
603.7796210241158
 30
0.5
 11
-176.2294197082519
 21
603.7905120849609
 31
0.5
  0
LINE
  5
501
330
CC
100
AcDbEntity
  8
Sketch2
100
AcDbLine
 10
-174.6715262757382
 20
601.792086313296
 30
0.5
 11
-174.6366691589355
 21
601.9271087646484
 31
0.5
  0
LINE
  5
502
330
CC
100
AcDbEntity
  8
Sketch2
100
AcDbLine
 10
-149.9042915465464
 20
689.5947640702178
 30
0.5
 11
-149.6943473815918
 21
689.653091430664
 31
0.5
  0
LINE
  5
503
330
CC
100
AcDbEntity
  8
Sketch2
100
AcDbLine
 10
-174.6148872375488
 20
602.2051620483398
 30
0.5
 11
-174.6283148484443
 21
602.3439585319854
 31
0.5
  0
LINE
  5
504
330
CC
100
AcDbEntity
  8
Sketch2
100
AcDbLine
 10
-174.9798202514648
 20
601.1733245849609
 30
0.5
 11
-174.9008853541765
 21
601.2882794299425
 31
0.5
  0
LINE
  5
505
330
CC
100
AcDbEntity
  8
Sketch2
100
AcDbLine
 10
-174.6283148484443
 20
602.3439585319854
 30
0.5
 11
-174.6417427062988
 21
602.4827575683594
 31
0.5
  0
LINE
  5
506
330
CC
100
AcDbEntity
  8
Sketch2
100
AcDbLine
 10
-176.2294197082519
 20
603.7905120849609
 30
0.5
 11
-176.3682257285529
 21
603.7770844740655
 31
0.5
  0
LINE
  5
507
330
CC
100
AcDbEntity
  8
Sketch2
100
AcDbLine
 10
-153.0287551879883
 20
691.537857055664
 30
0.5
 11
-152.9704434110096
 21
691.327898419314
 31
0.5
  0
LINE
  5
508
330
CC
100
AcDbEntity
  8
Sketch2
100
AcDbLine
 10
-151.8009853363037
 20
689.8180389404297
 30
0.5
 11
-151.6026804723746
 21
689.7277460457639
 31
0.5
  0
LINE
  5
509
330
CC
100
AcDbEntity
  8
Sketch2
100
AcDbLine
 10
-174.9008853541765
 20
601.2882794299425
 30
0.5
 11
-174.8219490051269
 21
601.4032363891601
 31
0.5
  0
LINE
  5
50A
330
CC
100
AcDbEntity
  8
Sketch2
100
AcDbLine
 10
-151.6026804723746
 20
689.7277460457639
 30
0.5
 11
-151.4043712615967
 21
689.6374511718749
 31
0.5
  0
LINE
  5
50B
330
CC
100
AcDbEntity
  8
Sketch2
100
AcDbLine
 10
-174.7063827514648
 20
601.6570663452148
 30
0.5
 11
-174.6715262757382
 21
601.792086313296
 31
0.5
  0
LINE
  5
50C
330
CC
100
AcDbEntity
  8
Sketch2
100
AcDbLine
 10
-175.312556163341
 20
603.5045044315023
 30
0.5
 11
-175.4275131225586
 21
603.5834503173828
 31
0.5
  0
LINE
  5
50D
330
CC
100
AcDbEntity
  8
Sketch2
100
AcDbLine
 10
-153.0536888165762
 20
692.1887993776567
 30
0.5
 11
-153.0706977844238
 21
691.9715881347656
 31
0.5
  0
LINE
  5
50E
330
CC
100
AcDbEntity
  8
Sketch2
100
AcDbLine
 10
-150.547981262207
 20
689.4944763183594
 30
0.5
 11
-150.3311085628413
 21
689.5154569233725
 31
0.5
  0
LINE
  5
50F
330
CC
100
AcDbEntity
  8
Sketch2
100
AcDbLine
 10
-175.4275131225586
 20
603.5834503173828
 30
0.5
 11
-175.5544269334941
 21
603.641223376193
 31
0.5
  0
LINE
  5
510
330
CC
100
AcDbEntity
  8
Sketch2
100
AcDbLine
 10
-152.5977625417005
 20
690.5473728543301
 30
0.5
 11
-152.4711608886718
 21
690.3700256347656
 31
0.5
  0
LINE
  5
511
330
CC
100
AcDbEntity
  8
Sketch2
100
AcDbLine
 10
-151.1934065098698
 20
689.5829778919498
 30
0.5
 11
-150.982437133789
 21
689.5285034179687
 31
0.5
  0
LINE
  5
512
330
CC
100
AcDbEntity
  8
Sketch2
100
AcDbLine
 10
-150.7652115787935
 20
689.5114900546308
 30
0.5
 11
-150.547981262207
 21
689.4944763183594
 31
0.5
  0
LINE
  5
513
330
CC
100
AcDbEntity
  8
Sketch2
100
AcDbLine
 10
-174.6366691589355
 20
601.9271087646484
 30
0.5
 11
-174.6257782983939
 21
602.0661341280251
 31
0.5
  0
LINE
  5
514
330
CC
100
AcDbEntity
  8
Sketch2
100
AcDbLine
 10
-175.0775250836519
 20
601.0738172917408
 30
0.5
 11
-174.9798202514648
 21
601.1733245849609
 31
0.5
  0
LINE
  5
515
330
CC
100
AcDbEntity
  8
Sketch2
100
AcDbLine
 10
-174.6257782983939
 20
602.0661341280251
 30
0.5
 11
-174.6148872375488
 21
602.2051620483398
 31
0.5
  0
LINE
  5
516
330
CC
100
AcDbEntity
  8
Sketch2
100
AcDbLine
 10
-152.8182469167203
 20
690.9213278384133
 30
0.5
 11
-152.7243614196777
 21
690.7247161865234
 31
0.5
  0
LINE
  5
517
330
CC
100
AcDbEntity
  8
Sketch2
100
AcDbLine
 10
-174.7163772583007
 20
602.7515029907227
 30
0.5
 11
-174.7764581877337
 21
602.8773296229351
 31
0.5
  0
LINE
  5
518
330
CC
100
AcDbEntity
  8
Sketch2
100
AcDbLine
 10
-176.061421717038
 20
600.6040571885321
 30
0.5
 11
-175.922622680664
 21
600.6174850463867
 31
0.5
  0
LINE
  5
519
330
CC
100
AcDbEntity
  8
Sketch2
100
AcDbLine
 10
-174.8365402221679
 20
603.0031585693359
 30
0.5
 11
-174.9175636470032
 21
603.1166638426868
 31
0.5
  0
LINE
  5
51A
330
CC
100
AcDbEntity
  8
Sketch2
100
AcDbLine
 10
-152.7243614196777
 20
690.7247161865234
 30
0.5
 11
-152.5977625417005
 21
690.5473728543301
 31
0.5
  0
LINE
  5
51B
330
CC
100
AcDbEntity
  8
Sketch2
100
AcDbLine
 10
-175.922622680664
 20
600.6174850463867
 30
0.5
 11
-175.78826074181
 21
600.6547924425679
 31
0.5
  0
LINE
  5
51C
330
CC
100
AcDbEntity
  8
Sketch2
100
AcDbLine
 10
-175.1752281188965
 20
600.9743118286133
 30
0.5
 11
-175.0775250836519
 21
601.0738172917408
 31
0.5
  0
LINE
  5
51D
330
CC
100
AcDbEntity
  8
Sketch2
100
AcDbLine
 10
-152.8374566674578
 20
693.026277807981
 30
0.5
 11
-152.9277324676513
 21
692.8279876708984
 31
0.5
  0
LINE
  5
51E
330
CC
100
AcDbEntity
  8
Sketch2
100
AcDbLine
 10
-152.1602249145508
 20
690.0646972656249
 30
0.5
 11
-151.9806070940413
 21
689.9413694547019
 31
0.5
  0
LINE
  5
51F
330
CC
100
AcDbEntity
  8
Sketch2
100
AcDbLine
 10
-151.9806070940413
 20
689.9413694547019
 30
0.5
 11
-151.8009853363037
 21
689.8180389404297
 31
0.5
  0
LINE
  5
520
330
CC
100
AcDbEntity
  8
Sketch2
100
AcDbLine
 10
-175.6538963317871
 20
600.6921005249023
 30
0.5
 11
-175.5280601629192
 21
600.7521814543353
 31
0.5
  0
LINE
  5
521
330
CC
100
AcDbEntity
  8
Sketch2
100
AcDbLine
 10
-174.7641664096612
 20
601.5301502000956
 30
0.5
 11
-174.7063827514648
 21
601.6570663452148
 31
0.5
  0
LINE
  5
522
330
CC
100
AcDbEntity
  8
Sketch2
100
AcDbLine
 10
-174.7764581877337
 20
602.8773296229351
 30
0.5
 11
-174.8365402221679
 21
603.0031585693359
 31
0.5
  0
LINE
  5
523
330
CC
100
AcDbEntity
  8
Sketch2
100
AcDbLine
 10
-174.6417427062988
 20
602.4827575683594
 30
0.5
 11
-174.6790596391355
 21
602.6171290438688
 31
0.5
  0
LINE
  5
524
330
CC
100
AcDbEntity
  8
Sketch2
100
AcDbLine
 10
-175.0980940251392
 20
603.3278647022022
 30
0.5
 11
-175.1976013183593
 21
603.4255599975586
 31
0.5
  0
LINE
  5
525
330
CC
100
AcDbEntity
  8
Sketch2
100
AcDbLine
 10
-175.4022216796875
 20
600.8122634887695
 30
0.5
 11
-175.288725942992
 21
600.8932869136048
 31
0.5
  0
LINE
  5
526
330
CC
100
AcDbEntity
  8
Sketch2
100
AcDbLine
 10
-174.9985885620117
 20
603.2301712036132
 30
0.5
 11
-175.0980940251392
 21
603.3278647022022
 31
0.5
  0
LINE
  5
527
330
CC
100
AcDbEntity
  8
Sketch2
100
AcDbLine
 10
-152.9277324676513
 20
692.8279876708984
 30
0.5
 11
-152.9822057475765
 21
692.616999077575
 31
0.5
  0
LINE
  5
528
330
CC
100
AcDbEntity
  8
Sketch2
100
AcDbLine
 10
-150.3311085628413
 20
689.5154569233725
 30
0.5
 11
-150.1142311096191
 21
689.5364379882813
 31
0.5
  0
LINE
  5
529
330
CC
100
AcDbEntity
  8
Sketch2
100
AcDbLine
 10
-152.4711608886718
 20
690.3700256347656
 30
0.5
 11
-152.3156946055242
 21
690.2173631233788
 31
0.5
  0
LINE
  5
52A
330
CC
100
AcDbEntity
  8
Sketch2
100
AcDbLine
 10
-175.5544269334941
 20
603.641223376193
 30
0.5
 11
-175.6813430786133
 21
603.6989974975585
 31
0.5
  0
LINE
  5
52B
330
CC
100
AcDbEntity
  8
Sketch2
100
AcDbLine
 10
-151.4043712615967
 20
689.6374511718749
 30
0.5
 11
-151.1934065098698
 21
689.5829778919498
 31
0.5
  0
LINE
  5
52C
330
CC
100
AcDbEntity
  8
Sketch2
100
AcDbLine
 10
-174.8219490051269
 20
601.4032363891601
 30
0.5
 11
-174.7641664096612
 21
601.5301502000956
 31
0.5
  0
LINE
  5
52D
330
CC
100
AcDbEntity
  8
Sketch2
100
AcDbLine
 10
-176.6413962406119
 20
603.7263301467187
 30
0.5
 11
-176.7757606506347
 21
603.6890029907226
 31
0.5
  0
LINE
  5
52E
330
CC
100
AcDbEntity
  8
Sketch2
100
AcDbLine
 10
-176.5070343017578
 20
603.7636566162109
 30
0.5
 11
-176.6413962406119
 21
603.7263301467187
 31
0.5
  0
ENDSEC
  0
SECTION
  2
OBJECTS
  0
DICTIONARY
  5
C
330
0
100
AcDbDictionary
281
     1
  3
ACAD_BACKGROUND
350
5B
  3
ACAD_COLOR
350
BE
  3
ACAD_DETAILVIEWSTYLE
350
C6
  3
ACAD_GROUP
350
D
  3
ACAD_LAYOUT
350
BD
  3
ACAD_MATERIAL
350
10
  3
ACAD_MLEADERSTYLE
350
C1
  3
ACAD_MLINESTYLE
350
BA
  3
ACAD_PLOTSETTINGS
350
BC
  3
ACAD_PLOTSTYLENAME
350
E
  3
ACAD_SCALELIST
350
9D
  3
ACAD_SCENESTYLE
350
52
  3
ACAD_SECTIONVIEWSTYLE
350
C3
  3
ACAD_TABLESTYLE
350
BF
  3
ACAD_VISUALSTYLE
350
29
  3
ACDB_RECOMPOSE_DATA
350
539
  3
AcDbVariableDictionary
350
52F
  0
DICTIONARY
  5
535
330
B2
100
AcDbDictionary
280
     1
281
     1
  3
ACAD_XREC_ROUNDTRIP
360
536
  0
DICTIONARY
  5
5B
102
{ACAD_REACTORS
330
C
102
}
330
C
100
AcDbDictionary
281
     1
  3
5C
350
5C
  3
64
350
64
  3
69
350
69
  3
71
350
71
  3
76
350
76
  3
7B
350
7B
  3
80
350
80
  3
85
350
85
  3
8A
350
8A
  3
8F
350
8F
  3
94
350
94
  3
99
350
99
  0
DICTIONARY
  5
BE
102
{ACAD_REACTORS
330
C
102
}
330
C
100
AcDbDictionary
281
     1
  0
DICTIONARY
  5
C6
102
{ACAD_REACTORS
330
C
102
}
330
C
100
AcDbDictionary
281
     1
  3
Imperial24
350
C7
  0
DICTIONARY
  5
D
102
{ACAD_REACTORS
330
C
102
}
330
C
100
AcDbDictionary
281
     1
  0
DICTIONARY
  5
BD
102
{ACAD_REACTORS
330
C
102
}
330
C
100
AcDbDictionary
281
     1
  3
Layout1
350
CB
  3
Layout2
350
D3
  3
Model
350
CF
  0
DICTIONARY
  5
10
102
{ACAD_REACTORS
330
C
102
}
330
C
100
AcDbDictionary
281
     1
  3
ByBlock
350
19
  3
ByLayer
350
11
  3
Global
350
21
  0
DICTIONARY
  5
C1
102
{ACAD_REACTORS
330
C
102
}
330
C
100
AcDbDictionary
281
     1
  3
Standard
350
C2
  0
DICTIONARY
  5
BA
102
{ACAD_REACTORS
330
C
102
}
330
C
100
AcDbDictionary
281
     1
  3
Standard
350
BB
  0
DICTIONARY
  5
BC
102
{ACAD_REACTORS
330
C
102
}
330
C
100
AcDbDictionary
281
     1
  0
ACDBDICTIONARYWDFLT
  5
E
102
{ACAD_REACTORS
330
C
102
}
330
C
100
AcDbDictionary
281
     1
  3
Normal
350
F
100
AcDbDictionaryWithDefault
340
F
  0
DICTIONARY
  5
9D
102
{ACAD_REACTORS
330
C
102
}
330
C
100
AcDbDictionary
281
     1
  3
A0
350
9E
  3
A1
350
9F
  3
A2
350
A0
  3
A3
350
A1
  3
A4
350
A2
  3
A5
350
A3
  3
A6
350
A4
  3
A7
350
A5
  3
A8
350
A6
  3
A9
350
A7
  3
B0
350
A8
  3
B1
350
A9
  3
B2
350
AA
  3
B3
350
AB
  3
B4
350
AC
  3
B5
350
AD
  3
B6
350
AE
  0
DICTIONARY
  5
52
102
{ACAD_REACTORS
330
C
102
}
330
C
100
AcDbDictionary
281
     1
  3
Architectural Design
350
6D
  3
Blueprint
350
7A
  3
Comic Book
350
93
  3
Crayon
350
8E
  3
Drafting
350
53
  3
Evening
350
60
  3
Graphic Novel
350
89
  3
Grayscale
350
75
  3
IBL
350
68
  3
Mechanical Design
350
7F
  3
Mechanical Presentation
350
84
  3
Modeling
350
55
  3
Pop Art
350
98
  3
Sunny Day
350
57
  0
DICTIONARY
  5
C3
102
{ACAD_REACTORS
330
C
102
}
330
C
100
AcDbDictionary
281
     1
  3
Imperial24
350
C5
  0
DICTIONARY
  5
BF
102
{ACAD_REACTORS
330
C
102
}
330
C
100
AcDbDictionary
281
     1
  3
Standard
350
C0
  0
DICTIONARY
  5
29
102
{ACAD_REACTORS
330
C
102
}
330
C
100
AcDbDictionary
281
     1
  3
2dWireframe
350
32
  3
Basic
350
31
  3
Black and White
350
50
  3
Bloom
350
46
  3
Blue Tint
350
48
  3
Blurred
350
45
  3
Brighten
350
38
  3
ByBlock
350
2C
  3
ByLayer
350
2B
  3
ByViewport
350
2A
  3
ColorChange
350
3C
  3
Conceptual
350
35
  3
Crayon Edges
350
4F
  3
Cross Hatch
350
4A
  3
Desaturate
350
51
  3
Dim
350
37
  3
EdgeColorOff
350
44
  3
Facepattern
350
3B
  3
Flat
350
2D
  3
FlatWithEdges
350
2E
  3
Gouraud
350
2F
  3
GouraudWithEdges
350
30
  3
Half Tone
350
4B
  3
Hidden
350
34
  3
High Contrast
350
47
  3
JitterOff
350
42
  3
Linepattern
350
3A
  3
Marker Edges
350
4E
  3
OverhangOff
350
43
  3
Pastel
350
49
  3
Pencil Edges
350
4D
  3
Posterize
350
4C
  3
Realistic
350
36
  3
Shaded
350
41
  3
Shaded with edges
350
40
  3
Shades of Gray
350
3D
  3
Sketchy
350
3E
  3
Thicken
350
39
  3
Wireframe
350
33
  3
X-Ray
350
3F
  0
XRECORD
  5
539
102
{ACAD_REACTORS
330
C
102
}
330
C
100
AcDbXrecord
280
     1
 90
        1
330
29
330
B2
330
C0
  0
DICTIONARY
  5
52F
102
{ACAD_REACTORS
330
C
102
}
330
C
100
AcDbDictionary
281
     1
  3
CANNOSCALE
350
534
  3
CMLEADERSTYLE
350
531
  3
CTABLESTYLE
350
530
  3
CVIEWDETAILSTYLE
350
532
  3
CVIEWSECTIONSTYLE
350
533
  0
XRECORD
  5
536
102
{ACAD_REACTORS
330
535
102
}
330
535
100
AcDbXrecord
280
     1
102
SCENESTYLE
340
53
  0
SKYLIGHT_BACKGROUND
  5
5C
102
{ACAD_REACTORS
330
5B
102
}
330
5B
100
AcDbSkyBackground
340
58
  0
SKYLIGHT_BACKGROUND
  5
64
102
{ACAD_REACTORS
330
5B
102
}
330
5B
100
AcDbSkyBackground
340
61
  0
IBL_BACKGROUND
  5
69
102
{ACAD_REACTORS
330
5B
102
}
330
5B
100
AcDbImageBasedLightingBackground
300
Country Road
170
   100
171
     0
290
     1
  0
SKYLIGHT_BACKGROUND
  5
71
102
{ACAD_REACTORS
330
5B
102
}
330
5B
100
AcDbSkyBackground
340
6E
  0
SOLID_BACKGROUND
  5
76
102
{ACAD_REACTORS
330
5B
102
}
330
5B
100
AcDbSolidBackground
 90
-1023410177
  0
SOLID_BACKGROUND
  5
7B
102
{ACAD_REACTORS
330
5B
102
}
330
5B
100
AcDbSolidBackground
 90
-1040180888
  0
GRADIENT_BACKGROUND
  5
80
102
{ACAD_REACTORS
330
5B
102
}
330
5B
100
AcDbGradientBackground
 90
-1026765620
 91
-1031765888
 92
-1036831949
140
0.5
141
33.33
142
0.0
  0
GRADIENT_BACKGROUND
  5
85
102
{ACAD_REACTORS
330
5B
102
}
330
5B
100
AcDbGradientBackground
 90
-1026765620
 91
-1031765888
 92
-1036831949
140
0.5
141
33.33
142
0.0
  0
SOLID_BACKGROUND
  5
8A
102
{ACAD_REACTORS
330
5B
102
}
330
5B
100
AcDbSolidBackground
 90
-1023410177
  0
SOLID_BACKGROUND
  5
8F
102
{ACAD_REACTORS
330
5B
102
}
330
5B
100
AcDbSolidBackground
 90
-1023410177
  0
SOLID_BACKGROUND
  5
94
102
{ACAD_REACTORS
330
5B
102
}
330
5B
100
AcDbSolidBackground
 90
-1024397072
  0
SOLID_BACKGROUND
  5
99
102
{ACAD_REACTORS
330
5B
102
}
330
5B
100
AcDbSolidBackground
 90
-1024397072
  0
ACDBDETAILVIEWSTYLE
  5
C7
102
{ACAD_REACTORS
330
C6
102
}
330
C6
100
AcDbModelDocViewStyle
 70
     0
  3
Imperial24
290
     1
100
AcDbDetailViewStyle
 70
     0
 71
     0
 90
        3
 71
     1
340
B0
 62
   256
 40
0.24
340
0
 62
   256
 40
0.24
300

 40
0.36
280
     3
 71
     2
340
B8
 90
       25
 62
   256
 71
     3
340
B0
 62
   256
 40
0.24
 90
        1
 40
0.75
 90
        1
300
%<\AcVar ViewType \f "%tc1">% %<\AcVar ViewDetailId>%\PSCALE %<\AcVar ViewScale \f "%sn">%
 71
     4
340
B8
 90
       25
 62
   256
340
B8
 90
       25
 62
   256
280
     0
  0
LAYOUT
  5
CB
102
{ACAD_REACTORS
330
BD
102
}
330
BD
100
AcDbPlotSettings
  1

  2

  4

  6

 40
0.0
 41
0.0
 42
0.0
 43
0.0
 44
0.0
 45
0.0
 46
0.0
 47
0.0
 48
0.0
 49
0.0
140
0.0
141
0.0
142
1.0
143
1.0
 70
   688
 72
     0
 73
     0
 74
     5
  7

 75
    16
147
1.0
 76
     0
 77
     2
 78
   300
148
0.0
149
0.0
100
AcDbLayout
  1
Layout1
 70
     1
 71
     1
 10
0.0
 20
0.0
 11
12.0
 21
9.0
 12
0.0
 22
0.0
 32
0.0
 14
0.0
 24
0.0
 34
0.0
 15
0.0
 25
0.0
 35
0.0
146
0.0
 13
0.0
 23
0.0
 33
0.0
 16
1.0
 26
0.0
 36
0.0
 17
0.0
 27
1.0
 37
0.0
 76
     0
330
C8
  0
LAYOUT
  5
D3
102
{ACAD_REACTORS
330
BD
102
}
330
BD
100
AcDbPlotSettings
  1

  2

  4

  6

 40
0.0
 41
0.0
 42
0.0
 43
0.0
 44
0.0
 45
0.0
 46
0.0
 47
0.0
 48
0.0
 49
0.0
140
0.0
141
0.0
142
1.0
143
1.0
 70
   688
 72
     0
 73
     0
 74
     5
  7

 75
    16
147
1.0
 76
     0
 77
     2
 78
   300
148
0.0
149
0.0
100
AcDbLayout
  1
Layout2
 70
     1
 71
     2
 10
0.0
 20
0.0
 11
12.0
 21
9.0
 12
0.0
 22
0.0
 32
0.0
 14
0.0
 24
0.0
 34
0.0
 15
0.0
 25
0.0
 35
0.0
146
0.0
 13
0.0
 23
0.0
 33
0.0
 16
1.0
 26
0.0
 36
0.0
 17
0.0
 27
1.0
 37
0.0
 76
     0
330
D0
  0
LAYOUT
  5
CF
102
{ACAD_REACTORS
330
BD
102
}
330
BD
100
AcDbPlotSettings
  1

  2

  4

  6

 40
0.0
 41
0.0
 42
0.0
 43
0.0
 44
0.0
 45
0.0
 46
0.0
 47
0.0
 48
0.0
 49
0.0
140
0.0
141
0.0
142
1.0
143
1.0
 70
  1712
 72
     0
 73
     0
 74
     0
  7

 75
     0
147
1.0
 76
     0
 77
     2
 78
   300
148
0.0
149
0.0
100
AcDbLayout
  1
Model
 70
     1
 71
     0
 10
0.0
 20
0.0
 11
12.0
 21
9.0
 12
0.0
 22
0.0
 32
0.0
 14
0.0
 24
0.0
 34
0.0
 15
0.0
 25
0.0
 35
0.0
146
0.0
 13
0.0
 23
0.0
 33
0.0
 16
1.0
 26
0.0
 36
0.0
 17
0.0
 27
1.0
 37
0.0
 76
     0
330
CC
  0
MATERIAL
  5
19
102
{ACAD_XDICTIONARY
360
1A
102
}
102
{ACAD_REACTORS
330
10
102
}
330
10
100
AcDbMaterial
  1
ByBlock
 72
     0
 43
0.0208333333333333
 43
0.0
 43
0.0
 43
0.0
 43
0.0
 43
0.0208333333333333
 43
0.0
 43
0.0
 43
0.0
 43
0.0
 43
1.0
 43
0.0
 43
0.0
 43
0.0
 43
0.0
 43
1.0
 77
     0
 47
0.0208333333333333
 47
0.0
 47
0.0
 47
0.0
 47
0.0
 47
0.0208333333333333
 47
0.0
 47
0.0
 47
0.0
 47
0.0
 47
1.0
 47
0.0
 47
0.0
 47
0.0
 47
0.0
 47
1.0
171
     0
 49
0.0208333333333333
 49
0.0
 49
0.0
 49
0.0
 49
0.0
 49
0.0208333333333333
 49
0.0
 49
0.0
 49
0.0
 49
0.0
 49
1.0
 49
0.0
 49
0.0
 49
0.0
 49
0.0
 49
1.0
175
     0
142
0.0208333333333333
142
0.0
142
0.0
142
0.0
142
0.0
142
0.0208333333333333
142
0.0
142
0.0
142
0.0
142
0.0
142
1.0
142
0.0
142
0.0
142
0.0
142
0.0
142
1.0
179
     0
144
0.0208333333333333
144
0.0
144
0.0
144
0.0
144
0.0
144
0.0208333333333333
144
0.0
144
0.0
144
0.0
144
0.0
144
1.0
144
0.0
144
0.0
144
0.0
144
0.0
144
1.0
147
0.0208333333333333
147
0.0
147
0.0
147
0.0
147
0.0
147
0.0208333333333333
147
0.0
147
0.0
147
0.0
147
0.0
147
1.0
147
0.0
147
0.0
147
0.0
147
0.0
147
1.0
  0
MATERIAL
  5
11
102
{ACAD_XDICTIONARY
360
12
102
}
102
{ACAD_REACTORS
330
10
102
}
330
10
100
AcDbMaterial
  1
ByLayer
 72
     0
 43
0.0208333333333333
 43
0.0
 43
0.0
 43
0.0
 43
0.0
 43
0.0208333333333333
 43
0.0
 43
0.0
 43
0.0
 43
0.0
 43
1.0
 43
0.0
 43
0.0
 43
0.0
 43
0.0
 43
1.0
 77
     0
 47
0.0208333333333333
 47
0.0
 47
0.0
 47
0.0
 47
0.0
 47
0.0208333333333333
 47
0.0
 47
0.0
 47
0.0
 47
0.0
 47
1.0
 47
0.0
 47
0.0
 47
0.0
 47
0.0
 47
1.0
171
     0
 49
0.0208333333333333
 49
0.0
 49
0.0
 49
0.0
 49
0.0
 49
0.0208333333333333
 49
0.0
 49
0.0
 49
0.0
 49
0.0
 49
1.0
 49
0.0
 49
0.0
 49
0.0
 49
0.0
 49
1.0
175
     0
142
0.0208333333333333
142
0.0
142
0.0
142
0.0
142
0.0
142
0.0208333333333333
142
0.0
142
0.0
142
0.0
142
0.0
142
1.0
142
0.0
142
0.0
142
0.0
142
0.0
142
1.0
179
     0
144
0.0208333333333333
144
0.0
144
0.0
144
0.0
144
0.0
144
0.0208333333333333
144
0.0
144
0.0
144
0.0
144
0.0
144
1.0
144
0.0
144
0.0
144
0.0
144
0.0
144
1.0
147
0.0208333333333333
147
0.0
147
0.0
147
0.0
147
0.0
147
0.0208333333333333
147
0.0
147
0.0
147
0.0
147
0.0
147
1.0
147
0.0
147
0.0
147
0.0
147
0.0
147
1.0
  0
MATERIAL
  5
21
102
{ACAD_XDICTIONARY
360
22
102
}
102
{ACAD_REACTORS
330
10
102
}
330
10
100
AcDbMaterial
  1
Global
 72
     0
 43
0.0208333333333333
 43
0.0
 43
0.0
 43
0.0
 43
0.0
 43
0.0208333333333333
 43
0.0
 43
0.0
 43
0.0
 43
0.0
 43
1.0
 43
0.0
 43
0.0
 43
0.0
 43
0.0
 43
1.0
 77
     0
 47
0.0208333333333333
 47
0.0
 47
0.0
 47
0.0
 47
0.0
 47
0.0208333333333333
 47
0.0
 47
0.0
 47
0.0
 47
0.0
 47
1.0
 47
0.0
 47
0.0
 47
0.0
 47
0.0
 47
1.0
171
     0
 49
0.0208333333333333
 49
0.0
 49
0.0
 49
0.0
 49
0.0
 49
0.0208333333333333
 49
0.0
 49
0.0
 49
0.0
 49
0.0
 49
1.0
 49
0.0
 49
0.0
 49
0.0
 49
0.0
 49
1.0
175
     0
142
0.0208333333333333
142
0.0
142
0.0
142
0.0
142
0.0
142
0.0208333333333333
142
0.0
142
0.0
142
0.0
142
0.0
142
1.0
142
0.0
142
0.0
142
0.0
142
0.0
142
1.0
179
     0
144
0.0208333333333333
144
0.0
144
0.0
144
0.0
144
0.0
144
0.0208333333333333
144
0.0
144
0.0
144
0.0
144
0.0
144
1.0
144
0.0
144
0.0
144
0.0
144
0.0
144
1.0
147
0.0208333333333333
147
0.0
147
0.0
147
0.0
147
0.0
147
0.0208333333333333
147
0.0
147
0.0
147
0.0
147
0.0
147
1.0
147
0.0
147
0.0
147
0.0
147
0.0
147
1.0
  0
MLEADERSTYLE
  5
C2
102
{ACAD_REACTORS
330
C1
102
}
330
C1
100
AcDbMLeaderStyle
179
     2
170
     2
171
     1
172
     0
 90
        2
 40
0.0
 41
0.0
173
     1
 91
-1056964608
340
B6
 92
       -2
290
     1
 42
0.09
291
     1
 43
0.36
  3
Standard
 44
0.18
300

342
B0
174
     1
178
     6
175
     1
176
     0
 93
-1056964608
 45
0.18
292
     0
297
     0
 46
0.18
 94
-1056964608
 47
1.0
 49
1.0
140
1.0
293
     1
141
0.0
294
     1
177
     0
142
1.0
295
     1
296
     0
143
0.125
271
     0
272
     9
273
     9
298
     1
  0
MLINESTYLE
  5
BB
102
{ACAD_REACTORS
330
BA
102
}
330
BA
100
AcDbMlineStyle
  2
STANDARD
 70
     0
  3

 62
   256
 51
90.0
 52
90.0
 71
     2
 49
0.5
 62
   256
  6
BYLAYER
 49
-0.5
 62
   256
  6
BYLAYER
  0
ACDBPLACEHOLDER
  5
F
102
{ACAD_REACTORS
330
E
102
}
330
E
  0
SCALE
  5
9E
102
{ACAD_REACTORS
330
9D
102
}
330
9D
100
AcDbScale
 70
     0
300
1:1
140
1.0
141
1.0
290
     1
  0
SCALE
  5
9F
102
{ACAD_REACTORS
330
9D
102
}
330
9D
100
AcDbScale
 70
     0
300
1/128" = 1'-0"
140
0.0078125
141
12.0
290
     0
  0
SCALE
  5
A0
102
{ACAD_REACTORS
330
9D
102
}
330
9D
100
AcDbScale
 70
     0
300
1/64" = 1'-0"
140
0.015625
141
12.0
290
     0
  0
SCALE
  5
A1
102
{ACAD_REACTORS
330
9D
102
}
330
9D
100
AcDbScale
 70
     0
300
1/32" = 1'-0"
140
0.03125
141
12.0
290
     0
  0
SCALE
  5
A2
102
{ACAD_REACTORS
330
9D
102
}
330
9D
100
AcDbScale
 70
     0
300
1/16" = 1'-0"
140
0.0625
141
12.0
290
     0
  0
SCALE
  5
A3
102
{ACAD_REACTORS
330
9D
102
}
330
9D
100
AcDbScale
 70
     0
300
3/32" = 1'-0"
140
0.09375
141
12.0
290
     0
  0
SCALE
  5
A4
102
{ACAD_REACTORS
330
9D
102
}
330
9D
100
AcDbScale
 70
     0
300
1/8" = 1'-0"
140
0.125
141
12.0
290
     0
  0
SCALE
  5
A5
102
{ACAD_REACTORS
330
9D
102
}
330
9D
100
AcDbScale
 70
     0
300
3/16" = 1'-0"
140
0.1875
141
12.0
290
     0
  0
SCALE
  5
A6
102
{ACAD_REACTORS
330
9D
102
}
330
9D
100
AcDbScale
 70
     0
300
1/4" = 1'-0"
140
0.25
141
12.0
290
     0
  0
SCALE
  5
A7
102
{ACAD_REACTORS
330
9D
102
}
330
9D
100
AcDbScale
 70
     0
300
3/8" = 1'-0"
140
0.375
141
12.0
290
     0
  0
SCALE
  5
A8
102
{ACAD_REACTORS
330
9D
102
}
330
9D
100
AcDbScale
 70
     0
300
1/2" = 1'-0"
140
0.5
141
12.0
290
     0
  0
SCALE
  5
A9
102
{ACAD_REACTORS
330
9D
102
}
330
9D
100
AcDbScale
 70
     0
300
3/4" = 1'-0"
140
0.75
141
12.0
290
     0
  0
SCALE
  5
AA
102
{ACAD_REACTORS
330
9D
102
}
330
9D
100
AcDbScale
 70
     0
300
1" = 1'-0"
140
1.0
141
12.0
290
     0
  0
SCALE
  5
AB
102
{ACAD_REACTORS
330
9D
102
}
330
9D
100
AcDbScale
 70
     0
300
1-1/2" = 1'-0"
140
1.5
141
12.0
290
     0
  0
SCALE
  5
AC
102
{ACAD_REACTORS
330
9D
102
}
330
9D
100
AcDbScale
 70
     0
300
3" = 1'-0"
140
3.0
141
12.0
290
     0
  0
SCALE
  5
AD
102
{ACAD_REACTORS
330
9D
102
}
330
9D
100
AcDbScale
 70
     0
300
6" = 1'-0"
140
6.0
141
12.0
290
     0
  0
SCALE
  5
AE
102
{ACAD_REACTORS
330
9D
102
}
330
9D
100
AcDbScale
 70
     0
300
1'-0" = 1'-0"
140
12.0
141
12.0
290
     0
  0
SCENESTYLE
  5
6D
102
{ACAD_XDICTIONARY
360
72
102
}
102
{ACAD_REACTORS
330
52
102
}
330
52
100
AcDbSceneStyle
280
     0
  3
Architectural Design
 70
    11
340
71
 71
     0
290
     0
360
6E
361
74
343
3E
 72
     2
291
     0
 73
     2
292
     1
 40
9.0
 41
0.05
 42
0.8
 43
0.2
 44
7000.0
 45
1.0
170
     0
 62
   256
 62
   256
 62
   256
293
     1
 90
 33554521
 91
 33554521
 92
 33554636
  0
SCENESTYLE
  5
7A
102
{ACAD_XDICTIONARY
360
7C
102
}
102
{ACAD_REACTORS
330
52
102
}
330
52
100
AcDbSceneStyle
280
     0
  3
Blueprint
 70
     5
340
7B
 71
     0
290
     0
360
0
361
7E
343
48
 72
     0
291
     0
 73
     0
292
     1
 40
4.0
 41
0.25
 42
1.0
 43
0.2
 44
6500.0
 45
1.0
170
     0
 62
   256
 62
   256
 62
   256
293
     1
 90
 33554521
 91
 33554521
 92
 33554636
  0
SCENESTYLE
  5
93
102
{ACAD_XDICTIONARY
360
95
102
}
102
{ACAD_REACTORS
330
52
102
}
330
52
100
AcDbSceneStyle
280
     0
  3
Comic Book
 70
     5
340
94
 71
     0
290
     0
360
0
361
97
343
4C
 72
     0
291
     0
 73
     2
292
     1
 40
4.0
 41
0.25
 42
1.0
 43
0.2
 44
6500.0
 45
1.0
170
     0
 62
   256
 62
   256
 62
   256
293
     1
 90
 33554521
 91
 33554521
 92
 33554636
  0
SCENESTYLE
  5
8E
102
{ACAD_XDICTIONARY
360
90
102
}
102
{ACAD_REACTORS
330
52
102
}
330
52
100
AcDbSceneStyle
280
     0
  3
Crayon
 70
     5
340
8F
 71
     0
290
     0
360
0
361
92
343
4F
 72
     0
291
     0
 73
     2
292
     1
 40
4.0
 41
0.25
 42
1.0
 43
0.2
 44
6500.0
 45
1.0
170
     0
 62
   256
 62
   256
 62
   256
293
     1
 90
 33554521
 91
 33554521
 92
 33554636
  0
SCENESTYLE
  5
53
102
{ACAD_REACTORS
330
52
102
}
330
52
100
AcDbSceneStyle
280
     0
  3
Drafting
 70
     0
340
0
 71
     0
290
     0
360
0
361
54
343
32
 72
     0
291
     0
 73
     2
292
     1
 40
4.0
 41
0.25
 42
1.0
 43
0.2
 44
6500.0
 45
1.0
170
     0
 62
   256
 62
   256
 62
   256
293
     1
 90
 33554521
 91
 33554521
 92
 33554636
  0
SCENESTYLE
  5
60
102
{ACAD_XDICTIONARY
360
65
102
}
102
{ACAD_REACTORS
330
52
102
}
330
52
100
AcDbSceneStyle
280
     0
  3
Evening
 70
    11
340
64
 71
     0
290
     0
360
61
361
67
343
36
 72
     2
291
     1
 73
     4
292
     1
 40
9.0
 41
0.05
 42
0.8
 43
0.2
 44
7000.0
 45
1.0
170
     0
 62
   256
 62
   256
 62
   256
293
     1
 90
 33554521
 91
 33554521
 92
 33554636
  0
SCENESTYLE
  5
89
102
{ACAD_XDICTIONARY
360
8B
102
}
102
{ACAD_REACTORS
330
52
102
}
330
52
100
AcDbSceneStyle
280
     0
  3
Graphic Novel
 70
     5
340
8A
 71
     0
290
     0
360
0
361
8D
343
50
 72
     0
291
     0
 73
     2
292
     1
 40
4.0
 41
0.25
 42
1.0
 43
0.2
 44
6500.0
 45
1.0
170
     0
 62
   256
 62
   256
 62
   256
293
     1
 90
 33554521
 91
 33554521
 92
 33554636
  0
SCENESTYLE
  5
75
102
{ACAD_XDICTIONARY
360
77
102
}
102
{ACAD_REACTORS
330
52
102
}
330
52
100
AcDbSceneStyle
280
     0
  3
Grayscale
 70
     5
340
76
 71
     0
290
     0
360
0
361
79
343
3D
 72
     0
291
     0
 73
     0
292
     1
 40
4.0
 41
0.25
 42
1.0
 43
0.2
 44
6500.0
 45
1.0
170
     0
 62
   256
 62
   256
 62
   256
293
     1
 90
 33554521
 91
 33554521
 92
 33554636
  0
SCENESTYLE
  5
68
102
{ACAD_XDICTIONARY
360
6A
102
}
102
{ACAD_REACTORS
330
52
102
}
330
52
100
AcDbSceneStyle
280
     0
  3
IBL
 70
    12
340
69
 71
     0
290
     0
360
0
361
6C
343
36
 72
     2
291
     1
 73
     2
292
     1
 40
4.0
 41
0.25
 42
1.0
 43
0.2
 44
6500.0
 45
1.0
170
     0
 62
   256
 62
   256
 62
   256
293
     1
 90
 33554521
 91
 33554521
 92
 33554636
  0
SCENESTYLE
  5
7F
102
{ACAD_XDICTIONARY
360
81
102
}
102
{ACAD_REACTORS
330
52
102
}
330
52
100
AcDbSceneStyle
280
     0
  3
Mechanical Design
 70
     6
340
80
 71
     0
290
     0
360
0
361
83
343
40
 72
     1
291
     1
 73
     2
292
     1
 40
4.0
 41
0.25
 42
1.0
 43
0.2
 44
6500.0
 45
1.0
170
     0
 62
   256
 62
   256
 62
   256
293
     1
 90
 33554521
 91
 33554521
 92
 33554636
  0
SCENESTYLE
  5
84
102
{ACAD_XDICTIONARY
360
86
102
}
102
{ACAD_REACTORS
330
52
102
}
330
52
100
AcDbSceneStyle
280
     0
  3
Mechanical Presentation
 70
     6
340
85
 71
     0
290
     0
360
0
361
88
343
36
 72
     0
291
     1
 73
     2
292
     1
 40
4.0
 41
0.25
 42
1.0
 43
0.2
 44
6500.0
 45
1.0
170
     0
 62
   256
 62
   256
 62
   256
293
     1
 90
 33554521
 91
 33554521
 92
 33554636
  0
SCENESTYLE
  5
55
102
{ACAD_REACTORS
330
52
102
}
330
52
100
AcDbSceneStyle
280
     0
  3
Modeling
 70
     0
340
0
 71
     0
290
     0
360
0
361
56
343
36
 72
     0
291
     0
 73
     2
292
     1
 40
4.0
 41
0.25
 42
1.0
 43
0.2
 44
6500.0
 45
1.0
170
     0
 62
   256
 62
   256
 62
   256
293
     1
 90
 33554521
 91
 33554521
 92
 33554636
  0
SCENESTYLE
  5
98
102
{ACAD_XDICTIONARY
360
9A
102
}
102
{ACAD_REACTORS
330
52
102
}
330
52
100
AcDbSceneStyle
280
     0
  3
Pop Art
 70
     5
340
99
 71
     0
290
     0
360
0
361
9C
343
4B
 72
     0
291
     0
 73
     2
292
     1
 40
4.0
 41
0.25
 42
1.0
 43
0.2
 44
6500.0
 45
1.0
170
     0
 62
   256
 62
   256
 62
   256
293
     1
 90
 33554521
 91
 33554521
 92
 33554636
  0
SCENESTYLE
  5
57
102
{ACAD_XDICTIONARY
360
5D
102
}
102
{ACAD_REACTORS
330
52
102
}
330
52
100
AcDbSceneStyle
280
     0
  3
Sunny Day
 70
    11
340
5C
 71
     0
290
     0
360
58
361
5F
343
36
 72
     2
291
     1
 73
     2
292
     1
 40
9.0
 41
0.05
 42
0.8
 43
0.2
 44
7000.0
 45
1.0
170
     0
 62
   256
 62
   256
 62
   256
293
     1
 90
 33554521
 91
 33554521
 92
 33554636
  0
ACDBSECTIONVIEWSTYLE
  5
C5
102
{ACAD_REACTORS
330
C3
102
}
330
C3
100
AcDbModelDocViewStyle
 70
     0
  3
Imperial24
290
     1
100
AcDbSectionViewStyle
 70
     0
 71
     0
 90
       78
 71
     1
340
B0
 62
   256
 40
0.24
340
0
340
0
 62
   256
 40
0.24
300
I, O, Q, S, X, Z
 40
0.48
 90
        3
 40
0.18
 90
        1
 71
     2
340
C4
 90
       25
 62
   256
340
B8
 90
       50
 62
   256
 40
0.24
 40
0.0
 40
0.24
 71
     3
340
B0
 62
   256
 40
0.24
 90
        1
 40
0.75
 90
        1
300
%<\AcVar ViewType \f "%tc1">% %<\AcVar ViewSectionStartId>%-%<\AcVar ViewSectionEndId>%\PSCALE %<\AcVar ViewScale \f "%sn">%
 71
     4
 62
   256
 62
   257
300
ANSI31
 40
1.0
 90
        0
290
     0
290
     0
 90
        6
 40
0.0
 40
1.570796326794896
 40
0.2617993877991494
 40
1.308996938995747
 40
-0.2617993877991494
 40
1.832595714594046
  0
TABLESTYLE
  5
C0
102
{ACAD_XDICTIONARY
360
537
102
}
102
{ACAD_REACTORS
330
BF
102
}
330
BF
100
AcDbTableStyle
280
     0
  3
Standard
 70
     0
 71
     0
 40
0.06
 41
0.06
280
     0
281
     0
  7
Standard
140
0.18
170
     2
 62
     0
 63
     7
283
     0
 90
      512
 91
        0
  1

274
    -2
284
     1
 64
     0
275
    -2
285
     1
 65
     0
276
    -2
286
     1
 66
     0
277
    -2
287
     1
 67
     0
278
    -2
288
     1
 68
     0
279
    -2
289
     1
 69
     0
  7
Standard
140
0.25
170
     5
 62
     0
 63
     7
283
     0
 90
      512
 91
        0
  1

274
    -2
284
     1
 64
     0
275
    -2
285
     1
 65
     0
276
    -2
286
     1
 66
     0
277
    -2
287
     1
 67
     0
278
    -2
288
     1
 68
     0
279
    -2
289
     1
 69
     0
  7
Standard
140
0.18
170
     5
 62
     0
 63
     7
283
     0
 90
      512
 91
        0
  1

274
    -2
284
     1
 64
     0
275
    -2
285
     1
 65
     0
276
    -2
286
     1
 66
     0
277
    -2
287
     1
 67
     0
278
    -2
288
     1
 68
     0
279
    -2
289
     1
 69
     0
  0
VISUALSTYLE
  5
32
102
{ACAD_REACTORS
330
29
102
}
330
29
100
AcDbVisualStyle
  2
2dWireframe
 70
     4
177
     3
291
     0
 70
    58
 90
        0
176
     1
 90
        3
176
     1
 90
        0
176
     1
 90
        2
176
     1
 40
0.6
176
     1
 40
30.0
176
     1
 62
     7
420
 16777215
176
     1
 90
        2
176
     1
 90
        4
176
     1
 62
     7
176
     1
 62
   257
176
     1
 90
        1
176
     1
 90
        1
176
     1
 40
1.0
176
     1
 90
        0
176
     1
 62
   257
176
     1
 40
0.3
176
     1
 90
        1
176
     1
 90
        6
176
     1
 90
        2
176
     1
 62
     7
176
     1
 90
        2
176
     1
 90
        0
176
     1
 90
        0
176
     1
290
     0
176
     1
 90
        1
176
     1
 40
0.0
176
     1
 90
        0
176
     1
290
     1
176
     1
290
     1
176
     1
290
     0
176
     1
290
     0
176
     1
290
     0
176
     1
290
     0
176
     1
290
     0
176
     1
290
     0
176
     1
290
     0
176
     1
 90
       50
176
     1
 40
0.0
176
     1
 40
1.0
176
     1
 90
        0
176
     1
 62
    18
420
        0
176
     1
 90
       50
176
     1
 90
        3
176
     1
 62
     5
420
      255
176
     1
290
     0
176
     1
 90
       50
176
     1
 90
       50
176
     1
 90
       50
176
     1
290
     0
176
     1
 90
       50
176
     1
 62
   256
176
     0
 40
1.0
176
     0
 90
        2
176
     1
  1
pencil.tif
176
     1
290
     0
176
     1
 40
1.0
176
     1
 40
1.0
176
     1
  0
VISUALSTYLE
  5
31
102
{ACAD_REACTORS
330
29
102
}
330
29
100
AcDbVisualStyle
  2
Basic
 70
     7
177
     3
291
     1
 70
    58
 90
        1
176
     1
 90
        0
176
     1
 90
        1
176
     1
 90
        0
176
     1
 40
0.6
176
     1
 40
30.0
176
     1
 62
     7
420
 16777215
176
     1
 90
        0
176
     1
 90
        4
176
     1
 62
     7
176
     1
 62
   257
176
     1
 90
        1
176
     1
 90
        1
176
     1
 40
1.0
176
     1
 90
        8
176
     1
 62
   257
176
     1
 40
0.3
176
     1
 90
        1
176
     1
 90
        6
176
     1
 90
        2
176
     1
 62
     7
176
     1
 90
        5
176
     1
 90
        0
176
     1
 90
        0
176
     1
290
     0
176
     1
 90
        1
176
     1
 40
0.0
176
     1
 90
        0
176
     1
290
     0
176
     1
290
     1
176
     1
290
     1
176
     1
290
     0
176
     1
290
     0
176
     1
290
     0
176
     1
290
     0
176
     1
290
     0
176
     1
290
     0
176
     1
 90
       50
176
     1
 40
0.0
176
     1
 40
1.0
176
     1
 90
        0
176
     1
 62
    18
420
        0
176
     1
 90
       50
176
     1
 90
        3
176
     1
 62
     5
420
      255
176
     1
290
     0
176
     1
 90
       50
176
     1
 90
       50
176
     1
 90
       50
176
     1
290
     0
176
     1
 90
       50
176
     1
 62
   256
176
     0
 40
1.0
176
     0
 90
        2
176
     1
  1
pencil.tif
176
     1
290
     0
176
     1
 40
1.0
176
     1
 40
1.0
176
     1
  0
VISUALSTYLE
  5
50
102
{ACAD_REACTORS
330
29
102
}
330
29
100
AcDbVisualStyle
  2
Black and White
 70
    43
177
     3
291
     0
 70
    58
 90
        2
176
     1
 90
        3
176
     1
 90
        3
176
     1
 90
        2
176
     1
 40
0.6
176
     1
 40
30.0
176
     1
 62
     7
420
 16777215
176
     1
 90
        2
176
     1
 90
        2
176
     1
 62
     7
176
     1
 62
     7
176
     1
 90
        1
176
     1
 90
        1
176
     1
 40
40.0
176
     1
 90
        8
176
     1
 62
    18
420
        0
176
     1
 40
0.3
176
     1
 90
        1
176
     1
 90
        6
176
     1
 90
        2
176
     1
 62
     7
176
     1
 90
        2
176
     1
 90
        0
176
     1
 90
        0
176
     1
290
     0
176
     1
 90
        1
176
     1
 40
0.0
176
     1
 90
        0
176
     1
290
     0
176
     1
290
     1
176
     1
290
     1
176
     1
290
     1
176
     1
290
     1
176
     1
290
     0
176
     1
290
     0
176
     1
290
     0
176
     1
290
     0
176
     1
 90
       50
176
     1
 40
0.0
176
     1
 40
1.0
176
     1
 90
        0
176
     1
 62
    18
420
        0
176
     1
 90
       50
176
     1
 90
        3
176
     1
 62
     5
420
      255
176
     1
290
     1
176
     1
 90
       97
176
     1
 90
       50
176
     1
 90
       10
176
     1
290
     0
176
     1
 90
       50
176
     1
 62
   256
176
     0
 40
1.0
176
     0
 90
        2
176
     1
  1
pencil.tif
176
     1
290
     0
176
     1
 40
1.0
176
     1
 40
1.0
176
     1
  0
VISUALSTYLE
  5
46
102
{ACAD_REACTORS
330
29
102
}
330
29
100
AcDbVisualStyle
  2
Bloom
 70
    34
177
     3
291
     0
 70
    58
 90
        2
176
     1
 90
        3
176
     1
 90
        0
176
     1
 90
        2
176
     1
 40
0.6
176
     1
 40
30.0
176
     1
 62
     7
420
 16777215
176
     1
 90
        2
176
     1
 90
        2
176
     1
 62
     7
176
     1
 62
   257
176
     1
 90
        1
176
     1
 90
        1
176
     1
 40
40.0
176
     1
 90
      136
176
     1
 62
   257
176
     1
 40
0.3
176
     1
 90
        1
176
     1
 90
        6
176
     1
 90
        2
176
     1
 62
     7
176
     1
 90
        2
176
     1
 90
        0
176
     1
 90
        0
176
     1
290
     0
176
     1
 90
       13
176
     1
 40
0.0
176
     1
 90
        0
176
     1
290
     0
176
     1
290
     1
176
     1
290
     1
176
     1
290
     0
176
     1
290
     0
176
     1
290
     0
176
     1
290
     0
176
     1
290
     1
176
     1
290
     0
176
     1
 90
       50
176
     1
 40
0.0
176
     1
 40
1.0
176
     1
 90
        0
176
     1
 62
    18
420
        0
176
     1
 90
       50
176
     1
 90
        3
176
     1
 62
     5
420
      255
176
     1
290
     0
176
     1
 90
       50
176
     1
 90
       50
176
     1
 90
       50
176
     1
290
     0
176
     1
 90
       50
176
     1
 62
   256
176
     0
 40
1.0
176
     0
 90
        2
176
     1
  1
pencil.tif
176
     1
290
     0
176
     1
 40
1.0
176
     1
 40
1.0
176
     1
  0
VISUALSTYLE
  5
48
102
{ACAD_REACTORS
330
29
102
}
330
29
100
AcDbVisualStyle
  2
Blue Tint
 70
    35
177
     3
291
     0
 70
    58
 90
        1
176
     1
 90
        3
176
     1
 90
        2
176
     1
 90
        0
176
     1
 40
0.6
176
     1
 40
30.0
176
     1
 62
     7
420
 16777215
176
     1
 90
        2
176
     1
 90
        2
176
     1
 62
     7
176
     1
 62
     7
176
     1
 90
        1
176
     1
 90
        1
176
     1
 40
40.0
176
     1
 90
        9
176
     1
 62
     7
176
     1
 40
0.3
176
     1
 90
        1
176
     1
 90
        2
176
     1
 90
        2
176
     1
 62
     7
176
     1
 90
        3
176
     1
 90
        0
176
     1
 90
        0
176
     1
290
     0
176
     1
 90
        1
176
     1
 40
0.0
176
     1
 90
        0
176
     1
290
     0
176
     1
290
     1
176
     1
290
     1
176
     1
290
     0
176
     1
290
     0
176
     1
290
     0
176
     1
290
     1
176
     1
290
     0
176
     1
290
     0
176
     1
 90
       50
176
     1
 40
0.0
176
     1
 40
1.0
176
     1
 90
        0
176
     1
 62
     7
420
 15132415
176
     1
 90
       50
176
     1
 90
        3
176
     1
 62
     7
420
 15132415
176
     1
290
     0
176
     1
 90
       50
176
     1
 90
       50
176
     1
 90
       50
176
     1
290
     1
176
     1
 90
       50
176
     1
 62
   256
176
     0
 40
1.0
176
     0
 90
        2
176
     1
  1
pencil.tif
176
     1
290
     0
176
     1
 40
1.0
176
     1
 40
1.0
176
     1
  0
VISUALSTYLE
  5
45
102
{ACAD_REACTORS
330
29
102
}
330
29
100
AcDbVisualStyle
  2
Blurred
 70
    32
177
     3
291
     0
 70
    58
 90
        2
176
     1
 90
        3
176
     1
 90
        0
176
     1
 90
        2
176
     1
 40
0.6
176
     1
 40
30.0
176
     1
 62
     7
420
 16777215
176
     1
 90
        2
176
     1
 90
        2
176
     1
 62
     7
176
     1
 62
   257
176
     1
 90
        1
176
     1
 90
        1
176
     1
 40
40.0
176
     1
 90
        8
176
     1
 62
   257
176
     1
 40
0.3
176
     1
 90
        1
176
     1
 90
        6
176
     1
 90
        2
176
     1
 62
     7
176
     1
 90
        2
176
     1
 90
        0
176
     1
 90
        0
176
     1
290
     0
176
     1
 90
       13
176
     1
 40
0.0
176
     1
 90
        0
176
     1
290
     0
176
     1
290
     1
176
     1
290
     1
176
     1
290
     0
176
     1
290
     0
176
     1
290
     1
176
     1
290
     0
176
     1
290
     0
176
     1
290
     0
176
     1
 90
       50
176
     1
 40
0.0
176
     1
 40
1.0
176
     1
 90
        0
176
     1
 62
    18
420
        0
176
     1
 90
       50
176
     1
 90
        3
176
     1
 62
     5
420
      255
176
     1
290
     0
176
     1
 90
       50
176
     1
 90
       50
176
     1
 90
       50
176
     1
290
     0
176
     1
 90
       50
176
     1
 62
   256
176
     0
 40
1.0
176
     0
 90
        2
176
     1
  1
pencil.tif
176
     1
290
     0
176
     1
 40
1.0
176
     1
 40
1.0
176
     1
  0
VISUALSTYLE
  5
38
102
{ACAD_REACTORS
330
29
102
}
330
29
100
AcDbVisualStyle
  2
Brighten
 70
    12
177
     3
291
     1
 70
    58
 90
        2
176
     1
 90
        3
176
     1
 90
        0
176
     1
 90
        0
176
     1
 40
0.6
176
     1
 40
30.0
176
     1
 62
     7
420
 16777215
176
     1
 90
        0
176
     1
 90
        4
176
     1
 62
     7
176
     1
 62
   257
176
     1
 90
        1
176
     1
 90
        1
176
     1
 40
1.0
176
     1
 90
        8
176
     1
 62
   257
176
     1
 40
0.3
176
     1
 90
        1
176
     1
 90
        6
176
     1
 90
        2
176
     1
 62
     7
176
     1
 90
        5
176
     1
 90
        0
176
     1
 90
        0
176
     1
290
     0
176
     1
 90
        1
176
     1
 40
50.0
176
     1
 90
        0
176
     1
290
     0
176
     1
290
     1
176
     1
290
     1
176
     1
290
     0
176
     1
290
     0
176
     1
290
     0
176
     1
290
     0
176
     1
290
     0
176
     1
290
     0
176
     1
 90
       50
176
     1
 40
0.0
176
     1
 40
1.0
176
     1
 90
        0
176
     1
 62
    18
420
        0
176
     1
 90
       50
176
     1
 90
        3
176
     1
 62
     5
420
      255
176
     1
290
     0
176
     1
 90
       50
176
     1
 90
       50
176
     1
 90
       50
176
     1
290
     0
176
     1
 90
       50
176
     1
 62
   256
176
     0
 40
1.0
176
     0
 90
        2
176
     1
  1
pencil.tif
176
     1
290
     0
176
     1
 40
1.0
176
     1
 40
1.0
176
     1
  0
VISUALSTYLE
  5
2C
102
{ACAD_REACTORS
330
29
102
}
330
29
100
AcDbVisualStyle
  2
ByBlock
 70
    30
177
     3
291
     0
 70
    58
 90
        2
176
     1
 90
        3
176
     1
 90
        0
176
     1
 90
        2
176
     1
 40
0.6
176
     1
 40
30.0
176
     1
 62
     7
420
 16777215
176
     1
 90
        0
176
     1
 90
        0
176
     1
 62
     7
176
     1
 62
   257
176
     1
 90
        1
176
     1
 90
        1
176
     1
 40
40.0
176
     1
 90
        8
176
     1
 62
   257
176
     1
 40
0.3
176
     1
 90
        1
176
     1
 90
        6
176
     1
 90
        2
176
     1
 62
     7
176
     1
 90
        2
176
     1
 90
        0
176
     1
 90
        0
176
     1
290
     0
176
     1
 90
       13
176
     1
 40
0.0
176
     1
 90
        0
176
     1
290
     0
176
     1
290
     1
176
     1
290
     1
176
     1
290
     0
176
     1
290
     0
176
     1
290
     0
176
     1
290
     0
176
     1
290
     0
176
     1
290
     0
176
     1
 90
       50
176
     1
 40
0.0
176
     1
 40
1.0
176
     1
 90
        0
176
     1
 62
    18
420
        0
176
     1
 90
       50
176
     1
 90
        3
176
     1
 62
     5
420
      255
176
     1
290
     0
176
     1
 90
       50
176
     1
 90
       50
176
     1
 90
       50
176
     1
290
     0
176
     1
 90
       50
176
     1
 62
   256
176
     0
 40
1.0
176
     0
 90
        2
176
     1
  1
pencil.tif
176
     1
290
     0
176
     1
 40
1.0
176
     1
 40
1.0
176
     1
  0
VISUALSTYLE
  5
2B
102
{ACAD_REACTORS
330
29
102
}
330
29
100
AcDbVisualStyle
  2
ByLayer
 70
    29
177
     3
291
     0
 70
    58
 90
        2
176
     1
 90
        3
176
     1
 90
        0
176
     1
 90
        2
176
     1
 40
0.6
176
     1
 40
30.0
176
     1
 62
     7
420
 16777215
176
     1
 90
        0
176
     1
 90
        0
176
     1
 62
     7
176
     1
 62
   257
176
     1
 90
        1
176
     1
 90
        1
176
     1
 40
40.0
176
     1
 90
        8
176
     1
 62
   257
176
     1
 40
0.3
176
     1
 90
        1
176
     1
 90
        6
176
     1
 90
        2
176
     1
 62
     7
176
     1
 90
        2
176
     1
 90
        0
176
     1
 90
        0
176
     1
290
     0
176
     1
 90
       13
176
     1
 40
0.0
176
     1
 90
        0
176
     1
290
     0
176
     1
290
     1
176
     1
290
     1
176
     1
290
     0
176
     1
290
     0
176
     1
290
     0
176
     1
290
     0
176
     1
290
     0
176
     1
290
     0
176
     1
 90
       50
176
     1
 40
0.0
176
     1
 40
1.0
176
     1
 90
        0
176
     1
 62
    18
420
        0
176
     1
 90
       50
176
     1
 90
        3
176
     1
 62
     5
420
      255
176
     1
290
     0
176
     1
 90
       50
176
     1
 90
       50
176
     1
 90
       50
176
     1
290
     0
176
     1
 90
       50
176
     1
 62
   256
176
     0
 40
1.0
176
     0
 90
        2
176
     1
  1
pencil.tif
176
     1
290
     0
176
     1
 40
1.0
176
     1
 40
1.0
176
     1
  0
VISUALSTYLE
  5
2A
102
{ACAD_REACTORS
330
29
102
}
330
29
100
AcDbVisualStyle
  2
ByViewport
 70
    28
177
     3
291
     0
 70
    58
 90
        2
176
     1
 90
        3
176
     1
 90
        0
176
     1
 90
        2
176
     1
 40
0.6
176
     1
 40
30.0
176
     1
 62
     7
420
 16777215
176
     1
 90
        0
176
     1
 90
        0
176
     1
 62
     7
176
     1
 62
   257
176
     1
 90
        1
176
     1
 90
        1
176
     1
 40
40.0
176
     1
 90
        8
176
     1
 62
   257
176
     1
 40
0.3
176
     1
 90
        1
176
     1
 90
        6
176
     1
 90
        2
176
     1
 62
     7
176
     1
 90
        2
176
     1
 90
        0
176
     1
 90
        0
176
     1
290
     0
176
     1
 90
       13
176
     1
 40
0.0
176
     1
 90
        0
176
     1
290
     0
176
     1
290
     1
176
     1
290
     1
176
     1
290
     0
176
     1
290
     0
176
     1
290
     0
176
     1
290
     0
176
     1
290
     0
176
     1
290
     0
176
     1
 90
       50
176
     1
 40
0.0
176
     1
 40
1.0
176
     1
 90
        0
176
     1
 62
    18
420
        0
176
     1
 90
       50
176
     1
 90
        3
176
     1
 62
     5
420
      255
176
     1
290
     0
176
     1
 90
       50
176
     1
 90
       50
176
     1
 90
       50
176
     1
290
     0
176
     1
 90
       50
176
     1
 62
   256
176
     0
 40
1.0
176
     0
 90
        2
176
     1
  1
pencil.tif
176
     1
290
     0
176
     1
 40
1.0
176
     1
 40
1.0
176
     1
  0
VISUALSTYLE
  5
3C
102
{ACAD_REACTORS
330
29
102
}
330
29
100
AcDbVisualStyle
  2
ColorChange
 70
    16
177
     3
291
     1
 70
    58
 90
        2
176
     1
 90
        3
176
     1
 90
        3
176
     1
 90
        0
176
     1
 40
0.6
176
     1
 40
30.0
176
     1
 62
     8
420
  8421504
176
     1
 90
        0
176
     1
 90
        4
176
     1
 62
     7
176
     1
 62
   257
176
     1
 90
        1
176
     1
 90
        1
176
     1
 40
1.0
176
     1
 90
        8
176
     1
 62
     8
420
  8421504
176
     1
 40
0.3
176
     1
 90
        1
176
     1
 90
        6
176
     1
 90
        2
176
     1
 62
     7
176
     1
 90
        5
176
     1
 90
        0
176
     1
 90
        0
176
     1
290
     0
176
     1
 90
        1
176
     1
 40
0.0
176
     1
 90
        0
176
     1
290
     0
176
     1
290
     1
176
     1
290
     1
176
     1
290
     0
176
     1
290
     0
176
     1
290
     0
176
     1
290
     0
176
     1
290
     0
176
     1
290
     0
176
     1
 90
       50
176
     1
 40
0.0
176
     1
 40
1.0
176
     1
 90
        0
176
     1
 62
    18
420
        0
176
     1
 90
       50
176
     1
 90
        3
176
     1
 62
     5
420
      255
176
     1
290
     0
176
     1
 90
       50
176
     1
 90
       50
176
     1
 90
       50
176
     1
290
     0
176
     1
 90
       50
176
     1
 62
   256
176
     0
 40
1.0
176
     0
 90
        2
176
     1
  1
pencil.tif
176
     1
290
     0
176
     1
 40
1.0
176
     1
 40
1.0
176
     1
  0
VISUALSTYLE
  5
35
102
{ACAD_REACTORS
330
29
102
}
330
29
100
AcDbVisualStyle
  2
Conceptual
 70
     9
177
     3
291
     0
 70
    58
 90
        3
176
     1
 90
        3
176
     1
 90
        0
176
     1
 90
        0
176
     1
 40
0.6
176
     1
 40
30.0
176
     1
 62
     7
420
 16777215
176
     1
 90
        2
176
     1
 90
        2
176
     1
 62
     7
176
     1
 62
   257
176
     1
 90
        1
176
     1
 90
        1
176
     1
 40
40.0
176
     1
 90
        8
176
     1
 62
    18
420
        0
176
     1
 40
0.3
176
     1
 90
        1
176
     1
 90
        6
176
     1
 90
        2
176
     1
 62
     7
176
     1
 90
        2
176
     1
 90
        0
176
     1
 90
        0
176
     1
290
     0
176
     1
 90
        1
176
     1
 40
0.0
176
     1
 90
        0
176
     1
290
     0
176
     1
290
     1
176
     1
290
     1
176
     1
290
     0
176
     1
290
     0
176
     1
290
     0
176
     1
290
     0
176
     1
290
     0
176
     1
290
     0
176
     1
 90
       50
176
     1
 40
0.0
176
     1
 40
1.0
176
     1
 90
        0
176
     1
 62
    18
420
        0
176
     1
 90
       50
176
     1
 90
        3
176
     1
 62
     5
420
      255
176
     1
290
     0
176
     1
 90
       50
176
     1
 90
       50
176
     1
 90
       50
176
     1
290
     0
176
     1
 90
       50
176
     1
 62
   256
176
     0
 40
1.0
176
     0
 90
        2
176
     1
  1
pencil.tif
176
     1
290
     0
176
     1
 40
1.0
176
     1
 40
1.0
176
     1
  0
VISUALSTYLE
  5
4F
102
{ACAD_REACTORS
330
29
102
}
330
29
100
AcDbVisualStyle
  2
Crayon Edges
 70
    42
177
     3
291
     0
 70
    58
 90
        1
176
     1
 90
        3
176
     1
 90
        2
176
     1
 90
        0
176
     1
 40
0.6
176
     1
 40
30.0
176
     1
 62
     7
420
 16777215
176
     1
 90
        2
176
     1
 90
        2
176
     1
 62
     7
176
     1
 62
   257
176
     1
 90
        1
176
     1
 90
        1
176
     1
 40
40.0
176
     1
 90
      520
176
     1
 62
    18
420
        0
176
     1
 40
0.3
176
     1
 90
        1
176
     1
 90
        6
176
     1
 90
        2
176
     1
 62
     7
176
     1
 90
        2
176
     1
 90
        0
176
     1
 90
        0
176
     1
290
     0
176
     1
 90
        1
176
     1
 40
0.0
176
     1
 90
        0
176
     1
290
     0
176
     1
290
     1
176
     1
290
     1
176
     1
290
     0
176
     1
290
     0
176
     1
290
     0
176
     1
290
     0
176
     1
290
     0
176
     1
290
     1
176
     1
 90
       50
176
     1
 40
0.0
176
     1
 40
1.0
176
     1
 90
        0
176
     1
 62
    18
420
        0
176
     1
 90
       50
176
     1
 90
        3
176
     1
 62
     5
420
      255
176
     1
290
     0
176
     1
 90
       50
176
     1
 90
       50
176
     1
 90
       50
176
     1
290
     0
176
     1
 90
       50
176
     1
 62
   256
176
     0
 40
1.0
176
     0
 90
        2
176
     1
  1
crayon.tif
176
     1
290
     0
176
     1
 40
1.0
176
     1
 40
1.0
176
     1
  0
VISUALSTYLE
  5
4A
102
{ACAD_REACTORS
330
29
102
}
330
29
100
AcDbVisualStyle
  2
Cross Hatch
 70
    37
177
     3
291
     0
 70
    58
 90
        2
176
     1
 90
        3
176
     1
 90
        1
176
     1
 90
        2
176
     1
 40
0.6
176
     1
 40
30.0
176
     1
 62
     7
420
 16777215
176
     1
 90
        2
176
     1
 90
        2
176
     1
 62
     7
176
     1
 62
   257
176
     1
 90
        1
176
     1
 90
        1
176
     1
 40
40.0
176
     1
 90
        8
176
     1
 62
   257
176
     1
 40
0.3
176
     1
 90
        1
176
     1
 90
        6
176
     1
 90
        2
176
     1
 62
     8
420
  7895160
176
     1
 90
        2
176
     1
 90
        0
176
     1
 90
        0
176
     1
290
     0
176
     1
 90
        5
176
     1
 40
0.0
176
     1
 90
        0
176
     1
290
     0
176
     1
290
     1
176
     1
290
     1
176
     1
290
     0
176
     1
290
     0
176
     1
290
     0
176
     1
290
     1
176
     1
290
     0
176
     1
290
     0
176
     1
 90
       50
176
     1
 40
0.0
176
     1
 40
1.0
176
     1
 90
        1
176
     1
 62
    18
420
        0
176
     1
 90
       50
176
     1
 90
        3
176
     1
 62
     5
420
      255
176
     1
290
     0
176
     1
 90
       50
176
     1
 90
       50
176
     1
 90
       50
176
     1
290
     0
176
     1
 90
       50
176
     1
 62
   256
176
     0
 40
1.0
176
     0
 90
        2
176
     1
  1
pencil.tif
176
     1
290
     0
176
     1
 40
1.0
176
     1
 40
1.0
176
     1
  0
VISUALSTYLE
  5
51
102
{ACAD_REACTORS
330
29
102
}
330
29
100
AcDbVisualStyle
  2
Desaturate
 70
    44
177
     3
291
     0
 70
    58
 90
        2
176
     1
 90
        3
176
     1
 90
        5
176
     1
 90
        2
176
     1
 40
0.6
176
     1
 40
30.0
176
     1
 62
     7
420
 16777215
176
     1
 90
        0
176
     1
 90
        0
176
     1
 62
     7
176
     1
 62
   257
176
     1
 90
        1
176
     1
 90
        1
176
     1
 40
40.0
176
     1
 90
        8
176
     1
 62
   257
176
     1
 40
0.3
176
     1
 90
        1
176
     1
 90
        6
176
     1
 90
        2
176
     1
 62
     7
176
     1
 90
        5
176
     1
 90
        0
176
     1
 90
        0
176
     1
290
     0
176
     1
 90
       13
176
     1
 40
0.0
176
     1
 90
        0
176
     1
290
     0
176
     1
290
     1
176
     1
290
     1
176
     1
290
     0
176
     1
290
     0
176
     1
290
     0
176
     1
290
     0
176
     1
290
     0
176
     1
290
     0
176
     1
 90
       50
176
     1
 40
0.0
176
     1
 40
1.0
176
     1
 90
        0
176
     1
 62
    18
420
        0
176
     1
 90
       50
176
     1
 90
        3
176
     1
 62
     5
420
      255
176
     1
290
     0
176
     1
 90
       50
176
     1
 90
       50
176
     1
 90
       50
176
     1
290
     0
176
     1
 90
       50
176
     1
 62
   256
176
     0
 40
1.0
176
     0
 90
        2
176
     1
  1
pencil.tif
176
     1
290
     0
176
     1
 40
1.0
176
     1
 40
1.0
176
     1
  0
VISUALSTYLE
  5
37
102
{ACAD_REACTORS
330
29
102
}
330
29
100
AcDbVisualStyle
  2
Dim
 70
    11
177
     3
291
     1
 70
    58
 90
        2
176
     1
 90
        3
176
     1
 90
        0
176
     1
 90
        0
176
     1
 40
0.6
176
     1
 40
30.0
176
     1
 62
     7
420
 16777215
176
     1
 90
        0
176
     1
 90
        4
176
     1
 62
     7
176
     1
 62
   257
176
     1
 90
        1
176
     1
 90
        1
176
     1
 40
1.0
176
     1
 90
        8
176
     1
 62
   257
176
     1
 40
0.3
176
     1
 90
        1
176
     1
 90
        6
176
     1
 90
        2
176
     1
 62
     7
176
     1
 90
        5
176
     1
 90
        0
176
     1
 90
        0
176
     1
290
     0
176
     1
 90
        1
176
     1
 40
-50.0
176
     1
 90
        0
176
     1
290
     0
176
     1
290
     1
176
     1
290
     1
176
     1
290
     0
176
     1
290
     0
176
     1
290
     0
176
     1
290
     0
176
     1
290
     0
176
     1
290
     0
176
     1
 90
       50
176
     1
 40
0.0
176
     1
 40
1.0
176
     1
 90
        0
176
     1
 62
    18
420
        0
176
     1
 90
       50
176
     1
 90
        3
176
     1
 62
     5
420
      255
176
     1
290
     0
176
     1
 90
       50
176
     1
 90
       50
176
     1
 90
       50
176
     1
290
     0
176
     1
 90
       50
176
     1
 62
   256
176
     0
 40
1.0
176
     0
 90
        2
176
     1
  1
pencil.tif
176
     1
290
     0
176
     1
 40
1.0
176
     1
 40
1.0
176
     1
  0
VISUALSTYLE
  5
44
102
{ACAD_REACTORS
330
29
102
}
330
29
100
AcDbVisualStyle
  2
EdgeColorOff
 70
    22
177
     3
291
     1
 70
    58
 90
        2
176
     0
 90
        3
176
     0
 90
        0
176
     0
 90
        0
176
     0
 40
0.6
176
     0
 40
30.0
176
     0
 62
     7
420
 16777215
176
     0
 90
        0
176
     0
 90
        4
176
     0
 62
     7
176
     0
 62
   257
176
     0
 90
        1
176
     0
 90
        1
176
     0
 40
1.0
176
     0
 90
        8
176
     2
 62
   257
176
     0
 40
0.3
176
     0
 90
        1
176
     0
 90
        6
176
     0
 90
        2
176
     0
 62
     7
176
     0
 90
        5
176
     0
 90
        0
176
     0
 90
        0
176
     0
290
     0
176
     0
 90
        1
176
     0
 40
0.0
176
     0
 90
        0
176
     0
290
     0
176
     0
290
     1
176
     0
290
     1
176
     0
290
     0
176
     0
290
     0
176
     0
290
     0
176
     0
290
     0
176
     0
290
     0
176
     0
290
     0
176
     0
 90
       50
176
     0
 40
0.0
176
     0
 40
1.0
176
     0
 90
        0
176
     0
 62
    18
420
        0
176
     0
 90
       50
176
     0
 90
        3
176
     0
 62
     5
420
      255
176
     0
290
     0
176
     0
 90
       50
176
     0
 90
       50
176
     0
 90
       50
176
     0
290
     0
176
     0
 90
       50
176
     0
 62
   256
176
     0
 40
1.0
176
     0
 90
        2
176
     0
  1
pencil.tif
176
     0
290
     0
176
     0
 40
1.0
176
     0
 40
1.0
176
     0
  0
VISUALSTYLE
  5
3B
102
{ACAD_REACTORS
330
29
102
}
330
29
100
AcDbVisualStyle
  2
Facepattern
 70
    15
177
     3
291
     1
 70
    58
 90
        2
176
     1
 90
        3
176
     1
 90
        0
176
     1
 90
        0
176
     1
 40
0.6
176
     1
 40
30.0
176
     1
 62
     7
420
 16777215
176
     1
 90
        0
176
     1
 90
        4
176
     1
 62
     7
176
     1
 62
   257
176
     1
 90
        1
176
     1
 90
        1
176
     1
 40
1.0
176
     1
 90
        8
176
     1
 62
   257
176
     1
 40
0.3
176
     1
 90
        1
176
     1
 90
        6
176
     1
 90
        2
176
     1
 62
     7
176
     1
 90
        5
176
     1
 90
        0
176
     1
 90
        0
176
     1
290
     0
176
     1
 90
        1
176
     1
 40
0.0
176
     1
 90
        0
176
     1
290
     0
176
     1
290
     1
176
     1
290
     1
176
     1
290
     0
176
     1
290
     0
176
     1
290
     0
176
     1
290
     0
176
     1
290
     0
176
     1
290
     0
176
     1
 90
       50
176
     1
 40
0.0
176
     1
 40
1.0
176
     1
 90
        0
176
     1
 62
    18
420
        0
176
     1
 90
       50
176
     1
 90
        3
176
     1
 62
     5
420
      255
176
     1
290
     0
176
     1
 90
       50
176
     1
 90
       50
176
     1
 90
       50
176
     1
290
     0
176
     1
 90
       50
176
     1
 62
   256
176
     0
 40
1.0
176
     0
 90
        2
176
     1
  1
pencil.tif
176
     1
290
     0
176
     1
 40
1.0
176
     1
 40
1.0
176
     1
  0
VISUALSTYLE
  5
2D
102
{ACAD_REACTORS
330
29
102
}
330
29
100
AcDbVisualStyle
  2
Flat
 70
     0
177
     3
291
     1
 70
    58
 90
        2
176
     1
 90
        1
176
     1
 90
        1
176
     1
 90
        2
176
     1
 40
0.6
176
     1
 40
30.0
176
     1
 62
     7
420
 16777215
176
     1
 90
        0
176
     1
 90
        0
176
     1
 62
     7
176
     1
 62
   257
176
     1
 90
        1
176
     1
 90
        1
176
     1
 40
1.0
176
     1
 90
        8
176
     1
 62
   257
176
     1
 40
0.3
176
     1
 90
        1
176
     1
 90
        6
176
     1
 90
        2
176
     1
 62
     7
176
     1
 90
        5
176
     1
 90
        0
176
     1
 90
        0
176
     1
290
     0
176
     1
 90
       13
176
     1
 40
0.0
176
     1
 90
        0
176
     1
290
     0
176
     1
290
     1
176
     1
290
     1
176
     1
290
     0
176
     1
290
     0
176
     1
290
     0
176
     1
290
     0
176
     1
290
     0
176
     1
290
     0
176
     1
 90
       50
176
     1
 40
0.0
176
     1
 40
1.0
176
     1
 90
        0
176
     1
 62
    18
420
        0
176
     1
 90
       50
176
     1
 90
        3
176
     1
 62
     5
420
      255
176
     1
290
     0
176
     1
 90
       50
176
     1
 90
       50
176
     1
 90
       50
176
     1
290
     0
176
     1
 90
       50
176
     1
 62
   256
176
     0
 40
1.0
176
     0
 90
        2
176
     1
  1
pencil.tif
176
     1
290
     0
176
     1
 40
1.0
176
     1
 40
1.0
176
     1
  0
VISUALSTYLE
  5
2E
102
{ACAD_REACTORS
330
29
102
}
330
29
100
AcDbVisualStyle
  2
FlatWithEdges
 70
     1
177
     3
291
     1
 70
    58
 90
        2
176
     1
 90
        1
176
     1
 90
        1
176
     1
 90
        2
176
     1
 40
0.6
176
     1
 40
30.0
176
     1
 62
     7
420
 16777215
176
     1
 90
        1
176
     1
 90
        0
176
     1
 62
     7
176
     1
 62
   257
176
     1
 90
        1
176
     1
 90
        1
176
     1
 40
1.0
176
     1
 90
        0
176
     1
 62
   257
176
     1
 40
0.3
176
     1
 90
        1
176
     1
 90
        6
176
     1
 90
        2
176
     1
 62
     7
176
     1
 90
        5
176
     1
 90
        0
176
     1
 90
        0
176
     1
290
     0
176
     1
 90
       13
176
     1
 40
0.0
176
     1
 90
        0
176
     1
290
     0
176
     1
290
     1
176
     1
290
     1
176
     1
290
     0
176
     1
290
     0
176
     1
290
     0
176
     1
290
     0
176
     1
290
     0
176
     1
290
     0
176
     1
 90
       50
176
     1
 40
0.0
176
     1
 40
1.0
176
     1
 90
        0
176
     1
 62
    18
420
        0
176
     1
 90
       50
176
     1
 90
        3
176
     1
 62
     5
420
      255
176
     1
290
     0
176
     1
 90
       50
176
     1
 90
       50
176
     1
 90
       50
176
     1
290
     0
176
     1
 90
       50
176
     1
 62
   256
176
     0
 40
1.0
176
     0
 90
        2
176
     1
  1
pencil.tif
176
     1
290
     0
176
     1
 40
1.0
176
     1
 40
1.0
176
     1
  0
VISUALSTYLE
  5
2F
102
{ACAD_REACTORS
330
29
102
}
330
29
100
AcDbVisualStyle
  2
Gouraud
 70
     2
177
     3
291
     1
 70
    58
 90
        2
176
     1
 90
        2
176
     1
 90
        1
176
     1
 90
        2
176
     1
 40
0.6
176
     1
 40
30.0
176
     1
 62
     7
420
 16777215
176
     1
 90
        0
176
     1
 90
        0
176
     1
 62
     7
176
     1
 62
   257
176
     1
 90
        1
176
     1
 90
        1
176
     1
 40
1.0
176
     1
 90
        0
176
     1
 62
   257
176
     1
 40
0.3
176
     1
 90
        1
176
     1
 90
        6
176
     1
 90
        2
176
     1
 62
     7
176
     1
 90
        5
176
     1
 90
        0
176
     1
 90
        0
176
     1
290
     0
176
     1
 90
       13
176
     1
 40
0.0
176
     1
 90
        0
176
     1
290
     0
176
     1
290
     1
176
     1
290
     1
176
     1
290
     0
176
     1
290
     0
176
     1
290
     0
176
     1
290
     0
176
     1
290
     0
176
     1
290
     0
176
     1
 90
       50
176
     1
 40
0.0
176
     1
 40
1.0
176
     1
 90
        0
176
     1
 62
    18
420
        0
176
     1
 90
       50
176
     1
 90
        3
176
     1
 62
     5
420
      255
176
     1
290
     0
176
     1
 90
       50
176
     1
 90
       50
176
     1
 90
       50
176
     1
290
     0
176
     1
 90
       50
176
     1
 62
   256
176
     0
 40
1.0
176
     0
 90
        2
176
     1
  1
pencil.tif
176
     1
290
     0
176
     1
 40
1.0
176
     1
 40
1.0
176
     1
  0
VISUALSTYLE
  5
30
102
{ACAD_REACTORS
330
29
102
}
330
29
100
AcDbVisualStyle
  2
GouraudWithEdges
 70
     3
177
     3
291
     1
 70
    58
 90
        2
176
     1
 90
        2
176
     1
 90
        1
176
     1
 90
        2
176
     1
 40
0.6
176
     1
 40
30.0
176
     1
 62
     7
420
 16777215
176
     1
 90
        1
176
     1
 90
        0
176
     1
 62
     7
176
     1
 62
   257
176
     1
 90
        1
176
     1
 90
        1
176
     1
 40
1.0
176
     1
 90
        0
176
     1
 62
   257
176
     1
 40
0.3
176
     1
 90
        1
176
     1
 90
        6
176
     1
 90
        2
176
     1
 62
     7
176
     1
 90
        5
176
     1
 90
        0
176
     1
 90
        0
176
     1
290
     0
176
     1
 90
       13
176
     1
 40
0.0
176
     1
 90
        0
176
     1
290
     0
176
     1
290
     1
176
     1
290
     1
176
     1
290
     0
176
     1
290
     0
176
     1
290
     0
176
     1
290
     0
176
     1
290
     0
176
     1
290
     0
176
     1
 90
       50
176
     1
 40
0.0
176
     1
 40
1.0
176
     1
 90
        0
176
     1
 62
    18
420
        0
176
     1
 90
       50
176
     1
 90
        3
176
     1
 62
     5
420
      255
176
     1
290
     0
176
     1
 90
       50
176
     1
 90
       50
176
     1
 90
       50
176
     1
290
     0
176
     1
 90
       50
176
     1
 62
   256
176
     0
 40
1.0
176
     0
 90
        2
176
     1
  1
pencil.tif
176
     1
290
     0
176
     1
 40
1.0
176
     1
 40
1.0
176
     1
  0
VISUALSTYLE
  5
4B
102
{ACAD_REACTORS
330
29
102
}
330
29
100
AcDbVisualStyle
  2
Half Tone
 70
    38
177
     3
291
     0
 70
    58
 90
        2
176
     1
 90
        3
176
     1
 90
        1
176
     1
 90
        0
176
     1
 40
0.6
176
     1
 40
30.0
176
     1
 62
     7
420
 16777215
176
     1
 90
        2
176
     1
 90
        2
176
     1
 62
     7
176
     1
 62
   257
176
     1
 90
        1
176
     1
 90
        1
176
     1
 40
40.0
176
     1
 90
        8
176
     1
 62
    18
420
        0
176
     1
 40
0.3
176
     1
 90
        1
176
     1
 90
        6
176
     1
 90
        2
176
     1
 62
     8
420
  7895160
176
     1
 90
        2
176
     1
 90
        0
176
     1
 90
        0
176
     1
290
     0
176
     1
 90
        5
176
     1
 40
0.0
176
     1
 90
        0
176
     1
290
     0
176
     1
290
     1
176
     1
290
     1
176
     1
290
     0
176
     1
290
     0
176
     1
290
     0
176
     1
290
     1
176
     1
290
     0
176
     1
290
     0
176
     1
 90
       50
176
     1
 40
0.0
176
     1
 40
1.0
176
     1
 90
        2
176
     1
 62
    18
420
        0
176
     1
 90
       50
176
     1
 90
        3
176
     1
 62
     5
420
      255
176
     1
290
     0
176
     1
 90
       50
176
     1
 90
       50
176
     1
 90
       50
176
     1
290
     0
176
     1
 90
       50
176
     1
 62
   256
176
     0
 40
1.0
176
     0
 90
        2
176
     1
  1
pencil.tif
176
     1
290
     0
176
     1
 40
1.0
176
     1
 40
1.0
176
     1
  0
VISUALSTYLE
  5
34
102
{ACAD_REACTORS
330
29
102
}
330
29
100
AcDbVisualStyle
  2
Hidden
 70
     6
177
     3
291
     0
 70
    58
 90
        1
176
     1
 90
        3
176
     1
 90
        2
176
     1
 90
        0
176
     1
 40
0.6
176
     1
 40
30.0
176
     1
 62
     7
420
 16777215
176
     1
 90
        2
176
     1
 90
        2
176
     1
 62
     7
176
     1
 62
   257
176
     1
 90
        2
176
     1
 90
        1
176
     1
 40
40.0
176
     1
 90
        0
176
     1
 62
   257
176
     1
 40
0.3
176
     1
 90
        1
176
     1
 90
        6
176
     1
 90
        2
176
     1
 62
     7
176
     1
 90
        2
176
     1
 90
        0
176
     1
 90
        0
176
     1
290
     0
176
     1
 90
        1
176
     1
 40
0.0
176
     1
 90
        0
176
     1
290
     0
176
     1
290
     1
176
     1
290
     1
176
     1
290
     0
176
     1
290
     0
176
     1
290
     0
176
     1
290
     0
176
     1
290
     0
176
     1
290
     0
176
     1
 90
       50
176
     1
 40
0.0
176
     1
 40
1.0
176
     1
 90
        0
176
     1
 62
    18
420
        0
176
     1
 90
       50
176
     1
 90
        3
176
     1
 62
     5
420
      255
176
     1
290
     0
176
     1
 90
       50
176
     1
 90
       50
176
     1
 90
       50
176
     1
290
     0
176
     1
 90
       50
176
     1
 62
   256
176
     0
 40
1.0
176
     0
 90
        2
176
     1
  1
pencil.tif
176
     1
290
     0
176
     1
 40
1.0
176
     1
 40
1.0
176
     1
  0
VISUALSTYLE
  5
47
102
{ACAD_REACTORS
330
29
102
}
330
29
100
AcDbVisualStyle
  2
High Contrast
 70
    33
177
     3
291
     0
 70
    58
 90
        2
176
     1
 90
        3
176
     1
 90
        0
176
     1
 90
        2
176
     1
 40
0.6
176
     1
 40
30.0
176
     1
 62
     7
420
 16777215
176
     1
 90
        2
176
     1
 90
        2
176
     1
 62
     7
176
     1
 62
   257
176
     1
 90
        1
176
     1
 90
        1
176
     1
 40
40.0
176
     1
 90
        8
176
     1
 62
   257
176
     1
 40
0.3
176
     1
 90
        1
176
     1
 90
        6
176
     1
 90
        2
176
     1
 62
     7
176
     1
 90
        2
176
     1
 90
        0
176
     1
 90
        0
176
     1
290
     0
176
     1
 90
       13
176
     1
 40
0.0
176
     1
 90
        0
176
     1
290
     0
176
     1
290
     1
176
     1
290
     1
176
     1
290
     0
176
     1
290
     0
176
     1
290
     0
176
     1
290
     0
176
     1
290
     0
176
     1
290
     0
176
     1
 90
       50
176
     1
 40
0.0
176
     1
 40
1.0
176
     1
 90
        0
176
     1
 62
    18
420
        0
176
     1
 90
       50
176
     1
 90
        3
176
     1
 62
     5
420
      255
176
     1
290
     1
176
     1
 90
       50
176
     1
 90
       50
176
     1
 90
       50
176
     1
290
     0
176
     1
 90
       50
176
     1
 62
   256
176
     0
 40
1.0
176
     0
 90
        2
176
     1
  1
pencil.tif
176
     1
290
     0
176
     1
 40
1.0
176
     1
 40
1.0
176
     1
  0
VISUALSTYLE
  5
42
102
{ACAD_REACTORS
330
29
102
}
330
29
100
AcDbVisualStyle
  2
JitterOff
 70
    20
177
     3
291
     1
 70
    58
 90
        2
176
     0
 90
        3
176
     0
 90
        0
176
     0
 90
        0
176
     0
 40
0.6
176
     0
 40
30.0
176
     0
 62
     7
420
 16777215
176
     0
 90
        0
176
     0
 90
        4
176
     0
 62
     7
176
     0
 62
   257
176
     0
 90
        1
176
     0
 90
        1
176
     0
 40
1.0
176
     0
 90
       10
176
     2
 62
   257
176
     0
 40
0.3
176
     0
 90
        1
176
     0
 90
        6
176
     0
 90
        2
176
     0
 62
     7
176
     0
 90
        5
176
     0
 90
        0
176
     0
 90
        0
176
     0
290
     0
176
     0
 90
        1
176
     0
 40
0.0
176
     0
 90
        0
176
     0
290
     0
176
     0
290
     1
176
     0
290
     1
176
     0
290
     0
176
     0
290
     0
176
     0
290
     0
176
     0
290
     0
176
     0
290
     0
176
     0
290
     0
176
     0
 90
       50
176
     0
 40
0.0
176
     0
 40
1.0
176
     0
 90
        0
176
     0
 62
    18
420
        0
176
     0
 90
       50
176
     0
 90
        3
176
     0
 62
     5
420
      255
176
     0
290
     0
176
     0
 90
       50
176
     0
 90
       50
176
     0
 90
       50
176
     0
290
     0
176
     0
 90
       50
176
     0
 62
   256
176
     0
 40
1.0
176
     0
 90
        2
176
     0
  1
pencil.tif
176
     0
290
     0
176
     0
 40
1.0
176
     0
 40
1.0
176
     0
  0
VISUALSTYLE
  5
3A
102
{ACAD_REACTORS
330
29
102
}
330
29
100
AcDbVisualStyle
  2
Linepattern
 70
    14
177
     3
291
     1
 70
    58
 90
        2
176
     1
 90
        3
176
     1
 90
        0
176
     1
 90
        0
176
     1
 40
0.6
176
     1
 40
30.0
176
     1
 62
     7
420
 16777215
176
     1
 90
        0
176
     1
 90
        4
176
     1
 62
     7
176
     1
 62
   257
176
     1
 90
        7
176
     1
 90
        7
176
     1
 40
1.0
176
     1
 90
        8
176
     1
 62
   257
176
     1
 40
0.3
176
     1
 90
        1
176
     1
 90
        6
176
     1
 90
        2
176
     1
 62
     7
176
     1
 90
        5
176
     1
 90
        0
176
     1
 90
        0
176
     1
290
     0
176
     1
 90
        1
176
     1
 40
0.0
176
     1
 90
        0
176
     1
290
     0
176
     1
290
     1
176
     1
290
     1
176
     1
290
     0
176
     1
290
     0
176
     1
290
     0
176
     1
290
     0
176
     1
290
     0
176
     1
290
     0
176
     1
 90
       50
176
     1
 40
0.0
176
     1
 40
1.0
176
     1
 90
        0
176
     1
 62
    18
420
        0
176
     1
 90
       50
176
     1
 90
        3
176
     1
 62
     5
420
      255
176
     1
290
     0
176
     1
 90
       50
176
     1
 90
       50
176
     1
 90
       50
176
     1
290
     0
176
     1
 90
       50
176
     1
 62
   256
176
     0
 40
1.0
176
     0
 90
        2
176
     1
  1
pencil.tif
176
     1
290
     0
176
     1
 40
1.0
176
     1
 40
1.0
176
     1
  0
VISUALSTYLE
  5
4E
102
{ACAD_REACTORS
330
29
102
}
330
29
100
AcDbVisualStyle
  2
Marker Edges
 70
    41
177
     3
291
     0
 70
    58
 90
        1
176
     1
 90
        3
176
     1
 90
        2
176
     1
 90
        0
176
     1
 40
0.6
176
     1
 40
30.0
176
     1
 62
     7
420
 16777215
176
     1
 90
        2
176
     1
 90
        2
176
     1
 62
     7
176
     1
 62
   257
176
     1
 90
        1
176
     1
 90
        1
176
     1
 40
40.0
176
     1
 90
      520
176
     1
 62
    18
420
        0
176
     1
 40
0.3
176
     1
 90
        1
176
     1
 90
        6
176
     1
 90
        2
176
     1
 62
     7
176
     1
 90
        2
176
     1
 90
        0
176
     1
 90
        0
176
     1
290
     0
176
     1
 90
        1
176
     1
 40
0.0
176
     1
 90
        0
176
     1
290
     0
176
     1
290
     1
176
     1
290
     1
176
     1
290
     0
176
     1
290
     0
176
     1
290
     0
176
     1
290
     0
176
     1
290
     0
176
     1
290
     0
176
     1
 90
       50
176
     1
 40
0.0
176
     1
 40
1.0
176
     1
 90
        0
176
     1
 62
    18
420
        0
176
     1
 90
       50
176
     1
 90
        3
176
     1
 62
     5
420
      255
176
     1
290
     0
176
     1
 90
       50
176
     1
 90
       50
176
     1
 90
       50
176
     1
290
     0
176
     1
 90
       50
176
     1
 62
   256
176
     0
 40
1.0
176
     0
 90
        2
176
     1
  1
marker.tif
176
     1
290
     0
176
     1
 40
1.0
176
     1
 40
1.0
176
     1
  0
VISUALSTYLE
  5
43
102
{ACAD_REACTORS
330
29
102
}
330
29
100
AcDbVisualStyle
  2
OverhangOff
 70
    21
177
     3
291
     1
 70
    58
 90
        2
176
     0
 90
        3
176
     0
 90
        0
176
     0
 90
        0
176
     0
 40
0.6
176
     0
 40
30.0
176
     0
 62
     7
420
 16777215
176
     0
 90
        0
176
     0
 90
        4
176
     0
 62
     7
176
     0
 62
   257
176
     0
 90
        1
176
     0
 90
        1
176
     0
 40
1.0
176
     0
 90
        9
176
     2
 62
   257
176
     0
 40
0.3
176
     0
 90
        1
176
     0
 90
        6
176
     0
 90
        2
176
     0
 62
     7
176
     0
 90
        5
176
     0
 90
        0
176
     0
 90
        0
176
     0
290
     0
176
     0
 90
        1
176
     0
 40
0.0
176
     0
 90
        0
176
     0
290
     0
176
     0
290
     1
176
     0
290
     1
176
     0
290
     0
176
     0
290
     0
176
     0
290
     0
176
     0
290
     0
176
     0
290
     0
176
     0
290
     0
176
     0
 90
       50
176
     0
 40
0.0
176
     0
 40
1.0
176
     0
 90
        0
176
     0
 62
    18
420
        0
176
     0
 90
       50
176
     0
 90
        3
176
     0
 62
     5
420
      255
176
     0
290
     0
176
     0
 90
       50
176
     0
 90
       50
176
     0
 90
       50
176
     0
290
     0
176
     0
 90
       50
176
     0
 62
   256
176
     0
 40
1.0
176
     0
 90
        2
176
     0
  1
pencil.tif
176
     0
290
     0
176
     0
 40
1.0
176
     0
 40
1.0
176
     0
  0
VISUALSTYLE
  5
49
102
{ACAD_REACTORS
330
29
102
}
330
29
100
AcDbVisualStyle
  2
Pastel
 70
    36
177
     3
291
     0
 70
    58
 90
        2
176
     1
 90
        3
176
     1
 90
        1
176
     1
 90
        0
176
     1
 40
0.6
176
     1
 40
30.0
176
     1
 62
     7
420
 16777215
176
     1
 90
        2
176
     1
 90
        2
176
     1
 62
     7
176
     1
 62
   257
176
     1
 90
        1
176
     1
 90
        1
176
     1
 40
40.0
176
     1
 90
        8
176
     1
 62
    18
420
        0
176
     1
 40
0.3
176
     1
 90
        1
176
     1
 90
        6
176
     1
 90
        2
176
     1
 62
     8
420
  7895160
176
     1
 90
        2
176
     1
 90
        0
176
     1
 90
        0
176
     1
290
     0
176
     1
 90
        5
176
     1
 40
0.0
176
     1
 90
        0
176
     1
290
     0
176
     1
290
     1
176
     1
290
     1
176
     1
290
     0
176
     1
290
     0
176
     1
290
     0
176
     1
290
     0
176
     1
290
     0
176
     1
290
     1
176
     1
 90
       50
176
     1
 40
0.0
176
     1
 40
1.0
176
     1
 90
        0
176
     1
 62
    18
420
        0
176
     1
 90
       50
176
     1
 90
        3
176
     1
 62
     5
420
      255
176
     1
290
     0
176
     1
 90
       50
176
     1
 90
       50
176
     1
 90
       50
176
     1
290
     0
176
     1
 90
       50
176
     1
 62
   256
176
     0
 40
1.0
176
     0
 90
        2
176
     1
  1
pencil.tif
176
     1
290
     0
176
     1
 40
1.0
176
     1
 40
1.0
176
     1
  0
VISUALSTYLE
  5
4D
102
{ACAD_REACTORS
330
29
102
}
330
29
100
AcDbVisualStyle
  2
Pencil Edges
 70
    40
177
     3
291
     0
 70
    58
 90
        1
176
     1
 90
        3
176
     1
 90
        2
176
     1
 90
        0
176
     1
 40
0.6
176
     1
 40
30.0
176
     1
 62
     7
420
 16777215
176
     1
 90
        2
176
     1
 90
        2
176
     1
 62
     7
176
     1
 62
   257
176
     1
 90
        1
176
     1
 90
        1
176
     1
 40
40.0
176
     1
 90
      520
176
     1
 62
    18
420
        0
176
     1
 40
0.3
176
     1
 90
        1
176
     1
 90
        6
176
     1
 90
        2
176
     1
 62
     7
176
     1
 90
        2
176
     1
 90
        0
176
     1
 90
        0
176
     1
290
     0
176
     1
 90
        1
176
     1
 40
0.0
176
     1
 90
        0
176
     1
290
     0
176
     1
290
     1
176
     1
290
     1
176
     1
290
     0
176
     1
290
     0
176
     1
290
     0
176
     1
290
     0
176
     1
290
     0
176
     1
290
     0
176
     1
 90
       50
176
     1
 40
0.0
176
     1
 40
1.0
176
     1
 90
        0
176
     1
 62
    18
420
        0
176
     1
 90
       50
176
     1
 90
        3
176
     1
 62
     5
420
      255
176
     1
290
     0
176
     1
 90
       50
176
     1
 90
       50
176
     1
 90
       50
176
     1
290
     0
176
     1
 90
       50
176
     1
 62
   256
176
     0
 40
1.0
176
     0
 90
        2
176
     1
  1
pencil.tif
176
     1
290
     0
176
     1
 40
1.0
176
     1
 40
1.0
176
     1
  0
VISUALSTYLE
  5
4C
102
{ACAD_REACTORS
330
29
102
}
330
29
100
AcDbVisualStyle
  2
Posterize
 70
    39
177
     3
291
     0
 70
    58
 90
        2
176
     1
 90
        3
176
     1
 90
        0
176
     1
 90
        2
176
     1
 40
0.6
176
     1
 40
30.0
176
     1
 62
     7
420
 16777215
176
     1
 90
        2
176
     1
 90
        2
176
     1
 62
     7
176
     1
 62
   257
176
     1
 90
        1
176
     1
 90
        1
176
     1
 40
40.0
176
     1
 90
        8
176
     1
 62
    18
420
        0
176
     1
 40
0.3
176
     1
 90
        1
176
     1
 90
        6
176
     1
 90
        2
176
     1
 62
     7
176
     1
 90
        6
176
     1
 90
        0
176
     1
 90
        0
176
     1
290
     0
176
     1
 90
        1
176
     1
 40
0.0
176
     1
 90
        0
176
     1
290
     0
176
     1
290
     1
176
     1
290
     1
176
     1
290
     1
176
     1
290
     0
176
     1
290
     0
176
     1
290
     0
176
     1
290
     0
176
     1
290
     0
176
     1
 90
       50
176
     1
 40
0.0
176
     1
 40
1.0
176
     1
 90
        0
176
     1
 62
    18
420
        0
176
     1
 90
       50
176
     1
 90
        3
176
     1
 62
     5
420
      255
176
     1
290
     0
176
     1
 90
       50
176
     1
 90
       50
176
     1
 90
       50
176
     1
290
     0
176
     1
 90
       50
176
     1
 62
   256
176
     0
 40
1.0
176
     0
 90
        2
176
     1
  1
pencil.tif
176
     1
290
     0
176
     1
 40
1.0
176
     1
 40
1.0
176
     1
  0
VISUALSTYLE
  5
36
102
{ACAD_REACTORS
330
29
102
}
330
29
100
AcDbVisualStyle
  2
Realistic
 70
     8
177
     3
291
     0
 70
    58
 90
        2
176
     1
 90
        3
176
     1
 90
        0
176
     1
 90
        2
176
     1
 40
0.6
176
     1
 40
30.0
176
     1
 62
     7
420
 16777215
176
     1
 90
        0
176
     1
 90
        0
176
     1
 62
     7
176
     1
 62
   257
176
     1
 90
        1
176
     1
 90
        1
176
     1
 40
40.0
176
     1
 90
        8
176
     1
 62
   257
176
     1
 40
0.3
176
     1
 90
        1
176
     1
 90
        6
176
     1
 90
        2
176
     1
 62
     7
176
     1
 90
        2
176
     1
 90
        0
176
     1
 90
        0
176
     1
290
     0
176
     1
 90
       13
176
     1
 40
0.0
176
     1
 90
        0
176
     1
290
     0
176
     1
290
     1
176
     1
290
     1
176
     1
290
     0
176
     1
290
     0
176
     1
290
     0
176
     1
290
     0
176
     1
290
     0
176
     1
290
     0
176
     1
 90
       50
176
     1
 40
0.0
176
     1
 40
1.0
176
     1
 90
        0
176
     1
 62
    18
420
        0
176
     1
 90
       50
176
     1
 90
        3
176
     1
 62
     5
420
      255
176
     1
290
     0
176
     1
 90
       50
176
     1
 90
       50
176
     1
 90
       50
176
     1
290
     0
176
     1
 90
       50
176
     1
 62
   256
176
     0
 40
1.0
176
     0
 90
        2
176
     1
  1
pencil.tif
176
     1
290
     0
176
     1
 40
1.0
176
     1
 40
1.0
176
     1
  0
VISUALSTYLE
  5
41
102
{ACAD_REACTORS
330
29
102
}
330
29
100
AcDbVisualStyle
  2
Shaded
 70
    27
177
     3
291
     0
 70
    58
 90
        2
176
     1
 90
        3
176
     1
 90
        1
176
     1
 90
        2
176
     1
 40
0.6
176
     1
 40
30.0
176
     1
 62
     7
420
 16777215
176
     1
 90
        0
176
     1
 90
        0
176
     1
 62
     7
176
     1
 62
   257
176
     1
 90
        1
176
     1
 90
        1
176
     1
 40
40.0
176
     1
 90
        8
176
     1
 62
   257
176
     1
 40
0.3
176
     1
 90
        1
176
     1
 90
        6
176
     1
 90
        2
176
     1
 62
     8
420
  7895160
176
     1
 90
        2
176
     1
 90
        0
176
     1
 90
        0
176
     1
290
     0
176
     1
 90
        5
176
     1
 40
0.0
176
     1
 90
        0
176
     1
290
     0
176
     1
290
     1
176
     1
290
     1
176
     1
290
     0
176
     1
290
     0
176
     1
290
     0
176
     1
290
     0
176
     1
290
     0
176
     1
290
     0
176
     1
 90
       50
176
     1
 40
0.0
176
     1
 40
1.0
176
     1
 90
        0
176
     1
 62
    18
420
        0
176
     1
 90
       50
176
     1
 90
        3
176
     1
 62
     5
420
      255
176
     1
290
     0
176
     1
 90
       50
176
     1
 90
       50
176
     1
 90
       50
176
     1
290
     0
176
     1
 90
       50
176
     1
 62
   256
176
     0
 40
1.0
176
     0
 90
        2
176
     1
  1
pencil.tif
176
     1
290
     0
176
     1
 40
1.0
176
     1
 40
1.0
176
     1
  0
VISUALSTYLE
  5
40
102
{ACAD_REACTORS
330
29
102
}
330
29
100
AcDbVisualStyle
  2
Shaded with edges
 70
    26
177
     3
291
     0
 70
    58
 90
        2
176
     1
 90
        3
176
     1
 90
        1
176
     1
 90
        2
176
     1
 40
0.6
176
     1
 40
30.0
176
     1
 62
     7
420
 16777215
176
     1
 90
        2
176
     1
 90
        2
176
     1
 62
     7
176
     1
 62
   257
176
     1
 90
        2
176
     1
 90
        1
176
     1
 40
40.0
176
     1
 90
        8
176
     1
 62
   257
176
     1
 40
0.3
176
     1
 90
        1
176
     1
 90
        6
176
     1
 90
        2
176
     1
 62
     7
176
     1
 90
        2
176
     1
 90
        0
176
     1
 90
        0
176
     1
290
     0
176
     1
 90
        5
176
     1
 40
0.0
176
     1
 90
        0
176
     1
290
     0
176
     1
290
     1
176
     1
290
     1
176
     1
290
     0
176
     1
290
     0
176
     1
290
     0
176
     1
290
     0
176
     1
290
     0
176
     1
290
     0
176
     1
 90
       50
176
     1
 40
0.0
176
     1
 40
1.0
176
     1
 90
        0
176
     1
 62
    18
420
        0
176
     1
 90
       50
176
     1
 90
        3
176
     1
 62
     5
420
      255
176
     1
290
     0
176
     1
 90
       50
176
     1
 90
       50
176
     1
 90
       50
176
     1
290
     0
176
     1
 90
       50
176
     1
 62
   256
176
     0
 40
1.0
176
     0
 90
        2
176
     1
  1
pencil.tif
176
     1
290
     0
176
     1
 40
1.0
176
     1
 40
1.0
176
     1
  0
VISUALSTYLE
  5
3D
102
{ACAD_REACTORS
330
29
102
}
330
29
100
AcDbVisualStyle
  2
Shades of Gray
 70
    23
177
     3
291
     0
 70
    58
 90
        2
176
     1
 90
        3
176
     1
 90
        3
176
     1
 90
        0
176
     1
 40
0.6
176
     1
 40
30.0
176
     1
 62
     7
420
 16777215
176
     1
 90
        2
176
     1
 90
        2
176
     1
 62
     7
176
     1
 62
     7
176
     1
 90
        1
176
     1
 90
        1
176
     1
 40
40.0
176
     1
 90
        8
176
     1
 62
    18
420
        0
176
     1
 40
0.3
176
     1
 90
        1
176
     1
 90
        6
176
     1
 90
        2
176
     1
 62
     7
176
     1
 90
        2
176
     1
 90
        0
176
     1
 90
        0
176
     1
290
     0
176
     1
 90
        1
176
     1
 40
0.0
176
     1
 90
        0
176
     1
290
     0
176
     1
290
     1
176
     1
290
     1
176
     1
290
     0
176
     1
290
     1
176
     1
290
     0
176
     1
290
     0
176
     1
290
     0
176
     1
290
     0
176
     1
 90
       50
176
     1
 40
0.0
176
     1
 40
1.0
176
     1
 90
        0
176
     1
 62
    18
420
        0
176
     1
 90
       50
176
     1
 90
        3
176
     1
 62
     5
420
      255
176
     1
290
     0
176
     1
 90
       50
176
     1
 90
       50
176
     1
 90
       50
176
     1
290
     0
176
     1
 90
       50
176
     1
 62
   256
176
     0
 40
1.0
176
     0
 90
        2
176
     1
  1
pencil.tif
176
     1
290
     0
176
     1
 40
1.0
176
     1
 40
1.0
176
     1
  0
VISUALSTYLE
  5
3E
102
{ACAD_REACTORS
330
29
102
}
330
29
100
AcDbVisualStyle
  2
Sketchy
 70
    24
177
     3
291
     0
 70
    58
 90
        1
176
     1
 90
        3
176
     1
 90
        2
176
     1
 90
        0
176
     1
 40
0.6
176
     1
 40
30.0
176
     1
 62
     7
420
 16777215
176
     1
 90
        2
176
     1
 90
        2
176
     1
 62
     7
176
     1
 62
     7
176
     1
 90
        1
176
     1
 90
        1
176
     1
 40
40.0
176
     1
 90
      267
176
     1
 62
    18
420
        0
176
     1
 40
0.3
176
     1
 90
        1
176
     1
 90
        6
176
     1
 90
        2
176
     1
 62
     7
176
     1
 90
        6
176
     1
 90
        0
176
     1
 90
        0
176
     1
290
     0
176
     1
 90
        1
176
     1
 40
0.0
176
     1
 90
        0
176
     1
290
     0
176
     1
290
     1
176
     1
290
     1
176
     1
290
     0
176
     1
290
     0
176
     1
290
     0
176
     1
290
     0
176
     1
290
     0
176
     1
290
     0
176
     1
 90
       50
176
     1
 40
0.0
176
     1
 40
1.0
176
     1
 90
        0
176
     1
 62
    18
420
        0
176
     1
 90
       50
176
     1
 90
        3
176
     1
 62
     5
420
      255
176
     1
290
     0
176
     1
 90
       50
176
     1
 90
       50
176
     1
 90
       50
176
     1
290
     0
176
     1
 90
       50
176
     1
 62
   256
176
     0
 40
1.0
176
     0
 90
        2
176
     1
  1
pencil.tif
176
     1
290
     0
176
     1
 40
1.0
176
     1
 40
1.0
176
     1
  0
VISUALSTYLE
  5
39
102
{ACAD_REACTORS
330
29
102
}
330
29
100
AcDbVisualStyle
  2
Thicken
 70
    13
177
     3
291
     1
 70
    58
 90
        2
176
     1
 90
        3
176
     1
 90
        0
176
     1
 90
        0
176
     1
 40
0.6
176
     1
 40
30.0
176
     1
 62
     7
420
 16777215
176
     1
 90
        0
176
     1
 90
        4
176
     1
 62
     7
176
     1
 62
   257
176
     1
 90
        1
176
     1
 90
        1
176
     1
 40
1.0
176
     1
 90
       12
176
     1
 62
   257
176
     1
 40
0.3
176
     1
 90
        1
176
     1
 90
        6
176
     1
 90
        2
176
     1
 62
     7
176
     1
 90
        5
176
     1
 90
        0
176
     1
 90
        0
176
     1
290
     0
176
     1
 90
        1
176
     1
 40
0.0
176
     1
 90
        0
176
     1
290
     0
176
     1
290
     1
176
     1
290
     1
176
     1
290
     0
176
     1
290
     0
176
     1
290
     0
176
     1
290
     0
176
     1
290
     0
176
     1
290
     0
176
     1
 90
       50
176
     1
 40
0.0
176
     1
 40
1.0
176
     1
 90
        0
176
     1
 62
    18
420
        0
176
     1
 90
       50
176
     1
 90
        3
176
     1
 62
     5
420
      255
176
     1
290
     0
176
     1
 90
       50
176
     1
 90
       50
176
     1
 90
       50
176
     1
290
     0
176
     1
 90
       50
176
     1
 62
   256
176
     0
 40
1.0
176
     0
 90
        2
176
     1
  1
pencil.tif
176
     1
290
     0
176
     1
 40
1.0
176
     1
 40
1.0
176
     1
  0
VISUALSTYLE
  5
33
102
{ACAD_REACTORS
330
29
102
}
330
29
100
AcDbVisualStyle
  2
Wireframe
 70
     5
177
     3
291
     0
 70
    58
 90
        0
176
     1
 90
        3
176
     1
 90
        0
176
     1
 90
        2
176
     1
 40
0.6
176
     1
 40
0.0
176
     1
 62
     7
420
 16777215
176
     1
 90
        2
176
     1
 90
        6
176
     1
 62
     7
176
     1
 62
   257
176
     1
 90
        1
176
     1
 90
        1
176
     1
 40
40.0
176
     1
 90
        0
176
     1
 62
   257
176
     1
 40
0.3
176
     1
 90
        1
176
     1
 90
        6
176
     1
 90
        2
176
     1
 62
     7
176
     1
 90
        2
176
     1
 90
        0
176
     1
 90
        0
176
     1
290
     0
176
     1
 90
        1
176
     1
 40
0.0
176
     1
 90
        0
176
     1
290
     0
176
     1
290
     1
176
     1
290
     1
176
     1
290
     0
176
     1
290
     0
176
     1
290
     0
176
     1
290
     0
176
     1
290
     0
176
     1
290
     0
176
     1
 90
       50
176
     1
 40
0.0
176
     1
 40
1.0
176
     1
 90
        0
176
     1
 62
    18
420
        0
176
     1
 90
       50
176
     1
 90
        3
176
     1
 62
     5
420
      255
176
     1
290
     0
176
     1
 90
       50
176
     1
 90
       50
176
     1
 90
       50
176
     1
290
     0
176
     1
 90
       50
176
     1
 62
   256
176
     0
 40
1.0
176
     0
 90
        2
176
     1
  1
pencil.tif
176
     1
290
     0
176
     1
 40
1.0
176
     1
 40
1.0
176
     1
  0
VISUALSTYLE
  5
3F
102
{ACAD_REACTORS
330
29
102
}
330
29
100
AcDbVisualStyle
  2
X-Ray
 70
    25
177
     3
291
     0
 70
    58
 90
        2
176
     1
 90
        3
176
     1
 90
        1
176
     1
 90
        1
176
     1
 40
0.5
176
     1
 40
30.0
176
     1
 62
     7
420
 16777215
176
     1
 90
        2
176
     1
 90
        0
176
     1
 62
     7
176
     1
 62
   257
176
     1
 90
        1
176
     1
 90
        1
176
     1
 40
40.0
176
     1
 90
      136
176
     1
 62
    18
420
        0
176
     1
 40
0.3
176
     1
 90
        1
176
     1
 90
        6
176
     1
 90
        2
176
     1
 62
     7
176
     1
 90
        2
176
     1
 90
        0
176
     1
 90
        0
176
     1
290
     0
176
     1
 90
       13
176
     1
 40
0.0
176
     1
 90
        0
176
     1
290
     0
176
     1
290
     1
176
     1
290
     1
176
     1
290
     0
176
     1
290
     0
176
     1
290
     0
176
     1
290
     0
176
     1
290
     0
176
     1
290
     0
176
     1
 90
       50
176
     1
 40
0.0
176
     1
 40
1.0
176
     1
 90
        0
176
     1
 62
    18
420
        0
176
     1
 90
       50
176
     1
 90
        3
176
     1
 62
     5
420
      255
176
     1
290
     0
176
     1
 90
       50
176
     1
 90
       50
176
     1
 90
       50
176
     1
290
     0
176
     1
 90
       50
176
     1
 62
   256
176
     0
 40
1.0
176
     0
 90
        2
176
     1
  1
pencil.tif
176
     1
290
     0
176
     1
 40
1.0
176
     1
 40
1.0
176
     1
  0
DICTIONARYVAR
  5
534
102
{ACAD_REACTORS
330
52F
102
}
330
52F
100
DictionaryVariables
280
     0
  1
1:1
  0
DICTIONARYVAR
  5
531
102
{ACAD_REACTORS
330
52F
102
}
330
52F
100
DictionaryVariables
280
     0
  1
STANDARD
  0
DICTIONARYVAR
  5
530
102
{ACAD_REACTORS
330
52F
102
}
330
52F
100
DictionaryVariables
280
     0
  1
STANDARD
  0
DICTIONARYVAR
  5
532
102
{ACAD_REACTORS
330
52F
102
}
330
52F
100
DictionaryVariables
280
     0
  1
Imperial24
  0
DICTIONARYVAR
  5
533
102
{ACAD_REACTORS
330
52F
102
}
330
52F
100
DictionaryVariables
280
     0
  1
Imperial24
  0
DICTIONARY
  5
1A
330
19
100
AcDbDictionary
280
     1
281
     1
  3
BUMPTILE
360
1C
  3
DIFFUSETILE
360
1B
  3
OPACITYTILE
360
1F
  3
REFLECTIONTILE
360
1E
  3
REFRACTIONTILE
360
20
  3
SPECULARTILE
360
1D
  0
DICTIONARY
  5
12
330
11
100
AcDbDictionary
280
     1
281
     1
  3
BUMPTILE
360
14
  3
DIFFUSETILE
360
13
  3
OPACITYTILE
360
17
  3
REFLECTIONTILE
360
16
  3
REFRACTIONTILE
360
18
  3
SPECULARTILE
360
15
  0
DICTIONARY
  5
22
330
21
100
AcDbDictionary
280
     1
281
     1
  3
BUMPTILE
360
24
  3
DIFFUSETILE
360
23
  3
OPACITYTILE
360
27
  3
REFLECTIONTILE
360
26
  3
REFRACTIONTILE
360
28
  3
SPECULARTILE
360
25
  0
DICTIONARY
  5
72
330
6D
100
AcDbDictionary
280
     1
281
     1
  3
ADSK_XREC_BACKGROUND_INFO
360
73
  0
SUN
  5
6E
102
{ACAD_XDICTIONARY
360
6F
102
}
330
6D
100
AcDbSun
 90
        1
290
     1
 63
    43
421
 11905157
 40
1.0
291
     1
 91
  2460209
 92
 54000000
292
     0
 70
     0
 71
   256
280
     1
  0
GROUNDPLANE
  5
74
330
6D
100
AcDbGroundPlane
290
     0
 70
    50
 71
    40
 72
    15
 62
     7
420
 16777215
 40
0.0
  0
DICTIONARY
  5
7C
330
7A
100
AcDbDictionary
280
     1
281
     1
  3
ADSK_XREC_BACKGROUND_INFO
360
7D
  0
GROUNDPLANE
  5
7E
330
7A
100
AcDbGroundPlane
290
     0
 70
    50
 71
    40
 72
    15
 62
     7
420
 16777215
 40
0.0
  0
DICTIONARY
  5
95
330
93
100
AcDbDictionary
280
     1
281
     1
  3
ADSK_XREC_BACKGROUND_INFO
360
96
  0
GROUNDPLANE
  5
97
330
93
100
AcDbGroundPlane
290
     0
 70
    50
 71
    40
 72
    15
 62
     7
420
 16777215
 40
0.0
  0
DICTIONARY
  5
90
330
8E
100
AcDbDictionary
280
     1
281
     1
  3
ADSK_XREC_BACKGROUND_INFO
360
91
  0
GROUNDPLANE
  5
92
330
8E
100
AcDbGroundPlane
290
     0
 70
    50
 71
    40
 72
    15
 62
     7
420
 16777215
 40
0.0
  0
GROUNDPLANE
  5
54
330
53
100
AcDbGroundPlane
290
     0
 70
    80
 71
    20
 72
    50
 62
     7
420
 16777215
 40
0.0
  0
DICTIONARY
  5
65
330
60
100
AcDbDictionary
280
     1
281
     1
  3
ADSK_XREC_BACKGROUND_INFO
360
66
  0
SUN
  5
61
102
{ACAD_XDICTIONARY
360
62
102
}
330
60
100
AcDbSun
 90
        1
290
     1
 63
    43
421
 11905157
 40
1.0
291
     1
 91
  2460209
 92
 61200000
292
     0
 70
     0
 71
   256
280
     1
  0
GROUNDPLANE
  5
67
330
60
100
AcDbGroundPlane
290
     0
 70
    50
 71
    40
 72
    15
 62
     7
420
 16777215
 40
0.0
  0
DICTIONARY
  5
8B
330
89
100
AcDbDictionary
280
     1
281
     1
  3
ADSK_XREC_BACKGROUND_INFO
360
8C
  0
GROUNDPLANE
  5
8D
330
89
100
AcDbGroundPlane
290
     0
 70
    50
 71
    40
 72
    15
 62
     7
420
 16777215
 40
0.0
  0
DICTIONARY
  5
77
330
75
100
AcDbDictionary
280
     1
281
     1
  3
ADSK_XREC_BACKGROUND_INFO
360
78
  0
GROUNDPLANE
  5
79
330
75
100
AcDbGroundPlane
290
     0
 70
    50
 71
    40
 72
    15
 62
     7
420
 16777215
 40
0.0
  0
DICTIONARY
  5
6A
330
68
100
AcDbDictionary
280
     1
281
     1
  3
ADSK_XREC_BACKGROUND_INFO
360
6B
  0
GROUNDPLANE
  5
6C
330
68
100
AcDbGroundPlane
290
     0
 70
    50
 71
    40
 72
    15
 62
     7
420
 16777215
 40
0.0
  0
DICTIONARY
  5
81
330
7F
100
AcDbDictionary
280
     1
281
     1
  3
ADSK_XREC_BACKGROUND_INFO
360
82
  0
GROUNDPLANE
  5
83
330
7F
100
AcDbGroundPlane
290
     0
 70
    50
 71
    40
 72
    15
 62
     7
420
 16777215
 40
0.0
  0
DICTIONARY
  5
86
330
84
100
AcDbDictionary
280
     1
281
     1
  3
ADSK_XREC_BACKGROUND_INFO
360
87
  0
GROUNDPLANE
  5
88
330
84
100
AcDbGroundPlane
290
     1
 70
    50
 71
    40
 72
    15
 62
     7
420
 16777215
 40
0.0
  0
GROUNDPLANE
  5
56
330
55
100
AcDbGroundPlane
290
     0
 70
    80
 71
    20
 72
    50
 62
     7
420
 16777215
 40
0.0
  0
DICTIONARY
  5
9A
330
98
100
AcDbDictionary
280
     1
281
     1
  3
ADSK_XREC_BACKGROUND_INFO
360
9B
  0
GROUNDPLANE
  5
9C
330
98
100
AcDbGroundPlane
290
     0
 70
    50
 71
    40
 72
    15
 62
     7
420
 16777215
 40
0.0
  0
DICTIONARY
  5
5D
330
57
100
AcDbDictionary
280
     1
281
     1
  3
ADSK_XREC_BACKGROUND_INFO
360
5E
  0
SUN
  5
58
102
{ACAD_XDICTIONARY
360
59
102
}
330
57
100
AcDbSun
 90
        1
290
     1
 63
    43
421
 11905157
 40
1.0
291
     1
 91
  2456094
 92
 50400000
292
     0
 70
     0
 71
   256
280
     1
  0
GROUNDPLANE
  5
5F
330
57
100
AcDbGroundPlane
290
     0
 70
    80
 71
    20
 72
    50
 62
     7
420
 16777215
 40
0.0
  0
DICTIONARY
  5
537
330
C0
100
AcDbDictionary
280
     1
281
     1
  3
ACAD_ROUNDTRIP_2008_TABLESTYLE_CELLSTYLEMAP
360
538
  0
XRECORD
  5
1C
102
{ACAD_REACTORS
330
1A
102
}
330
1A
100
AcDbXrecord
280
     1
270
     1
271
     1
  0
XRECORD
  5
1B
102
{ACAD_REACTORS
330
1A
102
}
330
1A
100
AcDbXrecord
280
     1
270
     1
271
     1
  0
XRECORD
  5
1F
102
{ACAD_REACTORS
330
1A
102
}
330
1A
100
AcDbXrecord
280
     1
270
     1
271
     1
  0
XRECORD
  5
1E
102
{ACAD_REACTORS
330
1A
102
}
330
1A
100
AcDbXrecord
280
     1
270
     1
271
     1
  0
XRECORD
  5
20
102
{ACAD_REACTORS
330
1A
102
}
330
1A
100
AcDbXrecord
280
     1
270
     1
271
     1
  0
XRECORD
  5
1D
102
{ACAD_REACTORS
330
1A
102
}
330
1A
100
AcDbXrecord
280
     1
270
     1
271
     1
  0
XRECORD
  5
14
102
{ACAD_REACTORS
330
12
102
}
330
12
100
AcDbXrecord
280
     1
270
     1
271
     1
  0
XRECORD
  5
13
102
{ACAD_REACTORS
330
12
102
}
330
12
100
AcDbXrecord
280
     1
270
     1
271
     1
  0
XRECORD
  5
17
102
{ACAD_REACTORS
330
12
102
}
330
12
100
AcDbXrecord
280
     1
270
     1
271
     1
  0
XRECORD
  5
16
102
{ACAD_REACTORS
330
12
102
}
330
12
100
AcDbXrecord
280
     1
270
     1
271
     1
  0
XRECORD
  5
18
102
{ACAD_REACTORS
330
12
102
}
330
12
100
AcDbXrecord
280
     1
270
     1
271
     1
  0
XRECORD
  5
15
102
{ACAD_REACTORS
330
12
102
}
330
12
100
AcDbXrecord
280
     1
270
     1
271
     1
  0
XRECORD
  5
24
102
{ACAD_REACTORS
330
22
102
}
330
22
100
AcDbXrecord
280
     1
270
     1
271
     1
  0
XRECORD
  5
23
102
{ACAD_REACTORS
330
22
102
}
330
22
100
AcDbXrecord
280
     1
270
     1
271
     1
  0
XRECORD
  5
27
102
{ACAD_REACTORS
330
22
102
}
330
22
100
AcDbXrecord
280
     1
270
     1
271
     1
  0
XRECORD
  5
26
102
{ACAD_REACTORS
330
22
102
}
330
22
100
AcDbXrecord
280
     1
270
     1
271
     1
  0
XRECORD
  5
28
102
{ACAD_REACTORS
330
22
102
}
330
22
100
AcDbXrecord
280
     1
270
     1
271
     1
  0
XRECORD
  5
25
102
{ACAD_REACTORS
330
22
102
}
330
22
100
AcDbXrecord
280
     1
270
     1
271
     1
  0
XRECORD
  5
73
102
{ACAD_REACTORS
330
72
102
}
330
72
100
AcDbXrecord
280
     1
290
     0
291
     0
292
     0
293
     0
294
     0
 70
     0
 71
     0
  0
DICTIONARY
  5
6F
330
6E
100
AcDbDictionary
280
     1
281
     1
  3
ADSK_XREC_SKYINFO
360
70
  0
XRECORD
  5
7D
102
{ACAD_REACTORS
330
7C
102
}
330
7C
100
AcDbXrecord
280
     1
290
     0
291
     0
292
     0
293
     0
294
     0
 70
     0
 71
     0
  0
XRECORD
  5
96
102
{ACAD_REACTORS
330
95
102
}
330
95
100
AcDbXrecord
280
     1
290
     0
291
     0
292
     0
293
     0
294
     0
 70
     0
 71
     0
  0
XRECORD
  5
91
102
{ACAD_REACTORS
330
90
102
}
330
90
100
AcDbXrecord
280
     1
290
     0
291
     0
292
     0
293
     0
294
     0
 70
     0
 71
     0
  0
XRECORD
  5
66
102
{ACAD_REACTORS
330
65
102
}
330
65
100
AcDbXrecord
280
     1
290
     0
291
     0
292
     0
293
     0
294
     0
 70
     0
 71
     0
  0
DICTIONARY
  5
62
330
61
100
AcDbDictionary
280
     1
281
     1
  3
ADSK_XREC_SKYINFO
360
63
  0
XRECORD
  5
8C
102
{ACAD_REACTORS
330
8B
102
}
330
8B
100
AcDbXrecord
280
     1
290
     0
291
     0
292
     0
293
     0
294
     0
 70
     0
 71
     0
  0
XRECORD
  5
78
102
{ACAD_REACTORS
330
77
102
}
330
77
100
AcDbXrecord
280
     1
290
     0
291
     0
292
     0
293
     0
294
     0
 70
     0
 71
     0
  0
XRECORD
  5
6B
102
{ACAD_REACTORS
330
6A
102
}
330
6A
100
AcDbXrecord
280
     1
290
     0
291
     0
292
     0
293
     0
294
     0
 70
     0
 71
     0
  0
XRECORD
  5
82
102
{ACAD_REACTORS
330
81
102
}
330
81
100
AcDbXrecord
280
     1
290
     0
291
     0
292
     0
293
     0
294
     0
 70
     0
 71
     0
  0
XRECORD
  5
87
102
{ACAD_REACTORS
330
86
102
}
330
86
100
AcDbXrecord
280
     1
290
     0
291
     0
292
     0
293
     0
294
     0
 70
     0
 71
     0
  0
XRECORD
  5
9B
102
{ACAD_REACTORS
330
9A
102
}
330
9A
100
AcDbXrecord
280
     1
290
     0
291
     0
292
     0
293
     0
294
     0
 70
     0
 71
     0
  0
XRECORD
  5
5E
102
{ACAD_REACTORS
330
5D
102
}
330
5D
100
AcDbXrecord
280
     1
290
     0
291
     0
292
     0
293
     0
294
     0
 70
     0
 71
     0
  0
DICTIONARY
  5
59
330
58
100
AcDbDictionary
280
     1
281
     1
  3
ADSK_XREC_SKYINFO
360
5A
  0
CELLSTYLEMAP
  5
538
102
{ACAD_REACTORS
330
537
102
}
330
537
100
AcDbCellStyleMap
 90
        3
300
CELLSTYLE
  1
TABLEFORMAT_BEGIN
 90
        5
170
     1
 91
        0
 92
    32768
 62
   257
 93
        1
300
CONTENTFORMAT
  1
CONTENTFORMAT_BEGIN
 90
        0
 91
        0
 92
      512
 93
        0
300

 40
0.0
140
1.0
 94
        5
 62
     0
340
B0
144
0.25
309
CONTENTFORMAT_END
171
     0
 94
        0
309
TABLEFORMAT_END
  1
CELLSTYLE_BEGIN
 90
        1
 91
        1
300
_TITLE
309
CELLSTYLE_END
300
CELLSTYLE
  1
TABLEFORMAT_BEGIN
 90
        5
170
     1
 91
        0
 92
        0
 62
   257
 93
        1
300
CONTENTFORMAT
  1
CONTENTFORMAT_BEGIN
 90
        0
 91
        0
 92
      512
 93
        0
300

 40
0.0
140
1.0
 94
        5
 62
     0
340
B0
144
0.18
309
CONTENTFORMAT_END
171
     0
 94
        0
309
TABLEFORMAT_END
  1
CELLSTYLE_BEGIN
 90
        2
 91
        1
300
_HEADER
309
CELLSTYLE_END
300
CELLSTYLE
  1
TABLEFORMAT_BEGIN
 90
        5
170
     1
 91
        0
 92
        0
 62
   257
 93
        1
300
CONTENTFORMAT
  1
CONTENTFORMAT_BEGIN
 90
        0
 91
        0
 92
      512
 93
        0
300

 40
0.0
140
1.0
 94
        2
 62
     0
340
B0
144
0.18
309
CONTENTFORMAT_END
171
     0
 94
        0
309
TABLEFORMAT_END
  1
CELLSTYLE_BEGIN
 90
        3
 91
        2
300
_DATA
309
CELLSTYLE_END
  0
XRECORD
  5
70
102
{ACAD_REACTORS
330
6F
102
}
330
6F
100
AcDbXrecord
280
     1
 70
     1
 40
1.0
 41
0.0
 42
0.0
 43
0.0
 62
    82
420
  3655735
291
     0
 63
   178
421
    66053
293
     0
 71
     0
 44
10000.0
 45
4.0
 46
1.0
 47
1.0
 72
     8
  0
XRECORD
  5
63
102
{ACAD_REACTORS
330
62
102
}
330
62
100
AcDbXrecord
280
     1
 70
     1
 40
1.0
 41
0.0
 42
0.0
 43
0.1
 62
     8
420
  8421504
291
     0
 63
   178
421
    66053
293
     0
 71
     0
 44
10000.0
 45
4.0
 46
1.0
 47
1.0
 72
     8
  0
XRECORD
  5
5A
102
{ACAD_REACTORS
330
59
102
}
330
59
100
AcDbXrecord
280
     1
 70
     1
 40
1.0
 41
0.0
 42
0.0
 43
0.1
 62
     8
420
  8421504
291
     0
 63
   178
421
    66053
293
     0
 71
     0
 44
10000.0
 45
4.0
 46
1.0
 47
1.0
 72
     8
  0
ENDSEC
  0
EOF
