999
dxfrw 0.6.3
  0
SECTION
  2
HEADER
  9
$ACADVER
  1
AC1021
  9
$DWGCODEPAGE
  3
ANSI_1252
  9
$INSBASE
 10
0
 20
0
 30
0
  9
$EXTMIN
 10
0
 20
0
 30
0
  9
$EXTMAX
 10
800
 20
600
 30
0
  9
$LIMMIN
 10
0
 20
0
  9
$LIMMAX
 10
12
 20
9
  9
$ORTHOMODE
 70
    1
  9
$REGENMODE
 70
    1
  9
$FILLMODE
 70
    1
  9
$QTEXTMODE
 70
    0
  9
$MIRRTEXT
 70
    1
  9
$LTSCALE
 40
1
  9
$ATTMODE
 70
    1
  9
$TEXTSIZE
 40
1
  9
$TRACEWID
 40
0.05
  9
$TEXTSTYLE
  7
Standard
  9
$CLAYER
  8
VY_LAM_Clamex P-10
  9
$CELTYPE
  6
ByBlock
  9
$CECOLOR
 62
  256
  9
$CELTSCALE
 40
1
  9
$DISPSILH
 70
    0
  9
$DIMSCALE
 40
1
  9
$DIMASZ
 40
0.12
  9
$DIMEXO
 40
0.05
  9
$DIMDLI
 40
0.38
  9
$DIMRND
 40
0
  9
$DIMDLE
 40
0
  9
$DIMEXE
 40
0.1
  9
$DIMTP
 40
0
  9
$DIMTM
 40
0
  9
$DIMTXT
 40
0.12
  9
$DIMCEN
 40
0.09
  9
$DIMTSZ
 40
0
  9
$DIMTOL
 70
    0
  9
$DIMLIM
 70
    0
  9
$DIMTIH
 70
    1
  9
$DIMTOH
 70
    1
  9
$DIMSE1
 70
    0
  9
$DIMSE2
 70
    0
  9
$DIMTAD
 70
    0
  9
$DIMZIN
 70
    0
  9
$DIMBLK
  1

  9
$DIMASO
 70
    1
  9
$DIMSHO
 70
    1
  9
$DIMPOST
  1

  9
$DIMAPOST
  1

  9
$DIMALT
 70
    0
  9
$DIMALTD
 70
    2
  9
$DIMALTF
 40
25.4
  9
$DIMLFAC
 40
1
  9
$DIMTOFL
 70
    0
  9
$DIMTVP
 40
0
  9
$DIMTIX
 70
    0
  9
$DIMSOXD
 70
    0
  9
$DIMSAH
 70
    0
  9
$DIMBLK1
  1

  9
$DIMBLK2
  1

  9
$DIMSTYLE
  2
Standard
  9
$DIMCLRD
 70
    0
  9
$DIMCLRE
 70
    0
  9
$DIMCLRT
 70
    0
  9
$DIMTFAC
 40
1
  9
$DIMGAP
 40
0.06
  9
$DIMJUST
 70
    0
  9
$DIMSD1
 70
    0
  9
$DIMSD2
 70
    0
  9
$DIMTOLJ
 70
    1
  9
$DIMTZIN
 70
    0
  9
$DIMALTZ
 70
    0
  9
$DIMALTTZ
 70
    0
  9
$DIMUPT
 70
    0
  9
$DIMDEC
 70
    4
  9
$DIMTDEC
 70
    4
  9
$DIMALTU
 70
    2
  9
$DIMALTTD
 70
    2
  9
$DIMTXSTY
  7
Standard
  9
$DIMAUNIT
 70
    0
  9
$DIMADEC
 70
    0
  9
$DIMALTRND
 40
0
  9
$DIMAZIN
 70
    0
  9
$DIMDSEP
 70
   46
  9
$DIMATFIT
 70
    3
  9
$DIMFRAC
 70
    0
  9
$DIMLDRBLK
  1

  9
$DIMLUNIT
 70
    2
  9
$DIMLWD
 70
   -2
  9
$DIMLWE
 70
   -2
  9
$DIMTMOVE
 70
    0
  9
$DIMFXL
 40
1
  9
$DIMFXLON
 70
    0
  9
$DIMJOGANG
 40
0.7854
  9
$DIMTFILL
 70
    0
  9
$DIMTFILLCLR
 70
    0
  9
$DIMARCSYM
 70
    0
  9
$DIMLTYPE
  6

  9
$DIMLTEX1
  6

  9
$DIMLTEX2
  6

  9
$LUNITS
 70
    2
  9
$LUPREC
 70
    4
  9
$SKETCHINC
 40
0.1
  9
$FILLETRAD
 40
0.5
  9
$AUNITS
 70
    0
  9
$AUPREC
 70
    0
  9
$MENU
  1
.
  9
$ELEVATION
 40
0
  9
$PELEVATION
 40
0
  9
$THICKNESS
 40
0
  9
$LIMCHECK
 70
    0
  9
$CHAMFERA
 40
0
  9
$CHAMFERB
 40
0
  9
$CHAMFERC
 40
0
  9
$CHAMFERD
 40
0
  9
$SKPOLY
 70
    0
  9
$USRTIMER
 70
    1
  9
$ANGBASE
 50
0
  9
$ANGDIR
 70
    0
  9
$PDMODE
 70
    0
  9
$PDSIZE
 40
0
  9
$PLINEWID
 40
0
  9
$SPLFRAME
 70
    0
  9
$SPLINETYPE
 70
    6
  9
$SPLINESEGS
 70
    8
  9
$HANDSEED
  5
20000
  9
$SURFTAB1
 70
    6
  9
$SURFTAB2
 70
    6
  9
$SURFTYPE
 70
    6
  9
$SURFU
 70
    6
  9
$SURFV
 70
    6
  9
$UCSBASE
  2

  9
$UCSNAME
  2

  9
$UCSORG
 10
0
 20
0
 30
0
  9
$UCSXDIR
 10
1
 20
0
 30
0
  9
$UCSYDIR
 10
0
 20
1
 30
0
  9
$UCSORTHOREF
  2

  9
$UCSORTHOVIEW
 70
    0
  9
$UCSORGTOP
 10
0
 20
0
 30
0
  9
$UCSORGBOTTOM
 10
0
 20
0
 30
0
  9
$UCSORGLEFT
 10
0
 20
0
 30
0
  9
$UCSORGRIGHT
 10
0
 20
0
 30
0
  9
$UCSORGFRONT
 10
0
 20
0
 30
0
  9
$UCSORGBACK
 10
0
 20
0
 30
0
  9
$PUCSBASE
  2

  9
$PUCSNAME
  2

  9
$PUCSORG
 10
0
 20
0
 30
0
  9
$PUCSXDIR
 10
1
 20
0
 30
0
  9
$PUCSYDIR
 10
0
 20
1
 30
0
  9
$PUCSORTHOREF
  2

  9
$PUCSORTHOVIEW
 70
    0
  9
$PUCSORGTOP
 10
0
 20
0
 30
0
  9
$PUCSORGBOTTOM
 10
0
 20
0
 30
0
  9
$PUCSORGLEFT
 10
0
 20
0
 30
0
  9
$PUCSORGRIGHT
 10
0
 20
0
 30
0
  9
$PUCSORGFRONT
 10
0
 20
0
 30
0
  9
$PUCSORGBACK
 10
0
 20
0
 30
0
  9
$USERI1
 70
    0
  9
$USERI2
 70
    0
  9
$USERI3
 70
    0
  9
$USERI4
 70
    0
  9
$USERI5
 70
    0
  9
$USERR1
 40
0
  9
$USERR2
 40
0
  9
$USERR3
 40
0
  9
$USERR4
 40
0
  9
$USERR5
 40
0
  9
$WORLDVIEW
 70
    1
  9
$SHADEDGE
 70
    3
  9
$SHADEDIF
 70
   70
  9
$TILEMODE
 70
    1
  9
$MAXACTVP
 70
   64
  9
$PINSBASE
 10
0
 20
0
 30
0
  9
$PLIMCHECK
 70
    0
  9
$PEXTMIN
 10
1e+020
 20
1e+020
 30
1e+020
  9
$PEXTMAX
 10
-1e+020
 20
-1e+020
 30
-1e+020
  9
$GRIDMODE
 70
    0
  9
$SNAPSTYLE
 70
    0
  9
$PLIMMIN
 10
0
 20
0
  9
$PLIMMAX
 10
0
 20
0
  9
$UNITMODE
 70
    0
  9
$VISRETAIN
 70
    1
  9
$PLINEGEN
 70
    0
  9
$PSLTSCALE
 70
    1
  9
$TREEDEPTH
 70
 3020
  9
$CMLSTYLE
  2
Standard
  9
$CMLJUST
 70
    0
  9
$CMLSCALE
 40
1
  9
$PROXYGRAPHICS
 70
    1
  9
$MEASUREMENT
 70
    0
  9
$CELWEIGHT
370
   -1
  9
$ENDCAPS
280
    0
  9
$JOINSTYLE
280
    0
  9
$LWDISPLAY
290
    0
  9
$INSUNITS
 70
    0
  9
$HYPERLINKBASE
  1

  9
$STYLESHEET
  1

  9
$XEDIT
290
    1
  9
$CEPSNTYPE
380
    0
  9
$PSTYLEMODE
290
    1
  9
$EXTNAMES
290
    1
  9
$PSVPSCALE
 40
0
  9
$OLESTARTUP
290
    0
  9
$SORTENTS
280
  127
  9
$INDEXCTL
280
    0
  9
$HIDETEXT
280
    1
  9
$XCLIPFRAME
290
    0
  9
$HALOGAP
280
    0
  9
$OBSCOLOR
 70
  257
  9
$OBSLTYPE
280
    0
  9
$INTERSECTIONDISPLAY
280
    0
  9
$INTERSECTIONCOLOR
 70
  257
  9
$DIMASSOC
280
    1
  9
$PROJECTNAME
  1

  9
$CAMERADISPLAY
290
    0
  9
$LENSLENGTH
 40
50
  9
$CAMERAHEIGHT
 40
0
  9
$STEPSPERSEC
 40
2
  9
$STEPSIZE
 40
50
  9
$3DDWFPREC
 40
2
  9
$PSOLWIDTH
 40
5
  9
$PSOLHEIGHT
 40
80
  9
$LOFTANG1
 40
1.570796326794897
  9
$LOFTANG2
 40
1.570796326794897
  9
$LOFTMAG1
 40
0
  9
$LOFTMAG2
 40
0
  9
$LOFTPARAM
 70
    7
  9
$LOFTNORMALS
280
    1
  9
$LATITUDE
 40
1
  9
$LONGITUDE
 40
1
  9
$NORTHDIRECTION
 40
0
  9
$TIMEZONE
 70
-8000
  9
$LIGHTGLYPHDISPLAY
280
    1
  9
$TILEMODELIGHTSYNCH
280
    1
  9
$SOLIDHIST
280
    1
  9
$SHOWHIST
280
    1
  9
$DWFFRAME
280
    2
  9
$DGNFRAME
280
    0
  9
$REALWORLDSCALE
290
    1
  9
$INTERFERECOLOR
 62
    1
  9
$CSHADOW
280
    0
  9
$SHADOWPLANELOCATION
 40
0
  0
ENDSEC
  0
SECTION
  2
CLASSES
  0
ENDSEC
  0
SECTION
  2
TABLES
  0
TABLE
  2
VPORT
  5
8
330
0
100
AcDbSymbolTable
 70
    1
  0
VPORT
  5
31
330
2
100
AcDbSymbolTableRecord
100
AcDbViewportTableRecord
  2
*ACTIVE
 70
    0
 10
0
 20
0
 11
1
 21
1
 12
492.5925073899019
 22
366.440767692488
 13
0
 23
0
 14
10
 24
10
 15
10
 25
10
 16
0
 26
0
 36
1
 17
0
 27
0
 37
0
 40
599.309105117126
 41
1.4375
 42
50
 43
0
 44
0
 50
0
 51
0
 71
    0
 72
  100
 73
    1
 74
    3
 75
    0
 76
    0
 77
    0
 78
    0
281
    0
 65
    1
110
0
120
0
130
0
111
1
121
0
131
0
112
0
122
1
132
0
 79
    0
146
0
348
10020
 60
    7
 61
    5
292
1
282
    1
141
0
142
0
 63
  250
421
3358443
  0
ENDTAB
  0
TABLE
  2
LTYPE
  5
5
330
0
100
AcDbSymbolTable
 70
    4
  0
LTYPE
  5
14
330
5
100
AcDbSymbolTableRecord
100
AcDbLinetypeTableRecord
  2
ByBlock
 70
    0
  3

 72
   65
 73
    0
 40
0
  0
LTYPE
  5
15
330
5
100
AcDbSymbolTableRecord
100
AcDbLinetypeTableRecord
  2
ByLayer
 70
    0
  3

 72
   65
 73
    0
 40
0
  0
LTYPE
  5
16
330
5
100
AcDbSymbolTableRecord
100
AcDbLinetypeTableRecord
  2
Continuous
 70
    0
  3
Solid line
 72
   65
 73
    0
 40
0
  0
LTYPE
  5
32
330
5
100
AcDbSymbolTableRecord
100
AcDbLinetypeTableRecord
  2
DOT
 70
    0
  3
Dot . . . . . . . . . . . . . . . . . . . . . .
 72
   65
 73
    2
 40
6.35
 49
0
 74
    0
 49
-6.35
 74
    0
  0
LTYPE
  5
33
330
5
100
AcDbSymbolTableRecord
100
AcDbLinetypeTableRecord
  2
DOTTINY
 70
    0
  3
Dot (.15x) .....................................
 72
   65
 73
    2
 40
0.9525
 49
0
 74
    0
 49
-0.9525
 74
    0
  0
LTYPE
  5
34
330
5
100
AcDbSymbolTableRecord
100
AcDbLinetypeTableRecord
  2
DOT2
 70
    0
  3
Dot (.5x) .....................................
 72
   65
 73
    2
 40
3.175
 49
0
 74
    0
 49
-3.175
 74
    0
  0
LTYPE
  5
35
330
5
100
AcDbSymbolTableRecord
100
AcDbLinetypeTableRecord
  2
DOTX2
 70
    0
  3
Dot (2x) .  .  .  .  .  .  .  .  .  .  .  .  .
 72
   65
 73
    2
 40
12.7
 49
0
 74
    0
 49
-12.7
 74
    0
  0
LTYPE
  5
36
330
5
100
AcDbSymbolTableRecord
100
AcDbLinetypeTableRecord
  2
DASHED
 70
    0
  3
Dashed _ _ _ _ _ _ _ _ _ _ _ _ _ _ _ _ _
 72
   65
 73
    2
 40
19.05
 49
12.7
 74
    0
 49
-6.35
 74
    0
  0
LTYPE
  5
37
330
5
100
AcDbSymbolTableRecord
100
AcDbLinetypeTableRecord
  2
DASHEDTINY
 70
    0
  3
Dashed (.15x) _ _ _ _ _ _ _ _ _ _ _ _ _ _ _ _ _
 72
   65
 73
    2
 40
2.8575
 49
1.905
 74
    0
 49
-0.9525
 74
    0
  0
LTYPE
  5
38
330
5
100
AcDbSymbolTableRecord
100
AcDbLinetypeTableRecord
  2
DASHED2
 70
    0
  3
Dashed (.5x) _ _ _ _ _ _ _ _ _ _ _ _ _ _ _ _ _
 72
   65
 73
    2
 40
9.524999999999999
 49
6.35
 74
    0
 49
-3.175
 74
    0
  0
LTYPE
  5
39
330
5
100
AcDbSymbolTableRecord
100
AcDbLinetypeTableRecord
  2
DASHEDX2
 70
    0
  3
Dashed (2x) ____  ____  ____  ____  ____  ___
 72
   65
 73
    2
 40
38.09999999999999
 49
25.4
 74
    0
 49
-12.7
 74
    0
  0
LTYPE
  5
3A
330
5
100
AcDbSymbolTableRecord
100
AcDbLinetypeTableRecord
  2
DASHDOT
 70
    0
  3
Dash dot __ . __ . __ . __ . __ . __ . __ . __
 72
   65
 73
    4
 40
25.4
 49
12.7
 74
    0
 49
-6.35
 74
    0
 49
0
 74
    0
 49
-6.35
 74
    0
  0
LTYPE
  5
3B
330
5
100
AcDbSymbolTableRecord
100
AcDbLinetypeTableRecord
  2
DASHDOTTINY
 70
    0
  3
Dash dot (.15x) _._._._._._._._._._._._._._._.
 72
   65
 73
    4
 40
3.81
 49
1.905
 74
    0
 49
-0.9525
 74
    0
 49
0
 74
    0
 49
-0.9525
 74
    0
  0
LTYPE
  5
3C
330
5
100
AcDbSymbolTableRecord
100
AcDbLinetypeTableRecord
  2
DASHDOT2
 70
    0
  3
Dash dot (.5x) _._._._._._._._._._._._._._._.
 72
   65
 73
    4
 40
12.7
 49
6.35
 74
    0
 49
-3.175
 74
    0
 49
0
 74
    0
 49
-3.175
 74
    0
  0
LTYPE
  5
3D
330
5
100
AcDbSymbolTableRecord
100
AcDbLinetypeTableRecord
  2
DASHDOTX2
 70
    0
  3
Dash dot (2x) ____  .  ____  .  ____  .  ___
 72
   65
 73
    4
 40
50.8
 49
25.4
 74
    0
 49
-12.7
 74
    0
 49
0
 74
    0
 49
-12.7
 74
    0
  0
LTYPE
  5
3E
330
5
100
AcDbSymbolTableRecord
100
AcDbLinetypeTableRecord
  2
DIVIDE
 70
    0
  3
Divide ____ . . ____ . . ____ . . ____ . . ____
 72
   65
 73
    6
 40
31.75
 49
12.7
 74
    0
 49
-6.35
 74
    0
 49
0
 74
    0
 49
-6.35
 74
    0
 49
0
 74
    0
 49
-6.35
 74
    0
  0
LTYPE
  5
3F
330
5
100
AcDbSymbolTableRecord
100
AcDbLinetypeTableRecord
  2
DIVIDETINY
 70
    0
  3
Divide (.15x) __..__..__..__..__..__..__..__.._
 72
   65
 73
    6
 40
4.7625
 49
1.905
 74
    0
 49
-0.9525
 74
    0
 49
0
 74
    0
 49
-0.9525
 74
    0
 49
0
 74
    0
 49
-0.9525
 74
    0
  0
LTYPE
  5
40
330
5
100
AcDbSymbolTableRecord
100
AcDbLinetypeTableRecord
  2
DIVIDE2
 70
    0
  3
Divide (.5x) __..__..__..__..__..__..__..__.._
 72
   65
 73
    6
 40
15.875
 49
6.35
 74
    0
 49
-3.175
 74
    0
 49
0
 74
    0
 49
-3.175
 74
    0
 49
0
 74
    0
 49
-3.175
 74
    0
  0
LTYPE
  5
41
330
5
100
AcDbSymbolTableRecord
100
AcDbLinetypeTableRecord
  2
DIVIDEX2
 70
    0
  3
Divide (2x) ________  .  .  ________  .  .  _
 72
   65
 73
    6
 40
63.5
 49
25.4
 74
    0
 49
-12.7
 74
    0
 49
0
 74
    0
 49
-12.7
 74
    0
 49
0
 74
    0
 49
-12.7
 74
    0
  0
LTYPE
  5
42
330
5
100
AcDbSymbolTableRecord
100
AcDbLinetypeTableRecord
  2
BORDER
 70
    0
  3
Border __ __ . __ __ . __ __ . __ __ . __ __ .
 72
   65
 73
    6
 40
44.45
 49
12.7
 74
    0
 49
-6.35
 74
    0
 49
12.7
 74
    0
 49
-6.35
 74
    0
 49
0
 74
    0
 49
-6.35
 74
    0
  0
LTYPE
  5
43
330
5
100
AcDbSymbolTableRecord
100
AcDbLinetypeTableRecord
  2
BORDERTINY
 70
    0
  3
Border (.15x) __.__.__.__.__.__.__.__.__.__.__.
 72
   65
 73
    6
 40
6.6675
 49
1.905
 74
    0
 49
-0.9525
 74
    0
 49
1.905
 74
    0
 49
-0.9525
 74
    0
 49
0
 74
    0
 49
-0.9525
 74
    0
  0
LTYPE
  5
44
330
5
100
AcDbSymbolTableRecord
100
AcDbLinetypeTableRecord
  2
BORDER2
 70
    0
  3
Border (.5x) __.__.__.__.__.__.__.__.__.__.__.
 72
   65
 73
    6
 40
22.225
 49
6.35
 74
    0
 49
-3.175
 74
    0
 49
6.35
 74
    0
 49
-3.175
 74
    0
 49
0
 74
    0
 49
-3.175
 74
    0
  0
LTYPE
  5
45
330
5
100
AcDbSymbolTableRecord
100
AcDbLinetypeTableRecord
  2
BORDERX2
 70
    0
  3
Border (2x) ____  ____  .  ____  ____  .  ___
 72
   65
 73
    6
 40
88.89999999999999
 49
25.4
 74
    0
 49
-12.7
 74
    0
 49
25.4
 74
    0
 49
-12.7
 74
    0
 49
0
 74
    0
 49
-12.7
 74
    0
  0
LTYPE
  5
46
330
5
100
AcDbSymbolTableRecord
100
AcDbLinetypeTableRecord
  2
CENTER
 70
    0
  3
Center ____ _ ____ _ ____ _ ____ _ ____ _ ____
 72
   65
 73
    4
 40
50.8
 49
31.75
 74
    0
 49
-6.35
 74
    0
 49
6.35
 74
    0
 49
-6.35
 74
    0
  0
LTYPE
  5
47
330
5
100
AcDbSymbolTableRecord
100
AcDbLinetypeTableRecord
  2
CENTERTINY
 70
    0
  3
Center (.15x) ___ _ ___ _ ___ _ ___ _ ___ _ ___
 72
   65
 73
    4
 40
7.62
 49
4.7625
 74
    0
 49
-0.9525
 74
    0
 49
0.9525
 74
    0
 49
-0.9525
 74
    0
  0
LTYPE
  5
48
330
5
100
AcDbSymbolTableRecord
100
AcDbLinetypeTableRecord
  2
CENTER2
 70
    0
  3
Center (.5x) ___ _ ___ _ ___ _ ___ _ ___ _ ___
 72
   65
 73
    4
 40
28.575
 49
19.05
 74
    0
 49
-3.175
 74
    0
 49
3.175
 74
    0
 49
-3.175
 74
    0
  0
LTYPE
  5
49
330
5
100
AcDbSymbolTableRecord
100
AcDbLinetypeTableRecord
  2
CENTERX2
 70
    0
  3
Center (2x) ________  __  ________  __  _____
 72
   65
 73
    4
 40
101.6
 49
63.5
 74
    0
 49
-12.7
 74
    0
 49
12.7
 74
    0
 49
-12.7
 74
    0
  0
ENDTAB
  0
TABLE
  2
LAYER
  5
2
330
0
100
AcDbSymbolTable
 70
    1
  0
LAYER
  5
10
330
2
100
AcDbSymbolTableRecord
100
AcDbLayerTableRecord
  2
0
 70
    0
 62
    7
  6
CONTINUOUS
370
   -3
390
F
  0
LAYER
  5
4A
330
2
100
AcDbSymbolTableRecord
100
AcDbLayerTableRecord
  2
HX_LAM_Clamex P-10_10.5
 70
    0
 62
    4
  6
CONTINUOUS
370
    0
390
F
  0
LAYER
  5
4B
330
2
100
AcDbSymbolTableRecord
100
AcDbLayerTableRecord
  2
H_BOHR_9_5_0
 70
    0
 62
    1
  6
CONTINUOUS
370
   -3
390
F
  0
LAYER
  5
4C
330
2
100
AcDbSymbolTableRecord
100
AcDbLayerTableRecord
  2
VX_LAM_Clamex P-10
 70
    0
 62
    2
  6
CONTINUOUS
370
    0
390
F
  0
LAYER
  5
4D
330
2
100
AcDbSymbolTableRecord
100
AcDbLayerTableRecord
  2
VY_LAM_Clamex P-10
 70
    0
 62
    1
  6
CONTINUOUS
370
    0
390
F
  0
LAYER
  5
4E
330
2
100
AcDbSymbolTableRecord
100
AcDbLayerTableRecord
  2
V_BOHRLS_11_0
 70
    0
 62
   30
  6
CONTINUOUS
370
   -3
390
F
  0
LAYER
  5
4F
330
2
100
AcDbSymbolTableRecord
100
AcDbLayerTableRecord
  2
V_BOHRLS_12_0
 70
    0
 62
    5
  6
CONTINUOUS
370
   -3
390
F
  0
LAYER
  5
50
330
2
100
AcDbSymbolTableRecord
100
AcDbLayerTableRecord
  2
V_FrEck_19_5
 70
    0
 62
   96
  6
CONTINUOUS
370
    0
390
F
  0
LAYER
  5
51
330
2
100
AcDbSymbolTableRecord
100
AcDbLayerTableRecord
  2
V_FrEck_5_0
 70
    0
 62
    3
  6
CONTINUOUS
370
   -3
390
F
  0
LAYER
  5
52
330
2
100
AcDbSymbolTableRecord
100
AcDbLayerTableRecord
  2
V_FrRecht_5_0_0
 70
    0
 62
    2
  6
CONTINUOUS
370
   -3
390
F
  0
LAYER
  5
53
330
2
100
AcDbSymbolTableRecord
100
AcDbLayerTableRecord
  2
V_FrRecht_5_0_1
 70
    0
 62
   51
  6
CONTINUOUS
370
    0
390
F
  0
LAYER
  5
54
330
2
100
AcDbSymbolTableRecord
100
AcDbLayerTableRecord
  2
V_Fraes_0_5_0
 70
    0
 62
  230
  6
CONTINUOUS
370
    0
390
F
  0
LAYER
  5
55
330
2
100
AcDbSymbolTableRecord
100
AcDbLayerTableRecord
  2
V_Fraes_5_0_0
 70
    0
 62
    6
  6
CONTINUOUS
370
   -3
390
F
  0
LAYER
  5
56
330
2
100
AcDbSymbolTableRecord
100
AcDbLayerTableRecord
  2
V_Fraes_5_0_1
 70
    0
 62
  216
  6
CONTINUOUS
370
    0
390
F
  0
LAYER
  5
57
330
2
100
AcDbSymbolTableRecord
100
AcDbLayerTableRecord
  2
V_Saeg0D_6_5
 70
    0
 62
    4
  6
CONTINUOUS
370
   -3
390
F
  0
LAYER
  5
58
330
2
100
AcDbSymbolTableRecord
100
AcDbLayerTableRecord
  2
WERKSTK_19_5
 70
    0
 62
    7
  6
CONTINUOUS
370
   -3
390
F
  0
ENDTAB
  0
TABLE
  2
STYLE
  5
3
330
0
100
AcDbSymbolTable
 70
    3
  0
STYLE
  5
59
330
2
100
AcDbSymbolTableRecord
100
AcDbTextStyleTableRecord
  2
Standard
 70
    0
 40
0
 41
1
 50
0
 71
    0
 42
1
  3
txt
  4

  0
ENDTAB
  0
TABLE
  2
VIEW
  5
6
330
0
100
AcDbSymbolTable
 70
    0
  0
ENDTAB
  0
TABLE
  2
UCS
  5
7
330
0
100
AcDbSymbolTable
 70
    0
  0
ENDTAB
  0
TABLE
  2
APPID
  5
9
330
0
100
AcDbSymbolTable
 70
    1
  0
APPID
  5
12
330
9
100
AcDbSymbolTableRecord
100
AcDbRegAppTableRecord
  2
ACAD
 70
    0
  0
APPID
  5
5A
330
9
100
AcDbSymbolTableRecord
100
AcDbRegAppTableRecord
  2
LibreCad
 70
    0
  0
ENDTAB
  0
TABLE
  2
DIMSTYLE
  5
A
330
0
100
AcDbSymbolTable
 70
    1
100
AcDbDimStyleTable
 71
    1
  0
DIMSTYLE
105
5B
330
A
100
AcDbSymbolTableRecord
100
AcDbDimStyleTableRecord
  2
Standard
 70
    0
 40
1
 41
0.12
 42
0.05
 43
0.38
 44
0.1
 45
0
 46
0
 47
0
 48
0
 49
1
140
0.12
141
0.09
142
0
143
25.4
144
1
145
0
146
1
147
0.06
148
0
 71
    0
 72
    0
 73
    1
 74
    1
 75
    0
 76
    0
 77
    0
 78
    0
 79
    0
170
    0
171
    2
172
    0
173
    0
174
    0
175
    0
176
    0
177
    0
178
    0
179
    0
271
    4
272
    4
273
    2
274
    2
275
    0
276
    0
277
    2
278
   46
279
    0
280
    0
281
    0
282
    0
283
    1
284
    0
285
    0
286
    0
288
    0
289
    3
340
Standard
341

371
   -2
372
   -2
  0
ENDTAB
  0
TABLE
  2
BLOCK_RECORD
  5
1
330
0
100
AcDbSymbolTable
 70
    2
  0
BLOCK_RECORD
  5
1F
330
1
100
AcDbSymbolTableRecord
100
AcDbBlockTableRecord
  2
*Model_Space
 70
    0
280
    1
281
    0
  0
BLOCK_RECORD
  5
1E
330
1
100
AcDbSymbolTableRecord
100
AcDbBlockTableRecord
  2
*Paper_Space
 70
    0
280
    1
281
    0
  0
BLOCK_RECORD
  5
5C
330
1
100
AcDbSymbolTableRecord
100
AcDbBlockTableRecord
  2
GENAXEH
 70
    0
280
    1
281
    0
  0
ENDTAB
  0
ENDSEC
  0
SECTION
  2
BLOCKS
  0
BLOCK
  5
20
330
1F
100
AcDbEntity
  8
0
100
AcDbBlockBegin
  2
*Model_Space
 70
    0
 10
0
 20
0
 30
0
  3
*Model_Space
  1

  0
ENDBLK
  5
21
330
1F
100
AcDbEntity
  8
0
100
AcDbBlockEnd
  0
BLOCK
  5
1C
330
1B
100
AcDbEntity
  8
0
100
AcDbBlockBegin
  2
*Paper_Space
 70
    0
 10
0
 20
0
 30
0
  3
*Paper_Space
  1

  0
ENDBLK
  5
1D
330
1F
100
AcDbEntity
  8
0
100
AcDbBlockEnd
  0
BLOCK
  5
5D
330
5C
100
AcDbEntity
  8
0
100
AcDbBlockBegin
  2
GENAXEH
 70
    0
 10
0
 20
0
  3
GENAXEH
  1

  0
LINE
  5
5F
100
AcDbEntity
  8
0
  6
ByLayer
 62
  256
370
   -1
100
AcDbLine
 10
-1
 20
0
 11
1
 21
0
  0
ENDBLK
  5
5E
330
5C
100
AcDbEntity
  8
0
100
AcDbBlockEnd
  0
ENDSEC
  0
SECTION
  2
ENTITIES
  0
LINE
  5
60
100
AcDbEntity
  8
WERKSTK_19_5
  6
ByLayer
 62
    0
370
   -1
100
AcDbLine
 10
0
 20
0
 11
800
 21
0
  0
LINE
  5
61
100
AcDbEntity
  8
WERKSTK_19_5
  6
ByLayer
 62
    0
370
   -1
100
AcDbLine
 10
800
 20
0
 11
800
 21
600
  0
LINE
  5
62
100
AcDbEntity
  8
WERKSTK_19_5
  6
ByLayer
 62
    0
370
   -1
100
AcDbLine
 10
800
 20
600
 11
0
 21
600
  0
LINE
  5
63
100
AcDbEntity
  8
WERKSTK_19_5
  6
ByLayer
 62
    0
370
   -1
100
AcDbLine
 10
0
 20
600
 11
0
 21
0
  0
CIRCLE
  5
64
100
AcDbEntity
  8
V_BOHRLS_12_0
  6
ByLayer
 62
    5
370
   -1
100
AcDbCircle
 10
393.764261745
 20
116.032904549
 40
4
  0
CIRCLE
  5
65
100
AcDbEntity
  8
V_BOHRLS_12_0
  6
ByLayer
 62
    5
370
   -1
100
AcDbCircle
 10
443.764261745
 20
116.032904549
 40
4
  0
CIRCLE
  5
66
100
AcDbEntity
  8
V_BOHRLS_12_0
  6
ByLayer
 62
    5
370
   -1
100
AcDbCircle
 10
493.764261745
 20
116.032904549
 40
4
  0
CIRCLE
  5
67
100
AcDbEntity
  8
V_BOHRLS_12_0
  6
ByLayer
 62
    5
370
   -1
100
AcDbCircle
 10
543.764261745
 20
116.032904549
 40
4
  0
CIRCLE
  5
68
100
AcDbEntity
  8
V_BOHRLS_12_0
  6
ByLayer
 62
    5
370
   -1
100
AcDbCircle
 10
608.758482476
 20
181.02712528
 40
4
  0
CIRCLE
  5
69
100
AcDbEntity
  8
V_BOHRLS_12_0
  6
ByLayer
 62
    5
370
   -1
100
AcDbCircle
 10
608.758482476
 20
231.02712528
 40
4
  0
CIRCLE
  5
6A
100
AcDbEntity
  8
V_BOHRLS_12_0
  6
ByLayer
 62
    5
370
   -1
100
AcDbCircle
 10
608.758482476
 20
281.02712528
 40
4
  0
CIRCLE
  5
6B
100
AcDbEntity
  8
V_BOHRLS_12_0
  6
ByLayer
 62
    5
370
   -1
100
AcDbCircle
 10
608.758482476
 20
331.02712528
 40
4
  0
CIRCLE
  5
6C
100
AcDbEntity
  8
V_BOHRLS_11_0
  6
ByLayer
 62
   30
370
   -1
100
AcDbCircle
 10
40
 20
18.5
 40
7.5
  0
CIRCLE
  5
6D
100
AcDbEntity
  8
V_BOHRLS_11_0
  6
ByLayer
 62
   30
370
   -1
100
AcDbCircle
 10
182
 20
18.5
 40
7.5
  0
CIRCLE
  5
6E
100
AcDbEntity
  8
V_BOHRLS_11_0
  6
ByLayer
 62
   30
370
   -1
100
AcDbCircle
 10
324
 20
18.5
 40
7.5
  0
CIRCLE
  5
6F
100
AcDbEntity
  8
V_BOHRLS_11_0
  6
ByLayer
 62
   30
370
   -1
100
AcDbCircle
 10
466
 20
18.5
 40
7.5
  0
CIRCLE
  5
70
100
AcDbEntity
  8
V_BOHRLS_11_0
  6
ByLayer
 62
   30
370
   -1
100
AcDbCircle
 10
608
 20
18.5
 40
7.5
  0
CIRCLE
  5
71
100
AcDbEntity
  8
V_BOHRLS_11_0
  6
ByLayer
 62
   30
370
   -1
100
AcDbCircle
 10
750
 20
18.5
 40
7.5
  0
LINE
  5
72
100
AcDbEntity
  8
H_BOHR_9_5_0
  6
ByLayer
 62
    1
370
   -1
100
AcDbLine
 10
29
 20
600
 11
21
 21
600
  0
LINE
  5
73
100
AcDbEntity
  8
H_BOHR_9_5_0
  6
ByLayer
 62
    1
370
   -1
100
AcDbLine
 10
21
 20
600
 11
21
 21
570
  0
LINE
  5
74
100
AcDbEntity
  8
H_BOHR_9_5_0
  6
ByLayer
 62
    1
370
   -1
100
AcDbLine
 10
21
 20
570
 11
29
 21
570
  0
LINE
  5
75
100
AcDbEntity
  8
H_BOHR_9_5_0
  6
ByLayer
 62
    1
370
   -1
100
AcDbLine
 10
29
 20
570
 11
29
 21
600
  0
LINE
  5
76
100
AcDbEntity
  8
H_BOHR_9_5_0
  6
ByLayer
 62
    1
370
   -1
100
AcDbLine
 10
112.333333333
 20
600
 11
104.333333333
 21
600
  0
LINE
  5
77
100
AcDbEntity
  8
H_BOHR_9_5_0
  6
ByLayer
 62
    1
370
   -1
100
AcDbLine
 10
104.333333333
 20
600
 11
104.333333333
 21
570
  0
LINE
  5
78
100
AcDbEntity
  8
H_BOHR_9_5_0
  6
ByLayer
 62
    1
370
   -1
100
AcDbLine
 10
104.333333333
 20
570
 11
112.333333333
 21
570
  0
LINE
  5
79
100
AcDbEntity
  8
H_BOHR_9_5_0
  6
ByLayer
 62
    1
370
   -1
100
AcDbLine
 10
112.333333333
 20
570
 11
112.333333333
 21
600
  0
LINE
  5
7A
100
AcDbEntity
  8
H_BOHR_9_5_0
  6
ByLayer
 62
    1
370
   -1
100
AcDbLine
 10
195.666666667
 20
600
 11
187.666666667
 21
600
  0
LINE
  5
7B
100
AcDbEntity
  8
H_BOHR_9_5_0
  6
ByLayer
 62
    1
370
   -1
100
AcDbLine
 10
187.666666667
 20
600
 11
187.666666667
 21
570
  0
LINE
  5
7C
100
AcDbEntity
  8
H_BOHR_9_5_0
  6
ByLayer
 62
    1
370
   -1
100
AcDbLine
 10
187.666666667
 20
570
 11
195.666666667
 21
570
  0
LINE
  5
7D
100
AcDbEntity
  8
H_BOHR_9_5_0
  6
ByLayer
 62
    1
370
   -1
100
AcDbLine
 10
195.666666667
 20
570
 11
195.666666667
 21
600
  0
LINE
  5
7E
100
AcDbEntity
  8
H_BOHR_9_5_0
  6
ByLayer
 62
    1
370
   -1
100
AcDbLine
 10
279
 20
600
 11
271
 21
600
  0
LINE
  5
7F
100
AcDbEntity
  8
H_BOHR_9_5_0
  6
ByLayer
 62
    1
370
   -1
100
AcDbLine
 10
271
 20
600
 11
271
 21
570
  0
LINE
  5
80
100
AcDbEntity
  8
H_BOHR_9_5_0
  6
ByLayer
 62
    1
370
   -1
100
AcDbLine
 10
271
 20
570
 11
279
 21
570
  0
LINE
  5
81
100
AcDbEntity
  8
H_BOHR_9_5_0
  6
ByLayer
 62
    1
370
   -1
100
AcDbLine
 10
279
 20
570
 11
279
 21
600
  0
LINE
  5
82
100
AcDbEntity
  8
H_BOHR_9_5_0
  6
ByLayer
 62
    1
370
   -1
100
AcDbLine
 10
800
 20
371
 11
800
 21
379
  0
LINE
  5
83
100
AcDbEntity
  8
H_BOHR_9_5_0
  6
ByLayer
 62
    1
370
   -1
100
AcDbLine
 10
800
 20
379
 11
770
 21
379
  0
LINE
  5
84
100
AcDbEntity
  8
H_BOHR_9_5_0
  6
ByLayer
 62
    1
370
   -1
100
AcDbLine
 10
770
 20
379
 11
770
 21
371
  0
LINE
  5
85
100
AcDbEntity
  8
H_BOHR_9_5_0
  6
ByLayer
 62
    1
370
   -1
100
AcDbLine
 10
770
 20
371
 11
800
 21
371
  0
LINE
  5
86
100
AcDbEntity
  8
H_BOHR_9_5_0
  6
ByLayer
 62
    1
370
   -1
100
AcDbLine
 10
800
 20
421
 11
800
 21
429
  0
LINE
  5
87
100
AcDbEntity
  8
H_BOHR_9_5_0
  6
ByLayer
 62
    1
370
   -1
100
AcDbLine
 10
800
 20
429
 11
770
 21
429
  0
LINE
  5
88
100
AcDbEntity
  8
H_BOHR_9_5_0
  6
ByLayer
 62
    1
370
   -1
100
AcDbLine
 10
770
 20
429
 11
770
 21
421
  0
LINE
  5
89
100
AcDbEntity
  8
H_BOHR_9_5_0
  6
ByLayer
 62
    1
370
   -1
100
AcDbLine
 10
770
 20
421
 11
800
 21
421
  0
LINE
  5
8A
100
AcDbEntity
  8
H_BOHR_9_5_0
  6
ByLayer
 62
    1
370
   -1
100
AcDbLine
 10
800
 20
471
 11
800
 21
479
  0
LINE
  5
8B
100
AcDbEntity
  8
H_BOHR_9_5_0
  6
ByLayer
 62
    1
370
   -1
100
AcDbLine
 10
800
 20
479
 11
770
 21
479
  0
LINE
  5
8C
100
AcDbEntity
  8
H_BOHR_9_5_0
  6
ByLayer
 62
    1
370
   -1
100
AcDbLine
 10
770
 20
479
 11
770
 21
471
  0
LINE
  5
8D
100
AcDbEntity
  8
H_BOHR_9_5_0
  6
ByLayer
 62
    1
370
   -1
100
AcDbLine
 10
770
 20
471
 11
800
 21
471
  0
LINE
  5
8E
100
AcDbEntity
  8
H_BOHR_9_5_0
  6
ByLayer
 62
    1
370
   -1
100
AcDbLine
 10
800
 20
521
 11
800
 21
529
  0
LINE
  5
8F
100
AcDbEntity
  8
H_BOHR_9_5_0
  6
ByLayer
 62
    1
370
   -1
100
AcDbLine
 10
800
 20
529
 11
770
 21
529
  0
LINE
  5
90
100
AcDbEntity
  8
H_BOHR_9_5_0
  6
ByLayer
 62
    1
370
   -1
100
AcDbLine
 10
770
 20
529
 11
770
 21
521
  0
LINE
  5
91
100
AcDbEntity
  8
H_BOHR_9_5_0
  6
ByLayer
 62
    1
370
   -1
100
AcDbLine
 10
770
 20
521
 11
800
 21
521
  0
LINE
  5
92
100
AcDbEntity
  8
H_BOHR_9_5_0
  6
ByLayer
 62
    1
370
   -1
100
AcDbLine
 10
0
 20
229
 11
0
 21
221
  0
LINE
  5
93
100
AcDbEntity
  8
H_BOHR_9_5_0
  6
ByLayer
 62
    1
370
   -1
100
AcDbLine
 10
0
 20
221
 11
30
 21
221
  0
LINE
  5
94
100
AcDbEntity
  8
H_BOHR_9_5_0
  6
ByLayer
 62
    1
370
   -1
100
AcDbLine
 10
30
 20
221
 11
30
 21
229
  0
LINE
  5
95
100
AcDbEntity
  8
H_BOHR_9_5_0
  6
ByLayer
 62
    1
370
   -1
100
AcDbLine
 10
30
 20
229
 11
0
 21
229
  0
LINE
  5
96
100
AcDbEntity
  8
H_BOHR_9_5_0
  6
ByLayer
 62
    1
370
   -1
100
AcDbLine
 10
0
 20
334
 11
0
 21
326
  0
LINE
  5
97
100
AcDbEntity
  8
H_BOHR_9_5_0
  6
ByLayer
 62
    1
370
   -1
100
AcDbLine
 10
0
 20
326
 11
30
 21
326
  0
LINE
  5
98
100
AcDbEntity
  8
H_BOHR_9_5_0
  6
ByLayer
 62
    1
370
   -1
100
AcDbLine
 10
30
 20
326
 11
30
 21
334
  0
LINE
  5
99
100
AcDbEntity
  8
H_BOHR_9_5_0
  6
ByLayer
 62
    1
370
   -1
100
AcDbLine
 10
30
 20
334
 11
0
 21
334
  0
LINE
  5
9A
100
AcDbEntity
  8
H_BOHR_9_5_0
  6
ByLayer
 62
    1
370
   -1
100
AcDbLine
 10
0
 20
439
 11
0
 21
431
  0
LINE
  5
9B
100
AcDbEntity
  8
H_BOHR_9_5_0
  6
ByLayer
 62
    1
370
   -1
100
AcDbLine
 10
0
 20
431
 11
30
 21
431
  0
LINE
  5
9C
100
AcDbEntity
  8
H_BOHR_9_5_0
  6
ByLayer
 62
    1
370
   -1
100
AcDbLine
 10
30
 20
431
 11
30
 21
439
  0
LINE
  5
9D
100
AcDbEntity
  8
H_BOHR_9_5_0
  6
ByLayer
 62
    1
370
   -1
100
AcDbLine
 10
30
 20
439
 11
0
 21
439
  0
LINE
  5
9E
100
AcDbEntity
  8
H_BOHR_9_5_0
  6
ByLayer
 62
    1
370
   -1
100
AcDbLine
 10
0
 20
544
 11
0
 21
536
  0
LINE
  5
9F
100
AcDbEntity
  8
H_BOHR_9_5_0
  6
ByLayer
 62
    1
370
   -1
100
AcDbLine
 10
0
 20
536
 11
30
 21
536
  0
LINE
  5
A0
100
AcDbEntity
  8
H_BOHR_9_5_0
  6
ByLayer
 62
    1
370
   -1
100
AcDbLine
 10
30
 20
536
 11
30
 21
544
  0
LINE
  5
A1
100
AcDbEntity
  8
H_BOHR_9_5_0
  6
ByLayer
 62
    1
370
   -1
100
AcDbLine
 10
30
 20
544
 11
0
 21
544
  0
LINE
  5
A2
100
AcDbEntity
  8
H_BOHR_9_5_0
  6
ByLayer
 62
    1
370
   -1
100
AcDbLine
 10
36
 20
0
 11
44
 21
0
  0
LINE
  5
A3
100
AcDbEntity
  8
H_BOHR_9_5_0
  6
ByLayer
 62
    1
370
   -1
100
AcDbLine
 10
44
 20
0
 11
44
 21
18.5
  0
LINE
  5
A4
100
AcDbEntity
  8
H_BOHR_9_5_0
  6
ByLayer
 62
    1
370
   -1
100
AcDbLine
 10
44
 20
18.5
 11
36
 21
18.5
  0
LINE
  5
A5
100
AcDbEntity
  8
H_BOHR_9_5_0
  6
ByLayer
 62
    1
370
   -1
100
AcDbLine
 10
36
 20
18.5
 11
36
 21
0
  0
LINE
  5
A6
100
AcDbEntity
  8
H_BOHR_9_5_0
  6
ByLayer
 62
    1
370
   -1
100
AcDbLine
 10
178
 20
0
 11
186
 21
0
  0
LINE
  5
A7
100
AcDbEntity
  8
H_BOHR_9_5_0
  6
ByLayer
 62
    1
370
   -1
100
AcDbLine
 10
186
 20
0
 11
186
 21
18.5
  0
LINE
  5
A8
100
AcDbEntity
  8
H_BOHR_9_5_0
  6
ByLayer
 62
    1
370
   -1
100
AcDbLine
 10
186
 20
18.5
 11
178
 21
18.5
  0
LINE
  5
A9
100
AcDbEntity
  8
H_BOHR_9_5_0
  6
ByLayer
 62
    1
370
   -1
100
AcDbLine
 10
178
 20
18.5
 11
178
 21
0
  0
LINE
  5
AA
100
AcDbEntity
  8
H_BOHR_9_5_0
  6
ByLayer
 62
    1
370
   -1
100
AcDbLine
 10
320
 20
0
 11
328
 21
0
  0
LINE
  5
AB
100
AcDbEntity
  8
H_BOHR_9_5_0
  6
ByLayer
 62
    1
370
   -1
100
AcDbLine
 10
328
 20
0
 11
328
 21
18.5
  0
LINE
  5
AC
100
AcDbEntity
  8
H_BOHR_9_5_0
  6
ByLayer
 62
    1
370
   -1
100
AcDbLine
 10
328
 20
18.5
 11
320
 21
18.5
  0
LINE
  5
AD
100
AcDbEntity
  8
H_BOHR_9_5_0
  6
ByLayer
 62
    1
370
   -1
100
AcDbLine
 10
320
 20
18.5
 11
320
 21
0
  0
LINE
  5
AE
100
AcDbEntity
  8
H_BOHR_9_5_0
  6
ByLayer
 62
    1
370
   -1
100
AcDbLine
 10
462
 20
0
 11
470
 21
0
  0
LINE
  5
AF
100
AcDbEntity
  8
H_BOHR_9_5_0
  6
ByLayer
 62
    1
370
   -1
100
AcDbLine
 10
470
 20
0
 11
470
 21
18.5
  0
LINE
  5
B0
100
AcDbEntity
  8
H_BOHR_9_5_0
  6
ByLayer
 62
    1
370
   -1
100
AcDbLine
 10
470
 20
18.5
 11
462
 21
18.5
  0
LINE
  5
B1
100
AcDbEntity
  8
H_BOHR_9_5_0
  6
ByLayer
 62
    1
370
   -1
100
AcDbLine
 10
462
 20
18.5
 11
462
 21
0
  0
LINE
  5
B2
100
AcDbEntity
  8
H_BOHR_9_5_0
  6
ByLayer
 62
    1
370
   -1
100
AcDbLine
 10
604
 20
0
 11
612
 21
0
  0
LINE
  5
B3
100
AcDbEntity
  8
H_BOHR_9_5_0
  6
ByLayer
 62
    1
370
   -1
100
AcDbLine
 10
612
 20
0
 11
612
 21
18.5
  0
LINE
  5
B4
100
AcDbEntity
  8
H_BOHR_9_5_0
  6
ByLayer
 62
    1
370
   -1
100
AcDbLine
 10
612
 20
18.5
 11
604
 21
18.5
  0
LINE
  5
B5
100
AcDbEntity
  8
H_BOHR_9_5_0
  6
ByLayer
 62
    1
370
   -1
100
AcDbLine
 10
604
 20
18.5
 11
604
 21
0
  0
LINE
  5
B6
100
AcDbEntity
  8
H_BOHR_9_5_0
  6
ByLayer
 62
    1
370
   -1
100
AcDbLine
 10
746
 20
0
 11
754
 21
0
  0
LINE
  5
B7
100
AcDbEntity
  8
H_BOHR_9_5_0
  6
ByLayer
 62
    1
370
   -1
100
AcDbLine
 10
754
 20
0
 11
754
 21
18.5
  0
LINE
  5
B8
100
AcDbEntity
  8
H_BOHR_9_5_0
  6
ByLayer
 62
    1
370
   -1
100
AcDbLine
 10
754
 20
18.5
 11
746
 21
18.5
  0
LINE
  5
B9
100
AcDbEntity
  8
H_BOHR_9_5_0
  6
ByLayer
 62
    1
370
   -1
100
AcDbLine
 10
746
 20
18.5
 11
746
 21
0
  0
LINE
  5
BA
100
AcDbEntity
  8
V_FrEck_5_0
  6
CONTINUOUS
 62
  256
370
   -1
100
AcDbLine
 10
700
 20
600
 11
800
 21
600
  0
LINE
  5
BB
100
AcDbEntity
  8
V_FrEck_5_0
  6
CONTINUOUS
 62
  256
370
   -1
100
AcDbLine
 10
800
 20
600
 11
800
 21
570
  0
LINE
  5
BC
100
AcDbEntity
  8
V_FrEck_5_0
  6
CONTINUOUS
 62
  256
370
   -1
100
AcDbLine
 10
800
 20
570
 11
700
 21
570
  0
LINE
  5
BD
100
AcDbEntity
  8
V_FrEck_5_0
  6
CONTINUOUS
 62
  256
370
   -1
100
AcDbLine
 10
700
 20
570
 11
700
 21
600
  0
LINE
  5
BE
100
AcDbEntity
  8
V_FrRecht_5_0_0
  6
CONTINUOUS
 62
  256
370
   -1
100
AcDbLine
 10
284.27679212
 20
199.285455788
 11
284.27679212
 21
299.285455788
  0
LINE
  5
BF
100
AcDbEntity
  8
V_FrRecht_5_0_0
  6
CONTINUOUS
 62
  256
370
   -1
100
AcDbLine
 10
284.27679212
 20
299.285455788
 11
484.27679212
 21
299.285455788
  0
LINE
  5
C0
100
AcDbEntity
  8
V_FrRecht_5_0_0
  6
CONTINUOUS
 62
  256
370
   -1
100
AcDbLine
 10
484.27679212
 20
299.285455788
 11
484.27679212
 21
199.285455788
  0
LINE
  5
C1
100
AcDbEntity
  8
V_FrRecht_5_0_0
  6
CONTINUOUS
 62
  256
370
   -1
100
AcDbLine
 10
484.27679212
 20
199.285455788
 11
284.27679212
 21
199.285455788
  0
LINE
  5
C2
100
AcDbEntity
  8
V_Fraes_5_0_0
  6
CONTINUOUS
 62
  256
370
   -1
100
AcDbLine
 10
705.643619562
 20
292.064915559
 11
705.643619562
 21
192.064915559
  0
CIRCLE
  5
C3
100
AcDbEntity
  8
V_Fraes_5_0_0
  6
CONTINUOUS
 62
  256
370
   -1
100
AcDbCircle
 10
157.256067311
 20
367.14303252
 40
50
  0
ARC
  5
C4
100
AcDbEntity
  8
V_Fraes_5_0_0
  6
CONTINUOUS
 62
  256
370
   -1
100
AcDbCircle
 10
207.980971606
 20
189.609914928
 40
114.273641251
100
AcDbArc
 50
178.51509589
 51
271.51168581
  0
LINE
  5
C5
100
AcDbEntity
  8
V_Saeg0D_6_5
  6
CONTINUOUS
 62
  256
370
   -1
100
AcDbLine
 10
5
 20
510
 11
795
 21
510
  0
LINE
  5
C6
100
AcDbEntity
  8
V_Saeg0D_6_5
  6
CONTINUOUS
 62
  256
370
   -1
100
AcDbLine
 10
5
 20
506
 11
795
 21
506
  0
LINE
  5
C7
100
AcDbEntity
  8
V_FrRecht_5_0_1
  6
ByLayer
 62
  256
370
   -1
100
AcDbLine
 10
300
 20
430
 11
360
 21
430
  0
LINE
  5
C8
100
AcDbEntity
  8
V_FrRecht_5_0_1
  6
ByLayer
 62
  256
370
   -1
100
AcDbLine
 10
360
 20
430
 11
360
 21
310
  0
LINE
  5
C9
100
AcDbEntity
  8
V_FrRecht_5_0_1
  6
ByLayer
 62
  256
370
   -1
100
AcDbLine
 10
360
 20
310
 11
300
 21
310
  0
LINE
  5
CA
100
AcDbEntity
  8
V_FrRecht_5_0_1
  6
ByLayer
 62
  256
370
   -1
100
AcDbLine
 10
300
 20
310
 11
300
 21
430
  0
CIRCLE
  5
CB
100
AcDbEntity
  8
V_Fraes_5_0_1
  6
ByLayer
 62
  256
370
   -1
100
AcDbCircle
 10
185
 20
240
 40
45
  0
LINE
  5
CC
100
AcDbEntity
  8
V_FrEck_19_5
  6
ByLayer
 62
  256
370
   -1
100
AcDbLine
 10
800
 20
0
 11
770
 21
0
  0
LINE
  5
CD
100
AcDbEntity
  8
V_FrEck_19_5
  6
ByLayer
 62
  256
370
   -1
100
AcDbLine
 10
770
 20
0
 11
770
 21
100
  0
LINE
  5
CE
100
AcDbEntity
  8
V_FrEck_19_5
  6
ByLayer
 62
  256
370
   -1
100
AcDbLine
 10
770
 20
100
 11
800
 21
100
  0
LINE
  5
CF
100
AcDbEntity
  8
V_FrEck_19_5
  6
ByLayer
 62
  256
370
   -1
100
AcDbLine
 10
800
 20
100
 11
800
 21
0
  0
CIRCLE
  5
D0
100
AcDbEntity
  8
V_BOHRLS_11_0
  6
ByLayer
 62
  256
370
   -1
100
AcDbCircle
 10
680.5
 20
60
 40
17.5
  0
LINE
  5
D1
100
AcDbEntity
  8
V_Fraes_0_5_0
  6
ByLayer
 62
  256
370
   -1
100
AcDbLine
 10
400
 20
400
 11
400
 21
420
  0
LINE
  5
D2
100
AcDbEntity
  8
V_Fraes_0_5_0
  6
ByLayer
 62
  256
370
   -1
100
AcDbLine
 10
411.111111111
 20
400
 11
411.111111111
 21
420
  0
LINE
  5
D3
100
AcDbEntity
  8
V_Fraes_0_5_0
  6
ByLayer
 62
  256
370
   -1
100
AcDbLine
 10
400
 20
411.111111111
 11
411.111111111
 21
411.111111111
  0
LINE
  5
D4
100
AcDbEntity
  8
V_Fraes_0_5_0
  6
ByLayer
 62
  256
370
   -1
100
AcDbLine
 10
426.666666667
 20
400
 11
417.777777778
 21
400
  0
LINE
  5
D5
100
AcDbEntity
  8
V_Fraes_0_5_0
  6
ByLayer
 62
  256
370
   -1
100
AcDbLine
 10
417.777777778
 20
400
 11
417.777777778
 21
420
  0
LINE
  5
D6
100
AcDbEntity
  8
V_Fraes_0_5_0
  6
ByLayer
 62
  256
370
   -1
100
AcDbLine
 10
417.777777778
 20
420
 11
426.666666667
 21
420
  0
LINE
  5
D7
100
AcDbEntity
  8
V_Fraes_0_5_0
  6
ByLayer
 62
  256
370
   -1
100
AcDbLine
 10
417.777777778
 20
411.111111111
 11
424.444444444
 21
411.111111111
  0
LINE
  5
D8
100
AcDbEntity
  8
V_Fraes_0_5_0
  6
ByLayer
 62
  256
370
   -1
100
AcDbLine
 10
433.333333333
 20
420
 11
433.333333333
 21
400
  0
LINE
  5
D9
100
AcDbEntity
  8
V_Fraes_0_5_0
  6
ByLayer
 62
  256
370
   -1
100
AcDbLine
 10
433.333333333
 20
400
 11
442.222222222
 21
400
  0
LINE
  5
DA
100
AcDbEntity
  8
V_Fraes_0_5_0
  6
ByLayer
 62
  256
370
   -1
100
AcDbLine
 10
448.888888889
 20
420
 11
448.888888889
 21
400
  0
LINE
  5
DB
100
AcDbEntity
  8
V_Fraes_0_5_0
  6
ByLayer
 62
  256
370
   -1
100
AcDbLine
 10
448.888888889
 20
400
 11
457.777777778
 21
400
  0
ARC
  5
DC
100
AcDbEntity
  8
V_Fraes_0_5_0
  6
ByLayer
 62
  256
370
   -1
100
AcDbCircle
 10
470
 20
405.555555556
 40
5.55555555556
100
AcDbArc
 50
180
 51
0
  0
LINE
  5
DD
100
AcDbEntity
  8
V_Fraes_0_5_0
  6
ByLayer
 62
  256
370
   -1
100
AcDbLine
 10
464.444444444
 20
405.555555556
 11
464.444444444
 21
414.444444444
  0
ARC
  5
DE
100
AcDbEntity
  8
V_Fraes_0_5_0
  6
ByLayer
 62
  256
370
   -1
100
AcDbCircle
 10
470
 20
414.444444444
 40
5.55555555556
100
AcDbArc
 50
0
 51
180
  0
LINE
  5
DF
100
AcDbEntity
  8
V_Fraes_0_5_0
  6
ByLayer
 62
  256
370
   -1
100
AcDbLine
 10
475.555555556
 20
414.444444444
 11
475.555555556
 21
405.555555556
  0
LINE
  5
E0
100
AcDbEntity
  8
V_Fraes_0_5_0
  6
ByLayer
 62
  256
370
   -1
100
AcDbLine
 10
400
 20
366.666666667
 11
400
 21
386.666666667
  0
LINE
  5
E1
100
AcDbEntity
  8
V_Fraes_0_5_0
  6
ByLayer
 62
  256
370
   -1
100
AcDbLine
 10
411.111111111
 20
366.666666667
 11
411.111111111
 21
386.666666667
  0
LINE
  5
E2
100
AcDbEntity
  8
V_Fraes_0_5_0
  6
ByLayer
 62
  256
370
   -1
100
AcDbLine
 10
400
 20
377.777777778
 11
411.111111111
 21
377.777777778
  0
LINE
  5
E3
100
AcDbEntity
  8
V_Fraes_0_5_0
  6
ByLayer
 62
  256
370
   -1
100
AcDbLine
 10
426.666666667
 20
366.666666667
 11
421.111111111
 21
366.666666667
  0
ARC
  5
E4
100
AcDbEntity
  8
V_Fraes_0_5_0
  6
ByLayer
 62
  256
370
   -1
100
AcDbCircle
 10
421.111108621
 20
369.99999751
 40
3.33333084308
100
AcDbArc
 50
179.999957196
 51
270.0000428039999
  0
LINE
  5
E5
100
AcDbEntity
  8
V_Fraes_0_5_0
  6
ByLayer
 62
  256
370
   -1
100
AcDbLine
 10
417.777777778
 20
370
 11
417.777777778
 21
375.555555556
  0
ARC
  5
E6
100
AcDbEntity
  8
V_Fraes_0_5_0
  6
ByLayer
 62
  256
370
   -1
100
AcDbCircle
 10
422.222222222
 20
375.555555556
 40
4.44444444444
100
AcDbArc
 50
0
 51
180
  0
LINE
  5
E7
100
AcDbEntity
  8
V_Fraes_0_5_0
  6
ByLayer
 62
  256
370
   -1
100
AcDbLine
 10
426.666666667
 20
375.555555556
 11
426.666666667
 21
373.333333333
  0
LINE
  5
E8
100
AcDbEntity
  8
V_Fraes_0_5_0
  6
ByLayer
 62
  256
370
   -1
100
AcDbLine
 10
426.666666667
 20
373.333333333
 11
417.777777778
 21
373.333333333
  0
LINE
  5
E9
100
AcDbEntity
  8
V_Fraes_0_5_0
  6
ByLayer
 62
  256
370
   -1
100
AcDbLine
 10
433.333333333
 20
386.666666667
 11
433.333333333
 21
368.888888889
  0
ARC
  5
EA
100
AcDbEntity
  8
V_Fraes_0_5_0
  6
ByLayer
 62
  256
370
   -1
100
AcDbCircle
 10
435.555553895
 20
368.888887229
 40
2.22222056206
100
AcDbArc
 50
179.999957196
 51
270.0000428039999
  0
LINE
  5
EB
100
AcDbEntity
  8
V_Fraes_0_5_0
  6
ByLayer
 62
  256
370
   -1
100
AcDbLine
 10
442.222222222
 20
386.666666667
 11
442.222222222
 21
368.888888889
  0
ARC
  5
EC
100
AcDbEntity
  8
V_Fraes_0_5_0
  6
ByLayer
 62
  256
370
   -1
100
AcDbCircle
 10
444.444442784
 20
368.888887229
 40
2.22222056206
100
AcDbArc
 50
179.999957196
 51
270.0000428039999
  0
ARC
  5
ED
100
AcDbEntity
  8
V_Fraes_0_5_0
  6
ByLayer
 62
  256
370
   -1
100
AcDbCircle
 10
455.555555556
 20
371.111111111
 40
4.44444444444
100
AcDbArc
 50
180
 51
0
  0
LINE
  5
EE
100
AcDbEntity
  8
V_Fraes_0_5_0
  6
ByLayer
 62
  256
370
   -1
100
AcDbLine
 10
451.111111111
 20
371.111111111
 11
451.111111111
 21
375.555555556
  0
ARC
  5
EF
100
AcDbEntity
  8
V_Fraes_0_5_0
  6
ByLayer
 62
  256
370
   -1
100
AcDbCircle
 10
455.555555556
 20
375.555555556
 40
4.44444444444
100
AcDbArc
 50
0
 51
180
  0
LINE
  5
F0
100
AcDbEntity
  8
V_Fraes_0_5_0
  6
ByLayer
 62
  256
370
   -1
100
AcDbLine
 10
460
 20
375.555555556
 11
460
 21
371.111111111
  0
LWPOLYLINE
  5
F1
100
AcDbEntity
  8
HX_LAM_Clamex P-10_10.5
  6
ByLayer
 62
  256
370
   -1
100
AcDbPolyline
 90
    4
 70
    1
 43
0
 10
800
 20
320
 10
790
 20
320
 10
790
 20
250
 10
800
 20
250
  0
LWPOLYLINE
  5
F2
100
AcDbEntity
  8
VX_LAM_Clamex P-10
  6
ByLayer
 62
  256
370
   -1
100
AcDbPolyline
 90
    4
 70
    1
 43
0
 10
680
 20
420
 10
600
 20
420
 10
600
 20
410
 10
680
 20
410
  0
LWPOLYLINE
  5
F3
100
AcDbEntity
  8
VY_LAM_Clamex P-10
  6
ByLayer
 62
  256
370
   -1
100
AcDbPolyline
 90
    5
 70
    1
 43
0
 10
530
 20
400
 10
540
 20
400
 10
540
 20
480
 10
530
 20
480
 10
530
 20
480
  0
ENDSEC
  0
SECTION
  2
OBJECTS
  0
DICTIONARY
  5
C
330
0
100
AcDbDictionary
281
    1
  3
ACAD_GROUP
350
D
  0
DICTIONARY
  5
D
330
C
100
AcDbDictionary
281
    1
  0
ENDSEC
  0
EOF
