  0
SECTION
  2
HEADER
  9
$ACADVER
  1
AC1015
  9
$ACADMAINTVER
 70
     6
  9
$DWGCODEPAGE
  3
ANSI_1252
  9
$INSBASE
 10
0.0
 20
0.0
 30
0.0
  9
$EXTMIN
 10
28.6541593402
 20
84.2892836516
 30
0.0
  9
$EXTMAX
 10
626.8285721533
 20
671.8955815716
 30
0.0
  9
$LIMMIN
 10
0.0
 20
0.0
  9
$LIMMAX
 10
420.0
 20
297.0
  9
$ORTHOMODE
 70
     0
  9
$REGENMODE
 70
     1
  9
$FILLMODE
 70
     1
  9
$QTEXTMODE
 70
     0
  9
$MIRRTEXT
 70
     1
  9
$LTSCALE
 40
1.0
  9
$ATTMODE
 70
     1
  9
$TEXTSIZE
 40
3.5
  9
$TRACEWID
 40
1.0
  9
$TEXTSTYLE
  7
Standard
  9
$CLAYER
  8
0
  9
$CELTYPE
  6
ByLayer
  9
$CECOLOR
 62
   256
  9
$CELTSCALE
 40
1.0
  9
$DISPSILH
 70
     0
  9
$DIMSCALE
 40
1.0
  9
$DIMASZ
 40
3.302
  9
$DIMEXO
 40
1.0
  9
$DIMDLI
 40
3.75
  9
$DIMRND
 40
0.0
  9
$DIMDLE
 40
0.0
  9
$DIMEXE
 40
1.0
  9
$DIMTP
 40
0.0
  9
$DIMTM
 40
0.0
  9
$DIMTXT
 40
3.5
  9
$DIMCEN
 40
2.5
  9
$DIMTSZ
 40
0.0
  9
$DIMTOL
 70
     0
  9
$DIMLIM
 70
     0
  9
$DIMTIH
 70
     1
  9
$DIMTOH
 70
     1
  9
$DIMSE1
 70
     0
  9
$DIMSE2
 70
     0
  9
$DIMTAD
 70
     1
  9
$DIMZIN
 70
     0
  9
$DIMBLK
  1

  9
$DIMASO
 70
     1
  9
$DIMSHO
 70
     1
  9
$DIMPOST
  1

  9
$DIMAPOST
  1

  9
$DIMALT
 70
     0
  9
$DIMALTD
 70
     3
  9
$DIMALTF
 40
0.0393700787
  9
$DIMLFAC
 40
1.0
  9
$DIMTOFL
 70
     1
  9
$DIMTVP
 40
0.0
  9
$DIMTIX
 70
     0
  9
$DIMSOXD
 70
     0
  9
$DIMSAH
 70
     0
  9
$DIMBLK1
  1

  9
$DIMBLK2
  1

  9
$DIMSTYLE
  2
ISO-25
  9
$DIMCLRD
 70
     0
  9
$DIMCLRE
 70
     0
  9
$DIMCLRT
 70
     0
  9
$DIMTFAC
 40
1.0
  9
$DIMGAP
 40
1.524
  9
$DIMJUST
 70
     0
  9
$DIMSD1
 70
     0
  9
$DIMSD2
 70
     0
  9
$DIMTOLJ
 70
     0
  9
$DIMTZIN
 70
     0
  9
$DIMALTZ
 70
     0
  9
$DIMALTTZ
 70
     0
  9
$DIMUPT
 70
     0
  9
$DIMDEC
 70
     5
  9
$DIMTDEC
 70
     5
  9
$DIMALTU
 70
     2
  9
$DIMALTTD
 70
     3
  9
$DIMTXSTY
  7
Standard
  9
$DIMAUNIT
 70
     0
  9
$DIMADEC
 70
     2
  9
$DIMALTRND
 40
0.0
  9
$DIMAZIN
 70
     0
  9
$DIMDSEP
 70
    44
  9
$DIMATFIT
 70
     3
  9
$DIMFRAC
 70
     0
  9
$DIMLDRBLK
  1

  9
$DIMLUNIT
 70
     2
  9
$DIMLWD
 70
    -2
  9
$DIMLWE
 70
    -2
  9
$DIMTMOVE
 70
     0
  9
$LUNITS
 70
     2
  9
$LUPREC
 70
     5
  9
$SKETCHINC
 40
1.0
  9
$FILLETRAD
 40
10.0
  9
$AUNITS
 70
     0
  9
$AUPREC
 70
     2
  9
$MENU
  1
.
  9
$ELEVATION
 40
0.0
  9
$PELEVATION
 40
0.0
  9
$THICKNESS
 40
0.0
  9
$LIMCHECK
 70
     0
  9
$CHAMFERA
 40
0.0
  9
$CHAMFERB
 40
0.0
  9
$CHAMFERC
 40
0.0
  9
$CHAMFERD
 40
0.0
  9
$SKPOLY
 70
     0
  9
$TDCREATE
 40
2458095.97841191
  9
$TDUCREATE
 40
2458095.936745243
  9
$TDUPDATE
 40
2458095.978485046
  9
$TDUUPDATE
 40
2458095.936818379
  9
$TDINDWG
 40
0.0000000116
  9
$TDUSRTIMER
 40
0.0000000116
  9
$USRTIMER
 70
     1
  9
$ANGBASE
 50
0.0
  9
$ANGDIR
 70
     0
  9
$PDMODE
 70
     0
  9
$PDSIZE
 40
-1.0
  9
$PLINEWID
 40
0.0
  9
$SPLFRAME
 70
     0
  9
$SPLINETYPE
 70
     6
  9
$SPLINESEGS
 70
     8
  9
$HANDSEED
  5
EE
  9
$SURFTAB1
 70
     6
  9
$SURFTAB2
 70
     6
  9
$SURFTYPE
 70
     6
  9
$SURFU
 70
     6
  9
$SURFV
 70
     6
  9
$UCSBASE
  2

  9
$UCSNAME
  2

  9
$UCSORG
 10
0.0
 20
0.0
 30
0.0
  9
$UCSXDIR
 10
1.0
 20
0.0
 30
0.0
  9
$UCSYDIR
 10
0.0
 20
1.0
 30
0.0
  9
$UCSORTHOREF
  2

  9
$UCSORTHOVIEW
 70
     0
  9
$UCSORGTOP
 10
0.0
 20
0.0
 30
0.0
  9
$UCSORGBOTTOM
 10
0.0
 20
0.0
 30
0.0
  9
$UCSORGLEFT
 10
0.0
 20
0.0
 30
0.0
  9
$UCSORGRIGHT
 10
0.0
 20
0.0
 30
0.0
  9
$UCSORGFRONT
 10
0.0
 20
0.0
 30
0.0
  9
$UCSORGBACK
 10
0.0
 20
0.0
 30
0.0
  9
$PUCSBASE
  2

  9
$PUCSNAME
  2

  9
$PUCSORG
 10
0.0
 20
0.0
 30
0.0
  9
$PUCSXDIR
 10
1.0
 20
0.0
 30
0.0
  9
$PUCSYDIR
 10
0.0
 20
1.0
 30
0.0
  9
$PUCSORTHOREF
  2

  9
$PUCSORTHOVIEW
 70
     0
  9
$PUCSORGTOP
 10
0.0
 20
0.0
 30
0.0
  9
$PUCSORGBOTTOM
 10
0.0
 20
0.0
 30
0.0
  9
$PUCSORGLEFT
 10
0.0
 20
0.0
 30
0.0
  9
$PUCSORGRIGHT
 10
0.0
 20
0.0
 30
0.0
  9
$PUCSORGFRONT
 10
0.0
 20
0.0
 30
0.0
  9
$PUCSORGBACK
 10
0.0
 20
0.0
 30
0.0
  9
$USERI1
 70
     0
  9
$USERI2
 70
     0
  9
$USERI3
 70
     0
  9
$USERI4
 70
     0
  9
$USERI5
 70
     0
  9
$USERR1
 40
0.0
  9
$USERR2
 40
0.0
  9
$USERR3
 40
0.0
  9
$USERR4
 40
0.0
  9
$USERR5
 40
0.0
  9
$WORLDVIEW
 70
     1
  9
$SHADEDGE
 70
     3
  9
$SHADEDIF
 70
    70
  9
$TILEMODE
 70
     1
  9
$MAXACTVP
 70
    64
  9
$PINSBASE
 10
0.0
 20
0.0
 30
0.0
  9
$PLIMCHECK
 70
     0
  9
$PEXTMIN
 10
1.0000000000E+20
 20
1.0000000000E+20
 30
1.0000000000E+20
  9
$PEXTMAX
 10
-1.0000000000E+20
 20
-1.0000000000E+20
 30
-1.0000000000E+20
  9
$PLIMMIN
 10
0.0
 20
0.0
  9
$PLIMMAX
 10
420.0
 20
297.0
  9
$UNITMODE
 70
     0
  9
$VISRETAIN
 70
     1
  9
$PLINEGEN
 70
     0
  9
$PSLTSCALE
 70
     1
  9
$TREEDEPTH
 70
  3020
  9
$CMLSTYLE
  2
Standard
  9
$CMLJUST
 70
     0
  9
$CMLSCALE
 40
20.0
  9
$PROXYGRAPHICS
 70
     1
  9
$MEASUREMENT
 70
     1
  9
$CELWEIGHT
370
    -1
  9
$ENDCAPS
280
     0
  9
$JOINSTYLE
280
     0
  9
$LWDISPLAY
290
     1
  9
$INSUNITS
 70
     4
  9
$HYPERLINKBASE
  1

  9
$STYLESHEET
  1

  9
$XEDIT
290
     1
  9
$CEPSNTYPE
380
     0
  9
$PSTYLEMODE
290
     1
  9
$FINGERPRINTGUID
  2
{2B95D853-159F-4ADC-A11C-649E3E8A1502}
  9
$VERSIONGUID
  2
{FAEB1C32-E019-11D5-929B-00C0DF256EC4}
  9
$EXTNAMES
290
     1
  9
$PSVPSCALE
 40
0.0
  9
$OLESTARTUP
290
     0
  0
ENDSEC
  0
SECTION
  2
CLASSES
  0
CLASS
  1
ACDBDICTIONARYWDFLT
  2
AcDbDictionaryWithDefault
  3
ObjectDBX Classes
 90
        0
280
     0
281
     0
  0
CLASS
  1
VISUALSTYLE
  2
AcDbVisualStyle
  3
ObjectDBX Classes
 90
     4095
280
     0
281
     0
  0
CLASS
  1
MATERIAL
  2
AcDbMaterial
  3
ObjectDBX Classes
 90
     1153
280
     0
281
     0
  0
CLASS
  1
SCALE
  2
AcDbScale
  3
ObjectDBX Classes
 90
     1153
280
     0
281
     0
  0
CLASS
  1
TABLESTYLE
  2
AcDbTableStyle
  3
ObjectDBX Classes
 90
     4095
280
     0
281
     0
  0
CLASS
  1
MLEADERSTYLE
  2
AcDbMLeaderStyle
  3
ACDB_MLEADERSTYLE_CLASS
 90
     4095
280
     0
281
     0
  0
CLASS
  1
SUN
  2
AcDbSun
  3
SCENEOE
 90
     1153
280
     0
281
     0
  0
CLASS
  1
ACDBPLACEHOLDER
  2
AcDbPlaceHolder
  3
ObjectDBX Classes
 90
        0
280
     0
281
     0
  0
CLASS
  1
LAYOUT
  2
AcDbLayout
  3
ObjectDBX Classes
 90
        0
280
     0
281
     0
  0
ENDSEC
  0
SECTION
  2
TABLES
  0
TABLE
  2
VPORT
  5
8
330
0
100
AcDbSymbolTable
 70
     1
  0
VPORT
  5
29
330
8
100
AcDbSymbolTableRecord
100
AcDbViewportTableRecord
  2
*Active
 70
     0
 10
0.0
 20
0.0
 11
1.0
 21
1.0
 12
327.7413657467
 22
378.0924326116
 13
0.0
 23
0.0
 14
10.0
 24
10.0
 15
10.0
 25
10.0
 16
0.0
 26
0.0
 36
1.0
 17
0.0
 27
0.0
 37
0.0
 40
599.3584238784
 41
1.0179850266
 42
50.0
 43
0.0
 44
0.0
 50
0.0
 51
0.0
 71
     0
 72
   100
 73
     1
 74
     3
 75
     0
 76
     0
 77
     0
 78
     0
281
     0
 65
     1
110
0.0
120
0.0
130
0.0
111
1.0
121
0.0
131
0.0
112
0.0
122
1.0
132
0.0
 79
     0
146
0.0
  0
ENDTAB
  0
TABLE
  2
LTYPE
  5
5
330
0
100
AcDbSymbolTable
 70
     6
  0
LTYPE
  5
14
330
5
100
AcDbSymbolTableRecord
100
AcDbLinetypeTableRecord
  2
ByBlock
 70
     0
  3

 72
    65
 73
     0
 40
0.0
  0
LTYPE
  5
15
330
5
100
AcDbSymbolTableRecord
100
AcDbLinetypeTableRecord
  2
ByLayer
 70
     0
  3

 72
    65
 73
     0
 40
0.0
  0
LTYPE
  5
16
330
5
100
AcDbSymbolTableRecord
100
AcDbLinetypeTableRecord
  2
Continuous
 70
     0
  3
Solid line
 72
    65
 73
     0
 40
0.0
  0
LTYPE
  5
6E
330
5
100
AcDbSymbolTableRecord
100
AcDbLinetypeTableRecord
  2
HIDDEN
 70
     0
  3
Hidden __ __ __ __ __ __ __ __ __ __ __ __ __ __
 72
    65
 73
     2
 40
1.905
 49
1.27
 74
     0
 49
-0.635
 74
     0
  0
LTYPE
  5
6F
330
5
100
AcDbSymbolTableRecord
100
AcDbLinetypeTableRecord
  2
PHANTOM
 70
     0
  3
Phantom ______  __  __  ______  __  __  ______
 72
    65
 73
     6
 40
12.7
 49
6.35
 74
     0
 49
-1.27
 74
     0
 49
1.27
 74
     0
 49
-1.27
 74
     0
 49
1.27
 74
     0
 49
-1.27
 74
     0
  0
LTYPE
  5
70
330
5
100
AcDbSymbolTableRecord
100
AcDbLinetypeTableRecord
  2
CENTER
 70
     0
  3
Center ____ _ ____ _ ____ _ ____ _ ____ _ ____
 72
    65
 73
     4
 40
10.16
 49
6.35
 74
     0
 49
-1.27
 74
     0
 49
1.27
 74
     0
 49
-1.27
 74
     0
  0
LTYPE
  5
71
330
5
100
AcDbSymbolTableRecord
100
AcDbLinetypeTableRecord
  2
CENTERX2
 70
     0
  3
Center (2x) ________  __  ________  __  _____
 72
    65
 73
     4
 40
20.32
 49
12.7
 74
     0
 49
-2.54
 74
     0
 49
2.54
 74
     0
 49
-2.54
 74
     0
  0
LTYPE
  5
72
330
5
100
AcDbSymbolTableRecord
100
AcDbLinetypeTableRecord
  2
DOT2
 70
     0
  3
Dot (.5x) ........................................
 72
    65
 73
     2
 40
0.635
 49
0.0
 74
     0
 49
-0.635
 74
     0
  0
ENDTAB
  0
TABLE
  2
LAYER
  5
2
330
0
100
AcDbSymbolTable
 70
     1
  0
LAYER
  5
10
330
2
100
AcDbSymbolTableRecord
100
AcDbLayerTableRecord
  2
0
 70
     0
 62
     7
  6
Continuous
370
    -3
390
F
  0
ENDTAB
  0
TABLE
  2
STYLE
  5
3
330
0
100
AcDbSymbolTable
 70
     1
  0
STYLE
  5
11
330
3
100
AcDbSymbolTableRecord
100
AcDbTextStyleTableRecord
  2
Standard
 70
     0
 40
0.0
 41
1.0
 50
0.0
 71
     0
 42
3.5
  3
txt
  4

  0
ENDTAB
  0
TABLE
  2
VIEW
  5
6
330
0
100
AcDbSymbolTable
 70
     0
  0
ENDTAB
  0
TABLE
  2
UCS
  5
7
330
0
100
AcDbSymbolTable
 70
     0
  0
ENDTAB
  0
TABLE
  2
APPID
  5
9
330
0
100
AcDbSymbolTable
 70
     1
  0
APPID
  5
12
330
9
100
AcDbSymbolTableRecord
100
AcDbRegAppTableRecord
  2
ACAD
 70
     0
  0
ENDTAB
  0
TABLE
  2
DIMSTYLE
  5
A
330
0
100
AcDbSymbolTable
 70
     1
100
AcDbDimStyleTable
  0
DIMSTYLE
105
27
330
A
100
AcDbSymbolTableRecord
100
AcDbDimStyleTableRecord
  2
ISO-25
 70
     0
 41
2.5
 42
0.625
 43
3.75
 44
1.25
 73
     0
 74
     0
 77
     1
 78
     8
140
2.5
141
2.5
143
0.0393700787
147
0.625
171
     3
172
     1
178
     0
271
     2
272
     2
274
     3
278
    44
283
     0
284
     8
340
11
  0
ENDTAB
  0
TABLE
  2
BLOCK_RECORD
  5
1
330
0
100
AcDbSymbolTable
 70
     1
  0
BLOCK_RECORD
  5
1F
330
1
100
AcDbSymbolTableRecord
100
AcDbBlockTableRecord
  2
*Model_Space
340
22
  0
BLOCK_RECORD
  5
1B
330
1
100
AcDbSymbolTableRecord
100
AcDbBlockTableRecord
  2
*Paper_Space
340
1E
  0
BLOCK_RECORD
  5
23
330
1
100
AcDbSymbolTableRecord
100
AcDbBlockTableRecord
  2
*Paper_Space0
340
26
  0
ENDTAB
  0
ENDSEC
  0
SECTION
  2
BLOCKS
  0
BLOCK
  5
20
330
1F
100
AcDbEntity
  8
0
100
AcDbBlockBegin
  2
*Model_Space
 70
     0
 10
0.0
 20
0.0
 30
0.0
  3
*Model_Space
  1

  0
ENDBLK
  5
21
330
1F
100
AcDbEntity
  8
0
100
AcDbBlockEnd
  0
BLOCK
  5
1C
330
1B
100
AcDbEntity
 67
     1
  8
0
100
AcDbBlockBegin
  2
*Paper_Space
 70
     0
 10
0.0
 20
0.0
 30
0.0
  3
*Paper_Space
  1

  0
ENDBLK
  5
1D
330
1B
100
AcDbEntity
 67
     1
  8
0
100
AcDbBlockEnd
  0
BLOCK
  5
24
330
23
100
AcDbEntity
  8
0
100
AcDbBlockBegin
  2
*Paper_Space0
 70
     0
 10
0.0
 20
0.0
 30
0.0
  3
*Paper_Space0
  1

  0
ENDBLK
  5
25
330
23
100
AcDbEntity
  8
0
100
AcDbBlockEnd
  0
ENDSEC
  0
SECTION
  2
ENTITIES
  0
SPLINE
  5
73
330
1F
100
AcDbEntity
  8
0
  6
Continuous
 62
     7
370
    25
100
AcDbSpline
210
0.0
220
0.0
230
1.0
 70
     8
 71
     3
 72
    26
 73
    22
 74
     0
 42
0.000000001
 43
0.00000001
 40
0.0
 40
0.0
 40
0.0
 40
0.0
 40
1.0
 40
1.0
 40
1.0
 40
2.0
 40
2.0
 40
2.0
 40
3.0
 40
3.0
 40
3.0
 40
4.0
 40
4.0
 40
4.0
 40
5.0
 40
5.0
 40
5.0
 40
6.0
 40
6.0
 40
6.0
 40
7.0
 40
7.0
 40
7.0
 40
7.0
 10
168.9246118758817
 20
459.7271022196159
 30
0.0
 10
169.1960592924964
 20
459.7949640737697
 30
0.0
 10
169.4595604073585
 20
459.9155854189221
 30
0.0
 10
169.7389541257258
 20
459.930687782077
 30
0.0
 10
198.9695946405454
 20
461.5107224044999
 30
0.0
 10
224.3369127405325
 20
461.9665434066874
 30
0.0
 10
254.4305481095182
 20
461.9665434066874
 30
0.0
 10
263.389341008711
 20
461.9665434066874
 30
0.0
 10
272.4932889117551
 20
463.182368968564
 30
0.0
 10
281.3038423543754
 20
461.5593722817651
 30
0.0
 10
292.3499018883419
 20
459.5245718412978
 30
0.0
 10
280.6636947886891
 20
439.4554453829665
 30
0.0
 10
293.1118049771156
 20
436.1111769741354
 30
0.0
 10
295.8651773358625
 20
435.3714649971587
 30
0.0
 10
299.0097990257915
 20
435.2697990677803
 30
0.0
 10
301.6623986004793
 20
436.3147625365964
 30
0.0
 10
303.8505171332004
 20
437.176748625244
 30
0.0
 10
306.0872295297841
 20
439.0982887493217
 30
0.0
 10
306.5484520995441
 20
441.4044015981225
 30
0.0
 10
308.2139680347767
 20
449.7319812742841
 30
0.0
 10
307.3627943493885
 20
458.3698651365424
 30
0.0
 10
307.7699654743107
 20
466.8525969057525
 30
0.0
  0
LINE
  5
74
330
1F
100
AcDbEntity
  8
0
  6
Continuous
 62
     7
370
    25
100
AcDbLine
 10
168.9246118759
 20
459.9306877821
 30
0.0
 11
168.9246118759
 21
459.7271022196
 31
0.0
  0
SPLINE
  5
75
330
1F
100
AcDbEntity
  8
0
  6
Continuous
 62
     7
370
    25
100
AcDbSpline
210
0.0
220
0.0
230
1.0
 70
     8
 71
     3
 72
    17
 73
    13
 74
     0
 42
0.000000001
 43
0.00000001
 40
0.0
 40
0.0
 40
0.0
 40
0.0
 40
1.0
 40
1.0
 40
1.0
 40
2.0
 40
2.0
 40
2.0
 40
3.0
 40
3.0
 40
3.0
 40
4.0
 40
4.0
 40
4.0
 40
4.0
 10
28.85774490268667
 20
362.8203744881612
 30
0.0
 10
28.78988304853299
 20
363.0918219047761
 30
0.0
 10
28.6498552096735
 20
363.3549482521172
 30
0.0
 10
28.65415934022563
 20
363.6347167380055
 30
0.0
 10
29.06401316519182
 20
390.2752153608079
 30
0.0
 10
24.99996066385135
 20
425.0377721178442
 30
0.0
 10
51.8629134607841
 20
442.0151582855057
 30
0.0
 10
63.34763148633929
 20
449.2735000776564
 30
0.0
 10
77.23540830515405
 20
452.8165252837598
 30
0.0
 10
90.74775589084264
 20
454.2302920331679
 30
0.0
 10
116.7340432882923
 20
456.9491792457783
 30
0.0
 10
142.8656598808687
 20
458.0305558657741
 30
0.0
 10
168.9246118758817
 20
459.930687782077
 30
0.0
  0
LINE
  5
76
330
1F
100
AcDbEntity
  8
0
  6
Continuous
 62
     7
370
    25
100
AcDbLine
 10
28.6541593402
 20
362.6167889257
 30
0.0
 11
28.8577449027
 21
362.8203744882
 31
0.0
  0
LINE
  5
77
330
1F
100
AcDbEntity
  8
0
  6
Continuous
 62
     7
370
    25
100
AcDbLine
 10
31.9115283396
 20
325.7678021203
 30
0.0
 11
28.6541593402
 21
362.6167889257
 31
0.0
  0
LINE
  5
78
330
1F
100
AcDbEntity
  8
0
  6
Continuous
 62
     7
370
    25
100
AcDbLine
 10
31.7079427771
 20
325.5642165578
 30
0.0
 11
31.9115283396
 21
325.7678021203
 31
0.0
  0
SPLINE
  5
79
330
1F
100
AcDbEntity
  8
0
  6
Continuous
 62
     7
370
    25
100
AcDbSpline
210
0.0
220
0.0
230
1.0
 70
     8
 71
     3
 72
    11
 73
     7
 74
     0
 42
0.000000001
 43
0.00000001
 40
0.0
 40
0.0
 40
0.0
 40
0.0
 40
1.0
 40
1.0
 40
1.0
 40
2.0
 40
2.0
 40
2.0
 40
2.0
 10
66.11390283305684
 20
287.4937163775767
 30
0.0
 10
56.68110510569537
 20
292.5833554391027
 30
0.0
 10
45.00210939199637
 20
294.8105971623235
 30
0.0
 10
37.81550965097239
 20
302.7626335621546
 30
0.0
 10
32.53972268848872
 20
308.6003386626543
 30
0.0
 10
33.74379840175161
 20
317.963688892579
 30
0.0
 10
31.70794277714122
 20
325.564216557791
 30
0.0
  0
SPLINE
  5
7A
330
1F
100
AcDbEntity
  8
0
  6
Continuous
 62
     7
370
    25
100
AcDbSpline
210
0.0
220
0.0
230
1.0
 70
     8
 71
     3
 72
    56
 73
    52
 74
     0
 42
0.000000001
 43
0.00000001
 40
0.0
 40
0.0
 40
0.0
 40
0.0
 40
1.0
 40
1.0
 40
1.0
 40
2.0
 40
2.0
 40
2.0
 40
3.0
 40
3.0
 40
3.0
 40
4.0
 40
4.0
 40
4.0
 40
5.0
 40
5.0
 40
5.0
 40
6.0
 40
6.0
 40
6.0
 40
7.0
 40
7.0
 40
7.0
 40
8.0
 40
8.0
 40
8.0
 40
9.0
 40
9.0
 40
9.0
 40
10.0
 40
10.0
 40
10.0
 40
11.0
 40
11.0
 40
11.0
 40
12.0
 40
12.0
 40
12.0
 40
13.0
 40
13.0
 40
13.0
 40
14.0
 40
14.0
 40
14.0
 40
15.0
 40
15.0
 40
15.0
 40
16.0
 40
16.0
 40
16.0
 40
17.0
 40
17.0
 40
17.0
 40
17.0
 10
588.5144561080836
 20
287.0865452526546
 30
0.0
 10
594.588737163263
 20
302.9273174161619
 30
0.0
 10
601.3900220486391
 20
319.0374627592526
 30
0.0
 10
602.7654454803563
 20
335.947080243304
 30
0.0
 10
606.3519852001236
 20
380.0404215039744
 30
0.0
 10
582.2835939415827
 20
410.1869279271922
 30
0.0
 10
538.6359933051293
 20
417.7884763526419
 30
0.0
 10
507.6595995417445
 20
423.1832415586247
 30
0.0
 10
477.044788586929
 20
428.0181805087233
 30
0.0
 10
446.0045623853562
 20
419.8243319772524
 30
0.0
 10
426.3171149533604
 20
414.6273349843342
 30
0.0
 10
407.2949168694464
 20
405.2834306909793
 30
0.0
 10
386.9647492716547
 20
404.1482436677521
 30
0.0
 10
379.8474334815439
 20
403.7508300957156
 30
0.0
 10
372.2068207387595
 20
402.1115781449299
 30
0.0
 10
365.5882652132457
 20
404.7590003551354
 30
0.0
 10
361.0952053444556
 20
406.5562243026514
 30
0.0
 10
356.5894792747007
 20
408.3263056790253
 30
0.0
 10
352.1516180908172
 20
410.2558105415835
 30
0.0
 10
348.7829203527629
 20
411.7204617320418
 30
0.0
 10
345.8328608506567
 20
414.5916495378622
 30
0.0
 10
342.1759255302262
 20
414.9382784781874
 30
0.0
 10
331.2294845904697
 20
415.9758558184486
 30
0.0
 10
320.0012607807931
 20
416.359086708224
 30
0.0
 10
309.1950644115378
 20
414.3275217908044
 30
0.0
 10
302.6332934902798
 20
413.0939088576077
 30
0.0
 10
297.6855292404297
 20
407.2517440759882
 30
0.0
 10
291.2795349149663
 20
405.3697570425185
 30
0.0
 10
285.4613659258694
 20
403.660464458151
 30
0.0
 10
279.2073705659988
 20
404.1962193704696
 30
0.0
 10
273.1604198559337
 20
403.7410725428303
 30
0.0
 10
272.881407504614
 20
403.7200716131609
 30
0.0
 10
272.6236847770037
 20
403.9096839735226
 30
0.0
 10
272.3460776060895
 20
403.9446581052912
 30
0.0
 10
263.7276221285722
 20
405.0304477717501
 30
0.0
 10
254.760206611381
 20
404.5426739462425
 30
0.0
 10
246.4907111735375
 20
407.2020271046678
 30
0.0
 10
231.3518441440378
 20
412.0704733300134
 30
0.0
 10
216.5160670837946
 20
417.9925781953114
 30
0.0
 10
201.0911307447258
 20
421.8601876018628
 30
0.0
 10
171.4404143326556
 20
429.2947330149186
 30
0.0
 10
94.83009534789728
 20
422.4367780252522
 30
0.0
 10
71.81429858196594
 20
398.8550190437654
 30
0.0
 10
67.38354511606012
 20
394.3153126237797
 30
0.0
 10
63.99703749011293
 20
388.7827800428568
 30
0.0
 10
61.0242637715309
 20
383.1789307342652
 30
0.0
 10
58.05370225499772
 20
377.5792515536741
 30
0.0
 10
55.59487197478425
 20
371.6275902347115
 30
0.0
 10
54.10235464785555
 20
365.4669868001547
 30
0.0
 10
47.15249188743664
 20
336.7803192358724
 30
0.0
 10
56.886548845516
 20
314.150516786028
 30
0.0
 10
66.11390283305684
 20
287.4937163775767
 30
0.0
  0
SPLINE
  5
7B
330
1F
100
AcDbEntity
  8
0
  6
Continuous
 62
     7
370
    25
100
AcDbSpline
210
0.0
220
0.0
230
1.0
 70
     8
 71
     3
 72
    26
 73
    22
 74
     0
 42
0.000000001
 43
0.00000001
 40
0.0
 40
0.0
 40
0.0
 40
0.0
 40
1.0
 40
1.0
 40
1.0
 40
2.0
 40
2.0
 40
2.0
 40
3.0
 40
3.0
 40
3.0
 40
4.0
 40
4.0
 40
4.0
 40
5.0
 40
5.0
 40
5.0
 40
6.0
 40
6.0
 40
6.0
 40
7.0
 40
7.0
 40
7.0
 40
7.0
 10
493.6435840012393
 20
458.9127599697718
 30
0.0
 10
493.9150314178542
 20
458.9806218239258
 30
0.0
 10
494.1788176701088
 20
459.1360262655066
 30
0.0
 10
494.4579262510836
 20
459.1163455322327
 30
0.0
 10
521.0831107708673
 20
457.238928675069
 30
0.0
 10
588.8943831309772
 20
459.3251325141681
 30
0.0
 10
611.519624666181
 20
433.8717357870638
 30
0.0
 10
620.1637488364089
 20
424.1470960955575
 30
0.0
 10
624.2375951444819
 20
414.2885969746411
 30
0.0
 10
625.3634429135316
 20
401.2980457932975
 30
0.0
 10
626.6292895688584
 20
386.6921228472218
 30
0.0
 10
627.5357061507409
 20
371.9212149158902
 30
0.0
 10
626.1777851633757
 20
357.3235643017132
 30
0.0
 10
625.0919954969171
 20
345.6513253872803
 30
0.0
 10
626.0851011763591
 20
333.5942241024981
 30
0.0
 10
622.9204161639994
 20
322.3068475584145
 30
0.0
 10
620.9600652287442
 20
315.3149292226713
 30
0.0
 10
622.0907140431501
 20
306.5319150980641
 30
0.0
 10
617.0164348526292
 20
301.3375346249273
 30
0.0
 10
609.5938587750628
 20
293.7392762733356
 30
0.0
 10
598.0151156895986
 20
291.8368750434121
 30
0.0
 10
588.5144561080836
 20
287.0865452526546
 30
0.0
  0
LINE
  5
7C
330
1F
100
AcDbEntity
  8
0
  6
Continuous
 62
     7
370
    25
100
AcDbLine
 10
493.6435840012
 20
459.1163455322
 30
0.0
 11
493.6435840012
 21
458.9127599698
 31
0.0
  0
SPLINE
  5
7D
330
1F
100
AcDbEntity
  8
0
  6
Continuous
 62
     7
370
    25
100
AcDbSpline
210
0.0
220
0.0
230
1.0
 70
     8
 71
     3
 72
    20
 73
    16
 74
     0
 42
0.000000001
 43
0.00000001
 40
0.0
 40
0.0
 40
0.0
 40
0.0
 40
1.0
 40
1.0
 40
1.0
 40
2.0
 40
2.0
 40
2.0
 40
3.0
 40
3.0
 40
3.0
 40
4.0
 40
4.0
 40
4.0
 40
5.0
 40
5.0
 40
5.0
 40
5.0
 10
353.3731314655833
 20
436.1111769741354
 30
0.0
 10
358.3512834569466
 20
436.2243167921209
 30
0.0
 10
364.9735453136282
 20
434.2654319903895
 30
0.0
 10
367.0133641504726
 20
441.2008160356616
 30
0.0
 10
368.5129363625928
 20
446.2993615568692
 30
0.0
 10
366.8503647038148
 20
452.0088208752139
 30
0.0
 10
368.4384630877
 20
457.0804899076224
 30
0.0
 10
369.0851609091232
 20
459.1457506921669
 30
0.0
 10
371.1657714253334
 20
461.2030139848031
 30
0.0
 10
373.3245165867653
 20
461.3557867193044
 30
0.0
 10
394.1742628057476
 20
462.8313072209552
 30
0.0
 10
415.1452248301034
 20
462.6361416070692
 30
0.0
 10
436.0288698247653
 20
461.7629578442266
 30
0.0
 10
455.2372435099795
 20
460.9598202685381
 30
0.0
 10
474.438679275748
 20
459.9985496362308
 30
0.0
 10
493.6435840012393
 20
459.1163455322327
 30
0.0
  0
LINE
  5
7E
330
1F
100
AcDbEntity
  8
0
  6
Continuous
 62
     7
370
    25
100
AcDbLine
 10
353.1695459031
 20
437.3326903489
 30
0.0
 11
353.3731314656
 21
436.1111769741
 31
0.0
  0
LINE
  5
7F
330
1F
100
AcDbEntity
  8
0
  6
Continuous
 62
     7
370
    25
100
AcDbLine
 10
352.3552036533
 20
437.1291047864
 30
0.0
 11
353.1695459031
 21
437.3326903489
 31
0.0
  0
SPLINE
  5
80
330
1F
100
AcDbEntity
  8
0
  6
Continuous
 62
     7
370
    25
100
AcDbSpline
210
0.0
220
0.0
230
1.0
 70
     8
 71
     3
 72
     8
 73
     4
 74
     0
 42
0.000000001
 43
0.00000001
 40
0.0
 40
0.0
 40
0.0
 40
0.0
 40
1.0
 40
1.0
 40
1.0
 40
1.0
 10
345.0261234046807
 20
468.2776958429797
 30
0.0
 10
350.5918981810208
 20
457.6099608549942
 30
0.0
 10
342.4414017131339
 20
445.0601463385558
 30
0.0
 10
352.3552036532781
 20
437.1291047864403
 30
0.0
  0
SPLINE
  5
81
330
1F
100
AcDbEntity
  8
0
  6
Continuous
 62
     7
370
    25
100
AcDbSpline
210
0.0
220
0.0
230
1.0
 70
     8
 71
     3
 72
    11
 73
     7
 74
     0
 42
0.000000001
 43
0.00000001
 40
0.0
 40
0.0
 40
0.0
 40
0.0
 40
1.0
 40
1.0
 40
1.0
 40
2.0
 40
2.0
 40
2.0
 40
2.0
 10
307.7699654743107
 20
466.8525969057525
 30
0.0
 10
309.792783102792
 20
467.8200314237218
 30
0.0
 10
311.7327867478491
 20
469.3543319343536
 30
0.0
 10
314.0811179106026
 20
469.2956236552851
 30
0.0
 10
324.3984753071164
 20
469.037689720372
 30
0.0
 10
334.7111215733215
 20
468.6170051137481
 30
0.0
 10
345.0261234046807
 20
468.2776958429797
 30
0.0
  0
SPLINE
  5
82
330
1F
100
AcDbEntity
  8
0
  6
Continuous
 62
     7
370
    25
100
AcDbSpline
210
0.0
220
0.0
230
1.0
 70
     8
 71
     3
 72
    11
 73
     7
 74
     0
 42
0.000000001
 43
0.00000001
 40
0.0
 40
0.0
 40
0.0
 40
0.0
 40
1.0
 40
1.0
 40
1.0
 40
2.0
 40
2.0
 40
2.0
 40
2.0
 10
305.937695412161
 20
560.7055412002912
 30
0.0
 10
282.6935624594464
 20
561.2823186929146
 30
0.0
 10
208.0947833078145
 20
556.5167784012804
 30
0.0
 10
178.4931333115506
 20
574.1421883227202
 30
0.0
 10
174.521298003993
 20
576.5070978951587
 30
0.0
 10
171.4355004795678
 20
580.1140314882438
 30
0.0
 10
167.9066840635766
 20
583.0999530710061
 30
0.0
  0
LINE
  5
83
330
1F
100
AcDbEntity
  8
0
  6
Continuous
 62
     7
370
    25
100
AcDbLine
 10
306.3448665371
 20
555.2087310138
 30
0.0
 11
305.9376954122
 21
560.7055412003
 31
0.0
  0
LINE
  5
84
330
1F
100
AcDbEntity
  8
0
  6
Continuous
 62
     7
370
    25
100
AcDbLine
 10
268.0707807944
 20
552.5621187018
 30
0.0
 11
306.3448665371
 21
555.2087310138
 31
0.0
  0
LINE
  5
85
330
1F
100
AcDbEntity
  8
0
  6
Continuous
 62
     7
370
    25
100
AcDbLine
 10
267.8671952319
 20
552.7657042643
 30
0.0
 11
268.0707807944
 21
552.5621187018
 31
0.0
  0
SPLINE
  5
86
330
1F
100
AcDbEntity
  8
0
  6
Continuous
 62
     7
370
    25
100
AcDbSpline
210
0.0
220
0.0
230
1.0
 70
     8
 71
     3
 72
    14
 73
    10
 74
     0
 42
0.000000001
 43
0.00000001
 40
0.0
 40
0.0
 40
0.0
 40
0.0
 40
1.0
 40
1.0
 40
1.0
 40
2.0
 40
2.0
 40
2.0
 40
3.0
 40
3.0
 40
3.0
 40
3.0
 10
105.2023308255764
 20
500.8513858367458
 30
0.0
 10
105.4737782421911
 20
502.8193796072024
 30
0.0
 10
104.5869118301781
 20
505.3760680644705
 30
0.0
 10
106.0166730754205
 20
506.7553671481155
 30
0.0
 10
110.7442968228047
 20
511.3161335867688
 30
0.0
 10
116.6743018818918
 20
514.5239055550356
 30
0.0
 10
122.5071036347648
 20
517.5454019585515
 30
0.0
 10
168.0470023207178
 20
541.1358900165899
 30
0.0
 10
217.6426973670009
 20
547.2109210903074
 30
0.0
 10
267.8671952319469
 20
552.7657042643103
 30
0.0
  0
SPLINE
  5
87
330
1F
100
AcDbEntity
  8
0
  6
Continuous
 62
     7
370
    25
100
AcDbSpline
210
0.0
220
0.0
230
1.0
 70
     8
 71
     3
 72
    17
 73
    13
 74
     0
 42
0.000000001
 43
0.00000001
 40
0.0
 40
0.0
 40
0.0
 40
0.0
 40
1.0
 40
1.0
 40
1.0
 40
2.0
 40
2.0
 40
2.0
 40
3.0
 40
3.0
 40
3.0
 40
4.0
 40
4.0
 40
4.0
 40
4.0
 10
305.937695412161
 20
530.5748779560575
 30
0.0
 10
262.2655323525455
 20
527.2424639073316
 30
0.0
 10
221.3715965060151
 20
524.0360011718401
 30
0.0
 10
180.5289889361609
 20
506.9589527105769
 30
0.0
 10
171.6808838833227
 20
503.2593965909234
 30
0.0
 10
163.5455873707117
 20
498.032509583934
 30
0.0
 10
154.87720806607
 20
493.9294767130706
 30
0.0
 10
153.343766834199
 20
493.2036478633181
 30
0.0
 10
151.6822497770358
 20
492.3684861964654
 30
0.0
 10
149.9911545670051
 20
492.5043777758432
 30
0.0
 10
110.1822185898766
 20
495.7033101311482
 30
0.0
 10
119.6201932542571
 20
489.3170958938014
 30
0.0
 10
105.2023308255764
 20
500.8513858367458
 30
0.0
  0
SPLINE
  5
88
330
1F
100
AcDbEntity
  8
0
  6
Continuous
 62
     7
370
    25
100
AcDbSpline
210
0.0
220
0.0
230
1.0
 70
     8
 71
     3
 72
    11
 73
     7
 74
     0
 42
0.000000001
 43
0.00000001
 40
0.0
 40
0.0
 40
0.0
 40
0.0
 40
1.0
 40
1.0
 40
1.0
 40
2.0
 40
2.0
 40
2.0
 40
2.0
 10
301.0516419130963
 20
501.0549713992072
 30
0.0
 10
302.8160501210919
 20
503.6337218570466
 30
0.0
 10
305.8346342168146
 20
505.7085691711025
 30
0.0
 10
306.3448665370831
 20
508.7912227727265
 30
0.0
 10
307.5307982020202
 20
515.9562265817206
 30
0.0
 10
306.0734191204685
 20
523.3136595616139
 30
0.0
 10
305.937695412161
 20
530.5748779560575
 30
0.0
  0
LINE
  5
89
330
1F
100
AcDbEntity
  8
0
  6
Continuous
 62
     7
370
    25
100
AcDbLine
 10
300.6444707882
 20
501.4621425241
 30
0.0
 11
301.0516419131
 21
501.0549713992
 31
0.0
  0
SPLINE
  5
8A
330
1F
100
AcDbEntity
  8
0
  6
Continuous
 62
     7
370
    25
100
AcDbSpline
210
0.0
220
0.0
230
1.0
 70
     8
 71
     3
 72
     8
 73
     4
 74
     0
 42
0.000000001
 43
0.00000001
 40
0.0
 40
0.0
 40
0.0
 40
0.0
 40
1.0
 40
1.0
 40
1.0
 40
1.0
 10
259.1130160461224
 20
497.3904312749081
 30
0.0
 10
271.6704005215982
 20
495.7579712930965
 30
0.0
 10
289.9378677988773
 20
490.7555395348319
 30
0.0
 10
300.6444707881744
 20
501.4621425241291
 30
0.0
  0
SPLINE
  5
8B
330
1F
100
AcDbEntity
  8
0
  6
Continuous
 62
     7
370
    25
100
AcDbSpline
210
0.0
220
0.0
230
1.0
 70
     8
 71
     3
 72
     8
 73
     4
 74
     0
 42
0.000000001
 43
0.00000001
 40
0.0
 40
0.0
 40
0.0
 40
0.0
 40
1.0
 40
1.0
 40
1.0
 40
1.0
 10
232.0361362388041
 20
477.0318750288043
 30
0.0
 10
245.8657513608153
 20
482.2179806995586
 30
0.0
 10
251.8833729693583
 20
484.738555890571
 30
0.0
 10
259.1130160461224
 20
497.3904312749081
 30
0.0
  0
LINE
  5
8C
330
1F
100
AcDbEntity
  8
0
  6
Continuous
 62
     7
370
    25
100
AcDbLine
 10
422.3886371399
 20
476.4211183414
 30
0.0
 11
232.0361362388
 21
477.0318750288
 31
0.0
  0
SPLINE
  5
8D
330
1F
100
AcDbEntity
  8
0
  6
Continuous
 62
     7
370
    25
100
AcDbSpline
210
0.0
220
0.0
230
1.0
 70
     8
 71
     3
 72
     8
 73
     4
 74
     0
 42
0.000000001
 43
0.00000001
 40
0.0
 40
0.0
 40
0.0
 40
0.0
 40
1.0
 40
1.0
 40
1.0
 40
1.0
 10
395.9225140199402
 20
496.7796745875251
 30
0.0
 10
404.0370761366507
 20
483.4486082529293
 30
0.0
 10
407.8839205077592
 20
481.8603870784651
 30
0.0
 10
422.3886371398756
 20
476.4211183414212
 30
0.0
  0
SPLINE
  5
8E
330
1F
100
AcDbEntity
  8
0
  6
Continuous
 62
     7
370
    25
100
AcDbSpline
210
0.0
220
0.0
230
1.0
 70
     8
 71
     3
 72
    11
 73
     7
 74
     0
 42
0.000000001
 43
0.00000001
 40
0.0
 40
0.0
 40
0.0
 40
0.0
 40
1.0
 40
1.0
 40
1.0
 40
2.0
 40
2.0
 40
2.0
 40
2.0
 10
347.6727357166741
 20
529.7605357062134
 30
0.0
 10
347.9441831332887
 20
522.1600080410011
 30
0.0
 10
346.848088846028
 20
514.3856221627984
 30
0.0
 10
348.4870779665183
 20
506.9589527105769
 30
0.0
 10
351.9875957638655
 20
491.0972314413472
 30
0.0
 10
384.6696255678544
 20
495.4110800460554
 30
0.0
 10
395.9225140199403
 20
496.7796745875251
 30
0.0
  0
SPLINE
  5
8F
330
1F
100
AcDbEntity
  8
0
  6
Continuous
 62
     7
370
    25
100
AcDbSpline
210
0.0
220
0.0
230
1.0
 70
     8
 71
     3
 72
    20
 73
    16
 74
     0
 42
0.000000001
 43
0.00000001
 40
0.0
 40
0.0
 40
0.0
 40
0.0
 40
1.0
 40
1.0
 40
1.0
 40
2.0
 40
2.0
 40
2.0
 40
3.0
 40
3.0
 40
3.0
 40
4.0
 40
4.0
 40
4.0
 40
5.0
 40
5.0
 40
5.0
 40
5.0
 10
548.2045147407978
 20
498.8155302121354
 30
0.0
 10
544.4042509081914
 20
497.6618786915229
 30
0.0
 10
540.7399500406416
 20
495.8828138785552
 30
0.0
 10
536.8037232429797
 20
495.3545756502978
 30
0.0
 10
524.9958090503834
 20
493.7699637889533
 30
0.0
 10
512.8789713099095
 20
490.2718585978375
 30
0.0
 10
501.1762498122977
 20
492.5043777758432
 30
0.0
 10
489.9671046482013
 20
494.6427377763783
 30
0.0
 10
481.1708977647976
 20
503.5854872421919
 30
0.0
 10
470.6384154431418
 20
507.9768805228821
 30
0.0
 10
460.2792627377606
 20
512.2960060808261
 30
0.0
 10
449.5348472128903
 20
515.7276498696708
 30
0.0
 10
438.6754821367588
 20
518.5633297708563
 30
0.0
 10
409.0044266588997
 20
526.3112611716027
 30
0.0
 10
378.2342691936947
 20
530.245639412198
 30
0.0
 10
347.6727357166742
 20
529.7605357062134
 30
0.0
  0
LINE
  5
90
330
1F
100
AcDbEntity
  8
0
  6
Continuous
 62
     7
370
    25
100
AcDbLine
 10
549.4260281156
 20
503.4979981487
 30
0.0
 11
548.2045147408
 21
498.8155302121
 31
0.0
  0
SPLINE
  5
91
330
1F
100
AcDbEntity
  8
0
  6
Continuous
 62
     7
370
    25
100
AcDbSpline
210
0.0
220
0.0
230
1.0
 70
     8
 71
     3
 72
    11
 73
     7
 74
     0
 42
0.000000001
 43
0.00000001
 40
0.0
 40
0.0
 40
0.0
 40
0.0
 40
1.0
 40
1.0
 40
1.0
 40
2.0
 40
2.0
 40
2.0
 40
2.0
 10
366.6061930255508
 20
553.9872176390772
 30
0.0
 10
408.0144962559477
 20
550.9966179613266
 30
0.0
 10
449.073528446635
 20
547.3223998046366
 30
0.0
 10
488.9611160646356
 20
534.8501747677394
 30
0.0
 10
507.4740444648925
 20
529.0614714921429
 30
0.0
 10
536.1926889140734
 20
518.848671622468
 30
0.0
 10
549.4260281155641
 20
503.4979981487395
 30
0.0
  0
LINE
  5
92
330
1F
100
AcDbEntity
  8
0
  6
Continuous
 62
     7
370
    25
100
AcDbLine
 10
366.4026074631
 20
554.5979743265
 30
0.0
 11
366.6061930256
 21
553.9872176391
 31
0.0
  0
LINE
  5
93
330
1F
100
AcDbEntity
  8
0
  6
Continuous
 62
     7
370
    25
100
AcDbLine
 10
348.4870779665
 20
554.394388764
 30
0.0
 11
366.4026074631
 21
554.5979743265
 31
0.0
  0
LINE
  5
94
330
1F
100
AcDbEntity
  8
0
  6
Continuous
 62
     7
370
    25
100
AcDbLine
 10
347.6727357167
 20
560.0947845129
 30
0.0
 11
348.4870779665
 21
554.394388764
 31
0.0
  0
SPLINE
  5
95
330
1F
100
AcDbEntity
  8
0
  6
Continuous
 62
     7
370
    25
100
AcDbSpline
210
0.0
220
0.0
230
1.0
 70
     8
 71
     3
 72
    14
 73
    10
 74
     0
 42
0.000000001
 43
0.00000001
 40
0.0
 40
0.0
 40
0.0
 40
0.0
 40
1.0
 40
1.0
 40
1.0
 40
2.0
 40
2.0
 40
2.0
 40
3.0
 40
3.0
 40
3.0
 40
3.0
 10
486.5180893151031
 20
582.4891963836225
 30
0.0
 10
481.8356213784992
 20
578.9603799676315
 30
0.0
 10
477.6451098214384
 20
574.6601706199108
 30
0.0
 10
472.470685505291
 20
571.9027471356491
 30
0.0
 10
458.2354823258484
 20
564.3168822834455
 30
0.0
 10
441.1414499960446
 20
563.2155083712648
 30
0.0
 10
425.0352494518692
 20
562.3342256999797
 30
0.0
 10
399.275475706418
 20
560.9247286459834
 30
0.0
 10
373.4602402950724
 20
560.8412649085988
 30
0.0
 10
347.6727357166742
 20
560.0947845129083
 30
0.0
  0
LINE
  5
96
330
1F
100
AcDbEntity
  8
0
  6
Continuous
 62
     7
370
    25
100
AcDbLine
 10
453.9443993213
 20
595.9258435061
 30
0.0
 11
486.5180893151
 21
582.4891963836
 31
0.0
  0
SPLINE
  5
97
330
1F
100
AcDbEntity
  8
0
  6
Continuous
 62
     7
370
    25
100
AcDbSpline
210
0.0
220
0.0
230
1.0
 70
     8
 71
     3
 72
    14
 73
    10
 74
     0
 42
0.000000001
 43
0.00000001
 40
0.0
 40
0.0
 40
0.0
 40
0.0
 40
1.0
 40
1.0
 40
1.0
 40
2.0
 40
2.0
 40
2.0
 40
3.0
 40
3.0
 40
3.0
 40
3.0
 10
418.7240970155768
 20
591.8541322568307
 30
0.0
 10
423.5422886604882
 20
593.8899878814406
 30
0.0
 10
428.4413251477168
 20
595.7442176485963
 30
0.0
 10
433.1786719503109
 20
597.9616991306619
 30
0.0
 10
434.833582048391
 20
598.7363378999758
 30
0.0
 10
436.0448590019765
 20
601.0116879024596
 30
0.0
 10
437.8611398869148
 20
600.8118970051162
 30
0.0
 10
459.2491830161907
 20
598.459212260896
 30
0.0
 10
448.4695743868517
 20
593.1884310388087
 30
0.0
 10
453.9443993213367
 20
595.9258435060513
 30
0.0
  0
LINE
  5
98
330
1F
100
AcDbEntity
  8
0
  6
Continuous
 62
     7
370
    25
100
AcDbLine
 10
417.9097547657
 20
592.2613033818
 30
0.0
 11
418.7240970156
 21
591.8541322568
 31
0.0
  0
SPLINE
  5
99
330
1F
100
AcDbEntity
  8
0
  6
Continuous
 62
     7
370
    25
100
AcDbSpline
210
0.0
220
0.0
230
1.0
 70
     8
 71
     3
 72
    29
 73
    25
 74
     0
 42
0.000000001
 43
0.00000001
 40
0.0
 40
0.0
 40
0.0
 40
0.0
 40
1.0
 40
1.0
 40
1.0
 40
2.0
 40
2.0
 40
2.0
 40
3.0
 40
3.0
 40
3.0
 40
4.0
 40
4.0
 40
4.0
 40
5.0
 40
5.0
 40
5.0
 40
6.0
 40
6.0
 40
6.0
 40
7.0
 40
7.0
 40
7.0
 40
8.0
 40
8.0
 40
8.0
 40
8.0
 10
167.9066840635766
 20
583.0999530710061
 30
0.0
 10
183.9899434979986
 20
589.0717962365297
 30
0.0
 10
199.8112903571574
 20
595.8030458243309
 30
0.0
 10
216.1564623668428
 20
601.0154825675774
 30
0.0
 10
217.3451103115638
 20
601.3945395893193
 30
0.0
 10
218.501507196768
 20
600.148338496306
 30
0.0
 10
219.6174169286804
 20
599.59038363035
 30
0.0
 10
223.7985002598124
 20
597.4998419647841
 30
0.0
 10
227.5938280492176
 20
594.5308845212884
 30
0.0
 10
232.0361362388039
 20
593.0756456315969
 30
0.0
 10
239.4996910024634
 20
590.630688036605
 30
0.0
 10
247.2559059554102
 20
589.0204301923667
 30
0.0
 10
255.0413047969012
 20
587.9860065700708
 30
0.0
 10
287.0068353770259
 20
583.7388381713129
 30
0.0
 10
319.4981684250633
 20
585.4447742533089
 30
0.0
 10
351.7444469658951
 20
585.3393942580774
 30
0.0
 10
352.0242470644408
 20
585.3384798786702
 30
0.0
 10
352.2792989154894
 20
585.1226138745744
 30
0.0
 10
352.5587892157391
 20
585.1358086956162
 30
0.0
 10
368.6521606617364
 20
585.8955815965006
 30
0.0
 10
385.1278691035324
 20
584.2860664945096
 30
0.0
 10
400.8085675190053
 20
587.9860065700708
 30
0.0
 10
417.5910881857266
 20
591.9459271768251
 30
0.0
 10
412.5989003093848
 20
588.7207337441871
 30
0.0
 10
417.9097547657328
 20
592.2613033817526
 30
0.0
  0
SPLINE
  5
9A
330
1F
100
AcDbEntity
  8
0
  6
Continuous
 62
     7
370
    25
100
AcDbSpline
210
0.0
220
0.0
230
1.0
 70
     8
 71
     3
 72
    68
 73
    64
 74
     0
 42
0.000000001
 43
0.00000001
 40
0.0
 40
0.0
 40
0.0
 40
0.0
 40
1.0
 40
1.0
 40
1.0
 40
2.0
 40
2.0
 40
2.0
 40
3.0
 40
3.0
 40
3.0
 40
4.0
 40
4.0
 40
4.0
 40
5.0
 40
5.0
 40
5.0
 40
6.0
 40
6.0
 40
6.0
 40
7.0
 40
7.0
 40
7.0
 40
8.0
 40
8.0
 40
8.0
 40
9.0
 40
9.0
 40
9.0
 40
10.0
 40
10.0
 40
10.0
 40
11.0
 40
11.0
 40
11.0
 40
12.0
 40
12.0
 40
12.0
 40
13.0
 40
13.0
 40
13.0
 40
14.0
 40
14.0
 40
14.0
 40
15.0
 40
15.0
 40
15.0
 40
16.0
 40
16.0
 40
16.0
 40
17.0
 40
17.0
 40
17.0
 40
18.0
 40
18.0
 40
18.0
 40
19.0
 40
19.0
 40
19.0
 40
20.0
 40
20.0
 40
20.0
 40
21.0
 40
21.0
 40
21.0
 40
21.0
 10
135.5365796322712
 20
474.1816771543496
 30
0.0
 10
135.2651322156567
 20
474.1138153001962
 30
0.0
 10
135.001999861547
 20
473.982769894215
 30
0.0
 10
134.7222373824271
 20
473.9780915918886
 30
0.0
 10
114.7039489209423
 20
473.6433376042384
 30
0.0
 10
94.68128510715789
 20
472.7488936187132
 30
0.0
 10
74.66449645642054
 20
473.1637493420443
 30
0.0
 10
68.43694359765374
 20
473.2928177950762
 30
0.0
 10
62.0844070820058
 20
473.7515626870004
 30
0.0
 10
56.13821027246592
 20
475.606776091577
 30
0.0
 10
53.32559712805782
 20
476.4843113926322
 30
0.0
 10
50.70538553569397
 20
478.5612470808726
 30
0.0
 10
49.21630114879061
 20
481.103586278025
 30
0.0
 10
48.17377025433399
 20
482.8835170734388
 30
0.0
 10
47.03369118708309
 20
487.6757477661711
 30
0.0
 10
47.99478777402437
 20
490.6721077136938
 30
0.0
 10
49.06317752535496
 20
494.0029698796071
 30
0.0
 10
49.68081768400858
 20
497.5225814187155
 30
0.0
 10
51.25215677340099
 20
500.6478002742851
 30
0.0
 10
55.81216224559812
 20
509.7171444912101
 30
0.0
 10
60.74587460187026
 20
518.6284196280321
 30
0.0
 10
66.31748839551786
 20
527.1139233942197
 30
0.0
 10
72.57507333714929
 20
536.6441533340607
 30
0.0
 10
79.2784203111442
 20
545.9228486055789
 30
0.0
 10
86.67604464162183
 20
554.5979743264604
 30
0.0
 10
96.20686086297107
 20
565.7746744735846
 30
0.0
 10
106.3130225975729
 20
576.4949511273892
 30
0.0
 10
117.0102934483168
 20
586.5609076328437
 30
0.0
 10
127.0461965615101
 20
596.0045279393564
 30
0.0
 10
137.8107105829961
 20
604.6722024665241
 30
0.0
 10
148.7696411922387
 20
613.0270307527787
 30
0.0
 10
158.3948851573145
 20
620.3650880330836
 30
0.0
 10
168.3639985650365
 20
627.2862131728687
 30
0.0
 10
178.6967188740115
 20
633.5891725613438
 30
0.0
 10
188.7533848376863
 20
639.723738799185
 30
0.0
 10
199.1414120658185
 20
645.3642453278347
 30
0.0
 10
209.8453099305506
 20
650.2831886831491
 30
0.0
 10
220.1516123451492
 20
655.0194182717346
 30
0.0
 10
230.7696106495503
 20
659.143699330568
 30
0.0
 10
241.6046576744726
 20
662.4983224308107
 30
0.0
 10
249.8947751774949
 20
665.0650136150207
 30
0.0
 10
258.4326945790636
 20
666.991727935424
 30
0.0
 10
267.0528529821026
 20
667.9951326172591
 30
0.0
 10
271.38002895523
 20
668.4988250585754
 30
0.0
 10
275.9399595490429
 20
668.3258832242083
 30
0.0
 10
280.082328979609
 20
666.9772048049538
 30
0.0
 10
282.136101050209
 20
666.3085348284801
 30
0.0
 10
283.8265568446634
 20
664.3258405111236
 30
0.0
 10
284.5612113537521
 20
662.2947368683498
 30
0.0
 10
286.2232947314565
 20
657.6995651770492
 30
0.0
 10
284.8976538089178
 20
652.2492918520581
 30
0.0
 10
287.0042381032844
 20
647.8401619336163
 30
0.0
 10
288.0679406259045
 20
645.6138078165048
 30
0.0
 10
290.8998437472796
 20
644.4752751619185
 30
0.0
 10
293.3153905395768
 20
643.9720362468564
 30
0.0
 10
296.0521753346052
 20
643.4018727478921
 30
0.0
 10
299.1012386288771
 20
643.6658710091245
 30
0.0
 10
301.6623986004793
 20
644.7863784967005
 30
0.0
 10
303.7290961449253
 20
645.6905586723956
 30
0.0
 10
305.7934227971179
 20
647.4850384939026
 30
0.0
 10
306.3448665370831
 20
649.6724319957655
 30
0.0
 10
307.9250934695807
 20
655.9406654946733
 30
0.0
 10
307.2949324952348
 20
662.5661842849646
 30
0.0
 10
307.7699654743107
 20
669.0130604295643
 30
0.0
  0
SPLINE
  5
9B
330
1F
100
AcDbEntity
  8
0
  6
Continuous
 62
     7
370
    25
100
AcDbSpline
210
0.0
220
0.0
230
1.0
 70
     8
 71
     3
 72
    35
 73
    31
 74
     0
 42
0.000000001
 43
0.00000001
 40
0.0
 40
0.0
 40
0.0
 40
0.0
 40
1.0
 40
1.0
 40
1.0
 40
2.0
 40
2.0
 40
2.0
 40
3.0
 40
3.0
 40
3.0
 40
4.0
 40
4.0
 40
4.0
 40
5.0
 40
5.0
 40
5.0
 40
6.0
 40
6.0
 40
6.0
 40
7.0
 40
7.0
 40
7.0
 40
8.0
 40
8.0
 40
8.0
 40
9.0
 40
9.0
 40
9.0
 40
10.0
 40
10.0
 40
10.0
 40
10.0
 10
216.9708046166869
 20
606.512292754025
 30
0.0
 10
205.9093223896371
 20
602.9834763380337
 30
0.0
 10
194.6196721942485
 20
600.1029521387206
 30
0.0
 10
183.7863579355376
 20
595.9258435060513
 30
0.0
 10
172.9338166457104
 20
591.7413213159299
 30
0.0
 10
162.2171238414997
 20
587.0792505799786
 30
0.0
 10
152.0270101916154
 20
581.4712685713178
 30
0.0
 10
141.9351890309708
 20
575.9173804157952
 30
0.0
 10
132.1649173440697
 20
569.6681189153117
 30
0.0
 10
123.1178603221479
 20
562.5378112624406
 30
0.0
 10
116.0701847100961
 20
556.983287263112
 30
0.0
 10
109.6937496689873
 20
550.5242436826238
 30
0.0
 10
103.9808174508102
 20
543.6043539535642
 30
0.0
 10
99.98705447483249
 20
538.7668382361826
 30
0.0
 10
96.8045349787024
 20
533.2319084763906
 30
0.0
 10
94.20871045268028
 20
527.521094519142
 30
0.0
 10
92.34917656703715
 20
523.4301199707268
 30
0.0
 10
91.21413845380917
 20
518.9611180833982
 30
0.0
 10
90.74775589084264
 20
514.4916185216355
 30
0.0
 10
90.38684094520171
 20
511.0328502925763
 30
0.0
 10
90.54824187233807
 20
507.3662343293699
 30
0.0
 10
91.76568370314784
 20
504.1087548361227
 30
0.0
 10
93.1362262359633
 20
500.4416275185893
 30
0.0
 10
95.49788453607103
 20
497.0904990536593
 30
0.0
 10
98.28042170190109
 20
494.3366478379926
 30
0.0
 10
102.1778007789414
 20
490.4794479266949
 30
0.0
 10
106.6659756929136
 20
487.1275908188504
 30
0.0
 10
111.5134832618687
 20
484.5645408398625
 30
0.0
 10
145.9260776077523
 20
466.3693760133036
 30
0.0
 10
126.2918513434981
 20
481.3720213789509
 30
0.0
 10
135.5365796322712
 20
474.1816771543496
 30
0.0
  0
LINE
  5
9C
330
1F
100
AcDbEntity
  8
0
  6
Continuous
 62
     7
370
    25
100
AcDbLine
 10
217.3779757416
 20
606.1051216291
 30
0.0
 11
216.9708046167
 21
606.512292754
 31
0.0
  0
SPLINE
  5
9D
330
1F
100
AcDbEntity
  8
0
  6
Continuous
 62
     7
370
    25
100
AcDbSpline
210
0.0
220
0.0
230
1.0
 70
     8
 71
     3
 72
    56
 73
    52
 74
     0
 42
0.000000001
 43
0.00000001
 40
0.0
 40
0.0
 40
0.0
 40
0.0
 40
1.0
 40
1.0
 40
1.0
 40
2.0
 40
2.0
 40
2.0
 40
3.0
 40
3.0
 40
3.0
 40
4.0
 40
4.0
 40
4.0
 40
5.0
 40
5.0
 40
5.0
 40
6.0
 40
6.0
 40
6.0
 40
7.0
 40
7.0
 40
7.0
 40
8.0
 40
8.0
 40
8.0
 40
9.0
 40
9.0
 40
9.0
 40
10.0
 40
10.0
 40
10.0
 40
11.0
 40
11.0
 40
11.0
 40
12.0
 40
12.0
 40
12.0
 40
13.0
 40
13.0
 40
13.0
 40
14.0
 40
14.0
 40
14.0
 40
15.0
 40
15.0
 40
15.0
 40
16.0
 40
16.0
 40
16.0
 40
17.0
 40
17.0
 40
17.0
 40
17.0
 10
518.4810226214862
 20
473.7745060294275
 30
0.0
 10
519.0917793088693
 20
474.2495390085035
 30
0.0
 10
519.5986690055404
 20
474.9029687229175
 30
0.0
 10
520.3132926836357
 20
475.199604966655
 30
0.0
 10
526.8202029157522
 20
477.9005865724392
 30
0.0
 10
533.7290671425391
 20
479.6434780460957
 30
0.0
 10
540.0610922423562
 20
482.7322707777134
 30
0.0
 10
544.916767741753
 20
485.1008929725411
 30
0.0
 10
549.5993744196053
 20
487.9704923855602
 30
0.0
 10
553.7013249272457
 20
491.4864499635382
 30
0.0
 10
556.8154721108709
 20
494.1557189780737
 30
0.0
 10
559.603296619079
 20
497.3864120358337
 30
0.0
 10
561.4375763007654
 20
501.0549713992072
 30
0.0
 10
566.0502393669262
 20
510.2802975315284
 30
0.0
 10
564.6150746671534
 20
508.4068225799177
 30
0.0
 10
563.6770174878371
 20
512.6593484594862
 30
0.0
 10
562.6590896755315
 20
517.2739545419361
 30
0.0
 10
563.0817376587511
 20
522.4675098411533
 30
0.0
 10
560.6232340509212
 20
526.503166706837
 30
0.0
 10
557.1652580080131
 20
532.1794670036861
 30
0.0
 10
554.2860194026764
 20
538.2898009005193
 30
0.0
 10
550.0367848029473
 20
543.4007683911028
 30
0.0
 10
544.5145127172855
 20
550.0429418088227
 30
0.0
 10
538.243579659181
 20
556.1088228881579
 30
0.0
 10
531.5104986189924
 20
561.5198834501356
 30
0.0
 10
523.323787138967
 20
568.0991584295172
 30
0.0
 10
514.5705429431293
 20
574.0209723447321
 30
0.0
 10
505.4515466239796
 20
579.231827384246
 30
0.0
 10
495.5163051803708
 20
584.9091082091655
 30
0.0
 10
485.1310305743409
 20
589.843777666126
 30
0.0
 10
474.5065411299017
 20
594.0935734439021
 30
0.0
 10
462.6910429470926
 20
598.8197727170254
 30
0.0
 10
450.5416995065459
 20
602.7425494387719
 30
0.0
 10
438.2683110118367
 20
606.1051216291031
 30
0.0
 10
425.7384527013561
 20
609.5379595223856
 30
0.0
 10
413.0254431619068
 20
612.3945646044464
 30
0.0
 10
400.1978108316223
 20
614.4521296900058
 30
0.0
 10
385.909321413029
 20
616.7440177170487
 30
0.0
 10
371.4764465657936
 20
618.1674069583671
 30
0.0
 10
357.0376715898821
 20
619.13459762661
 30
0.0
 10
342.8159684632209
 20
620.0872475968171
 30
0.0
 10
328.501730869806
 20
620.9689956537987
 30
0.0
 10
314.2847034730637
 20
619.9489398764539
 30
0.0
 10
299.1515099967933
 20
618.8631502099948
 30
0.0
 10
283.8241254550596
 20
619.340852092787
 30
0.0
 10
268.8851230442519
 20
616.6915708770773
 30
0.0
 10
255.1091666510549
 20
614.2485441275452
 30
0.0
 10
240.9066243937422
 20
613.5505284415252
 30
0.0
 10
227.557253864661
 20
609.3624906284796
 30
0.0
 10
224.1580251716292
 20
608.2960659404697
 30
0.0
 10
220.7577413533718
 20
607.2317101663576
 30
0.0
 10
217.377975741609
 20
606.1051216291031
 30
0.0
  0
SPLINE
  5
9E
330
1F
100
AcDbEntity
  8
0
  6
Continuous
 62
     7
370
    25
100
AcDbSpline
210
0.0
220
0.0
230
1.0
 70
     8
 71
     3
 72
    68
 73
    64
 74
     0
 42
0.000000001
 43
0.00000001
 40
0.0
 40
0.0
 40
0.0
 40
0.0
 40
1.0
 40
1.0
 40
1.0
 40
2.0
 40
2.0
 40
2.0
 40
3.0
 40
3.0
 40
3.0
 40
4.0
 40
4.0
 40
4.0
 40
5.0
 40
5.0
 40
5.0
 40
6.0
 40
6.0
 40
6.0
 40
7.0
 40
7.0
 40
7.0
 40
8.0
 40
8.0
 40
8.0
 40
9.0
 40
9.0
 40
9.0
 40
10.0
 40
10.0
 40
10.0
 40
11.0
 40
11.0
 40
11.0
 40
12.0
 40
12.0
 40
12.0
 40
13.0
 40
13.0
 40
13.0
 40
14.0
 40
14.0
 40
14.0
 40
15.0
 40
15.0
 40
15.0
 40
16.0
 40
16.0
 40
16.0
 40
17.0
 40
17.0
 40
17.0
 40
18.0
 40
18.0
 40
18.0
 40
19.0
 40
19.0
 40
19.0
 40
20.0
 40
20.0
 40
20.0
 40
21.0
 40
21.0
 40
21.0
 40
21.0
 10
348.2834924040573
 20
648.6545041834606
 30
0.0
 10
350.3193480286677
 20
647.1615433920795
 30
0.0
 10
351.9610230274736
 20
644.8601390629558
 30
0.0
 10
354.3910592778885
 20
644.1756218093177
 30
0.0
 10
357.0723546576719
 20
643.4203273361389
 30
0.0
 10
360.1037207708912
 20
643.6772363015244
 30
0.0
 10
362.738067338791
 20
644.5827929342394
 30
0.0
 10
364.6941212191572
 20
645.2551864556158
 30
0.0
 10
366.6288769142883
 20
646.7436046911341
 30
0.0
 10
367.4205352753949
 20
648.6545041834606
 30
0.0
 10
368.7285257176993
 20
651.8117224924706
 30
0.0
 10
367.7294396077179
 20
655.5404540229124
 30
0.0
 10
368.6420486501613
 20
658.8337823065125
 30
0.0
 10
369.3147692888209
 20
661.2614263503715
 30
0.0
 10
370.0916640085613
 20
664.0353582716914
 30
0.0
 10
372.1030032119986
 20
665.5521058677265
 30
0.0
 10
374.5889209883154
 20
667.426732387572
 30
0.0
 10
377.9473254600579
 20
668.1766370272362
 30
0.0
 10
381.0607679602847
 20
668.1987181797195
 30
0.0
 10
388.2491405679976
 20
668.2496995457321
 30
0.0
 10
395.4245584045923
 20
666.9288456267535
 30
0.0
 10
402.437252018694
 20
665.3485203052653
 30
0.0
 10
406.7096980607012
 20
664.385715563405
 30
0.0
 10
411.1754735456458
 20
664.0705027800775
 30
0.0
 10
415.263142453739
 20
662.4983224308107
 30
0.0
 10
428.8779872869936
 20
657.2618436487904
 30
0.0
 10
442.3520810826707
 20
651.5726352446984
 30
0.0
 10
455.3694982585641
 20
644.9899640591618
 30
0.0
 10
466.2851207598089
 20
639.4701322261458
 30
0.0
 10
476.8279477594381
 20
633.1639777901353
 30
0.0
 10
486.925260440025
 20
626.2600923127459
 30
0.0
 10
499.3955630194954
 20
617.7337107297949
 30
0.0
 10
511.3225762834268
 20
608.4082898078356
 30
0.0
 10
522.9599049956289
 20
598.7760413805058
 30
0.0
 10
531.4315855903063
 20
591.764008455857
 30
0.0
 10
539.4913171395144
 20
584.2378882064885
 30
0.0
 10
547.1865869284926
 20
576.3816295097919
 30
0.0
 10
555.7283128858008
 20
567.6612063567233
 30
0.0
 10
563.9554227592926
 20
558.604286108509
 30
0.0
 10
571.6168544238171
 20
549.1011641400123
 30
0.0
 10
578.0931466027345
 20
541.0680709565477
 30
0.0
 10
584.0543789857571
 20
532.6009473650317
 30
0.0
 10
589.5323839203887
 20
523.8565543948434
 30
0.0
 10
594.9982916633664
 20
515.1314718485991
 30
0.0
 10
600.2543063456827
 20
506.2065018995054
 30
0.0
 10
604.3941299800447
 20
496.7796745875251
 30
0.0
 10
605.9463465070596
 20
493.2451092428762
 30
0.0
 10
605.8573351911475
 20
489.1965525130906
 30
0.0
 10
606.4299856046549
 20
485.3788830897067
 30
0.0
 10
606.4714914996356
 20
485.1021771231685
 30
0.0
 10
606.3400382318223
 20
484.8202267665265
 30
0.0
 10
606.226400042194
 20
484.5645408398625
 30
0.0
 10
605.2523504589839
 20
482.3729292776401
 30
0.0
 10
604.9162260326509
 20
479.6965450780723
 30
0.0
 10
603.1726166052781
 20
478.0498028411095
 30
0.0
 10
601.0323010942612
 20
476.0283937473711
 30
0.0
 10
598.1376265231706
 20
474.6601225185168
 30
0.0
 10
595.2327796692978
 20
474.1816771543496
 30
0.0
 10
586.4403834312252
 20
472.7335177739614
 30
0.0
 10
577.4738039856994
 20
472.3966788852975
 30
0.0
 10
568.5630709869017
 20
472.3494070922002
 30
0.0
 10
551.8625326370678
 20
472.260810071777
 30
0.0
 10
535.1750387432915
 20
473.2994730503521
 30
0.0
 10
518.4810226214862
 20
473.7745060294275
 30
0.0
  0
SPLINE
  5
9F
330
1F
100
AcDbEntity
  8
0
  6
Continuous
 62
     7
370
    25
100
AcDbSpline
210
0.0
220
0.0
230
1.0
 70
     8
 71
     3
 72
    20
 73
    16
 74
     0
 42
0.000000001
 43
0.00000001
 40
0.0
 40
0.0
 40
0.0
 40
0.0
 40
1.0
 40
1.0
 40
1.0
 40
2.0
 40
2.0
 40
2.0
 40
3.0
 40
3.0
 40
3.0
 40
4.0
 40
4.0
 40
4.0
 40
5.0
 40
5.0
 40
5.0
 40
5.0
 10
307.7699654743107
 20
669.0130604295643
 30
0.0
 10
309.8736829530744
 20
669.8274026794082
 30
0.0
 10
311.8656596136872
 20
671.0312047659896
 30
0.0
 10
314.0811179106026
 20
671.4560871790967
 30
0.0
 10
316.8834756223507
 20
671.9935256443632
 30
0.0
 10
319.7788861661263
 20
671.921878003358
 30
0.0
 10
322.6317115339662
 20
671.8632583040192
 30
0.0
 10
329.6960049523252
 20
671.7181015899428
 30
0.0
 10
336.8738439108185
 20
672.2200279037658
 30
0.0
 10
343.8046100299144
 20
670.8453304917134
 30
0.0
 10
345.501693681433
 20
670.5087188583545
 30
0.0
 10
346.9232637081064
 20
668.6731500921079
 30
0.0
 10
347.2655645917522
 20
666.9772048049538
 30
0.0
 10
348.4757809719121
 20
660.9811327396143
 30
0.0
 10
347.9441831332888
 20
654.7620710572915
 30
0.0
 10
348.2834924040573
 20
648.6545041834606
 30
0.0
  0
LINE
  5
A0
330
1F
100
AcDbEntity
  8
0
  6
Continuous
 62
     7
370
    25
100
AcDbLine
 10
431.3464018882
 20
302.7626335622
 30
0.0
 11
479.1890090665
 21
303.7615704487
 31
0.0
  0
LINE
  5
A1
330
1F
100
AcDbEntity
  8
0
  6
Continuous
 62
     7
370
    25
100
AcDbLine
 10
431.3464018882
 20
302.7626335622
 30
0.0
 11
355.0018159653
 21
303.1698046871
 31
0.0
  0
LINE
  5
A2
330
1F
100
AcDbEntity
  8
0
  6
Continuous
 62
     7
370
    25
100
AcDbLine
 10
355.0018159653
 20
303.1698046871
 30
0.0
 11
354.5946448403
 21
303.9841469369
 31
0.0
  0
LINE
  5
A3
330
1F
100
AcDbEntity
  8
0
  6
Continuous
 62
     7
370
    25
100
AcDbLine
 10
354.5946448403
 20
303.9841469369
 30
0.0
 11
353.983888153
 21
302.7626335622
 31
0.0
  0
LINE
  5
A4
330
1F
100
AcDbEntity
  8
0
  6
Continuous
 62
     7
370
    25
100
AcDbLine
 10
353.983888153
 20
302.7626335622
 30
0.0
 11
350.3193480287
 21
303.576975812
 31
0.0
  0
LINE
  5
A5
330
1F
100
AcDbEntity
  8
0
  6
Continuous
 62
     7
370
    25
100
AcDbLine
 10
350.3193480287
 20
303.576975812
 30
0.0
 11
349.5050057788
 21
302.7626335622
 31
0.0
  0
LINE
  5
A6
330
1F
100
AcDbEntity
  8
0
  6
Continuous
 62
     7
370
    25
100
AcDbLine
 10
349.5050057788
 20
302.7626335622
 30
0.0
 11
347.6727357167
 21
303.1698046871
 31
0.0
  0
LINE
  5
A7
330
1F
100
AcDbEntity
  8
0
  6
Continuous
 62
     7
370
    25
100
AcDbLine
 10
347.6727357167
 20
303.1698046871
 30
0.0
 11
347.8763212791
 21
322.103261996
 31
0.0
  0
SPLINE
  5
A8
330
1F
100
AcDbEntity
  8
0
  6
Continuous
 62
     7
370
    25
100
AcDbSpline
210
0.0
220
0.0
230
1.0
 70
     8
 71
     3
 72
    23
 73
    19
 74
     0
 42
0.000000001
 43
0.00000001
 40
0.0
 40
0.0
 40
0.0
 40
0.0
 40
1.0
 40
1.0
 40
1.0
 40
2.0
 40
2.0
 40
2.0
 40
3.0
 40
3.0
 40
3.0
 40
4.0
 40
4.0
 40
4.0
 40
5.0
 40
5.0
 40
5.0
 40
6.0
 40
6.0
 40
6.0
 40
6.0
 10
347.8763212791353
 20
322.1032619959534
 30
0.0
 10
365.1829849829026
 20
321.6244214982208
 30
0.0
 10
382.50665342554
 20
321.4814116485658
 30
0.0
 10
399.7906397067003
 20
320.474577496265
 30
0.0
 10
427.610583330714
 20
318.8539982560312
 30
0.0
 10
455.4208095836743
 20
317.0229266657097
 30
0.0
 10
483.2607203157266
 20
315.7921095596611
 30
0.0
 10
484.9043428252256
 20
315.7194441434517
 30
0.0
 10
499.977850348759
 20
313.8056810763448
 30
0.0
 10
501.5834209372198
 20
320.067406371343
 30
0.0
 10
502.9904220107053
 20
325.5547105579365
 30
0.0
 10
502.4737380335142
 20
323.7776815520648
 30
0.0
 10
501.5834209372198
 20
325.7678021202519
 30
0.0
 10
499.4729014900428
 20
330.4854338257062
 30
0.0
 10
497.202690536633
 20
335.2736961029595
 30
0.0
 10
493.8471695637003
 20
339.2044492426807
 30
0.0
 10
487.644471324086
 20
346.4704671805148
 30
0.0
 10
475.7411072466794
 20
346.2603417090619
 30
0.0
 10
467.5846320062262
 20
347.3478717411224
 30
0.0
  0
LINE
  5
A9
330
1F
100
AcDbEntity
  8
0
  6
Continuous
 62
     7
370
    25
100
AcDbLine
 10
467.5846320062
 20
347.3478717411
 30
0.0
 11
467.3810464438
 21
347.1442861787
 31
0.0
  0
LINE
  5
AA
330
1F
100
AcDbEntity
  8
0
  6
Continuous
 62
     7
370
    25
100
AcDbLine
 10
467.3810464438
 20
347.1442861787
 30
0.0
 11
347.8763212791
 21
349.3837273657
 31
0.0
  0
LINE
  5
AB
330
1F
100
AcDbEntity
  8
0
  6
Continuous
 62
     7
370
    25
100
AcDbLine
 10
347.8763212791
 20
349.3837273657
 30
0.0
 11
347.4691501542
 21
370.9637969866
 31
0.0
  0
SPLINE
  5
AC
330
1F
100
AcDbEntity
  8
0
  6
Continuous
 62
     7
370
    25
100
AcDbSpline
210
0.0
220
0.0
230
1.0
 70
     8
 71
     3
 72
    20
 73
    16
 74
     0
 42
0.000000001
 43
0.00000001
 40
0.0
 40
0.0
 40
0.0
 40
0.0
 40
1.0
 40
1.0
 40
1.0
 40
2.0
 40
2.0
 40
2.0
 40
3.0
 40
3.0
 40
3.0
 40
4.0
 40
4.0
 40
4.0
 40
4.65047247191934
 40
4.65047247191934
 40
4.65047247191934
 40
4.65047247191934
 10
347.4691501542132
 20
370.9637969866029
 30
0.0
 10
372.4438145129092
 20
370.4179026836803
 30
0.0
 10
397.4267829824626
 20
370.0998747150427
 30
0.0
 10
422.3886371398756
 20
369.1315269244537
 30
0.0
 10
447.0908785358133
 20
368.1732503185766
 30
0.0
 10
499.19239524265
 20
371.0260508504614
 30
0.0
 10
524.1814183703952
 20
356.1020509269468
 30
0.0
 10
536.2629603797408
 20
348.8866855602546
 30
0.0
 10
562.8766820741118
 20
315.5374195550073
 30
0.0
 10
539.4503355549731
 20
306.4271736864533
 30
0.0
 10
531.5660768820696
 20
303.3610730914353
 30
0.0
 10
526.7188841258097
 20
302.9376040498129
 30
0.0
 10
518.2774370590249
 20
302.9662191246157
 30
0.0
 10
505.2554679930147
 20
303.010361392636
 30
0.0
 10
492.2120215585389
 20
303.6867137793632
 30
0.0
 10
479.1890090664658
 20
303.7615704487342
 30
0.0
  0
LINE
  5
AD
330
1F
100
AcDbEntity
  8
0
  6
Continuous
 62
     7
370
    25
100
AcDbLine
 10
450.0762736346
 20
271.4104569432
 30
0.0
 11
556.5515228017
 21
272.0212136305
 31
0.0
  0
SPLINE
  5
AE
330
1F
100
AcDbEntity
  8
0
  6
Continuous
 62
     7
370
    25
100
AcDbSpline
210
0.0
220
0.0
230
1.0
 70
     8
 71
     3
 72
    26
 73
    22
 74
     0
 42
0.000000001
 43
0.00000001
 40
0.0
 40
0.0
 40
0.0
 40
0.0
 40
1.0
 40
1.0
 40
1.0
 40
2.0
 40
2.0
 40
2.0
 40
3.0
 40
3.0
 40
3.0
 40
4.0
 40
4.0
 40
4.0
 40
5.0
 40
5.0
 40
5.0
 40
6.0
 40
6.0
 40
6.0
 40
6.998391766219431
 40
6.998391766219431
 40
6.998391766219431
 40
6.998391766219431
 10
556.5515228017003
 20
272.0212136305376
 30
0.0
 10
557.4762843396591
 20
271.7129597845513
 30
0.0
 10
556.848274638508
 20
271.7865726432945
 30
0.0
 10
557.7730361764665
 20
272.0212136305376
 30
0.0
 10
574.9203068988625
 20
276.3720136645783
 30
0.0
 10
581.2646413865048
 20
278.2936845207982
 30
0.0
 10
585.4606726711679
 20
295.8407244384793
 30
0.0
 10
585.5395869185462
 20
296.1707294729713
 30
0.0
 10
585.4687491743954
 20
296.5194391152413
 30
0.0
 10
585.4606726711679
 20
296.8586522507845
 30
0.0
 10
584.7884781942586
 20
325.090820280971
 30
0.0
 10
577.3648006342825
 20
355.0038656817155
 30
0.0
 10
554.7192527395512
 20
374.0175804235184
 30
0.0
 10
537.0385365143851
 20
388.862710084271
 30
0.0
 10
510.211333691827
 20
392.2982828299441
 30
0.0
 10
488.3503593772526
 20
393.3582088573174
 30
0.0
 10
475.403775941806
 20
393.9859219935815
 30
0.0
 10
462.4222910587742
 20
393.5152492144628
 30
0.0
 10
449.4655169471938
 20
393.1546232948562
 30
0.0
 10
415.5870376827007
 20
392.2116835141345
 30
0.0
 10
381.7127936974852
 20
391.1222777330354
 30
0.0
 10
347.8364422896094
 20
390.1057516247706
 30
0.0
  0
LINE
  5
AF
330
1F
100
AcDbEntity
  8
0
  6
Continuous
 62
     7
370
    25
100
AcDbLine
 10
347.2655645918
 20
396.0048211693
 30
0.0
 11
347.8364422896
 21
390.1057516248
 31
0.0
  0
LINE
  5
B0
330
1F
100
AcDbEntity
  8
0
  6
Continuous
 62
     7
370
    25
100
AcDbLine
 10
347.4691501542
 20
396.2084067318
 30
0.0
 11
347.2655645918
 21
396.0048211693
 31
0.0
  0
SPLINE
  5
B1
330
1F
100
AcDbEntity
  8
0
  6
Continuous
 62
     7
370
    25
100
AcDbSpline
210
0.0
220
0.0
230
1.0
 70
     8
 71
     3
 72
    14
 73
    10
 74
     0
 42
0.000000001
 43
0.00000001
 40
0.0
 40
0.0
 40
0.0
 40
0.0
 40
1.0
 40
1.0
 40
1.0
 40
2.0
 40
2.0
 40
2.0
 40
3.0
 40
3.0
 40
3.0
 40
3.0
 10
312.4524334109145
 20
405.5733426049796
 30
0.0
 10
313.0631900982974
 20
405.7769281674406
 30
0.0
 10
313.6470866684836
 20
406.0951295056769
 30
0.0
 10
314.2847034730637
 20
406.1840992923624
 30
0.0
 10
316.5787459887686
 20
406.5041982480424
 30
0.0
 10
318.890407866334
 20
406.8118868968812
 30
0.0
 10
321.2066125967389
 20
406.7948559797458
 30
0.0
 10
337.8424862209321
 20
406.6725333795678
 30
0.0
 10
344.1982574048326
 20
410.9274241039848
 30
0.0
 10
347.4691501542132
 20
396.2084067317717
 30
0.0
  0
LINE
  5
B2
330
1F
100
AcDbEntity
  8
0
  6
Continuous
 62
     7
370
    25
100
AcDbLine
 10
312.4524334109
 20
405.7769281674
 30
0.0
 11
312.4524334109
 21
405.573342605
 31
0.0
  0
SPLINE
  5
B3
330
1F
100
AcDbEntity
  8
0
  6
Continuous
 62
     7
370
    25
100
AcDbSpline
210
0.0
220
0.0
230
1.0
 70
     8
 71
     3
 72
     8
 73
     4
 74
     0
 42
0.000000001
 43
0.00000001
 40
0.0
 40
0.0
 40
0.0
 40
0.0
 40
1.0
 40
1.0
 40
1.0
 40
1.0
 10
307.1592087869274
 20
390.1008398579405
 30
0.0
 10
307.4442023297148
 20
397.2256784276288
 30
0.0
 10
305.8168907643529
 20
401.7956025795036
 30
0.0
 10
312.4524334109145
 20
405.7769281674406
 30
0.0
  0
SPLINE
  5
B4
330
1F
100
AcDbEntity
  8
0
  6
Continuous
 62
     7
370
    25
100
AcDbSpline
210
0.0
220
0.0
230
1.0
 70
     8
 71
     3
 72
    26
 73
    22
 74
     0
 42
0.000000001
 43
0.00000001
 40
0.0
 40
0.0
 40
0.0
 40
0.0
 40
1.0
 40
1.0
 40
1.0
 40
2.0
 40
2.0
 40
2.0
 40
3.0
 40
3.0
 40
3.0
 40
4.0
 40
4.0
 40
4.0
 40
5.0
 40
5.0
 40
5.0
 40
6.0
 40
6.0
 40
6.0
 40
7.0
 40
7.0
 40
7.0
 40
7.0
 10
98.28042170190109
 20
272.0212136305376
 30
0.0
 10
97.35566016394247
 20
271.7129597845513
 30
0.0
 10
97.98366986509343
 20
271.7865726432945
 30
0.0
 10
97.05890832713484
 20
272.0212136305376
 30
0.0
 10
79.91163760473903
 20
276.3720136645783
 30
0.0
 10
73.5673031170964
 20
278.2936845207982
 30
0.0
 10
69.37127183243348
 20
295.8407244384793
 30
0.0
 10
69.29235758505497
 20
296.1707294729713
 30
0.0
 10
69.36319532920629
 20
296.5194391152413
 30
0.0
 10
69.37127183243348
 20
296.8586522507845
 30
0.0
 10
70.0434663093427
 20
325.090820280971
 30
0.0
 10
77.46714386931892
 20
355.0038656817155
 30
0.0
 10
100.1126917640504
 20
374.0175804235184
 30
0.0
 10
117.7934079892165
 20
388.862710084271
 30
0.0
 10
144.6206108117745
 20
392.2982828299441
 30
0.0
 10
166.4815851263491
 20
393.3582088573174
 30
0.0
 10
179.4281685617956
 20
393.9859219935815
 30
0.0
 10
192.4096534448273
 20
393.5152492144628
 30
0.0
 10
205.3664275564077
 20
393.1546232948562
 30
0.0
 10
239.2994791006721
 20
392.2101646037631
 30
0.0
 10
273.2282817100873
 20
391.1187676702458
 30
0.0
 10
307.1592087869274
 20
390.1008398579405
 30
0.0
  0
LINE
  5
B5
330
1F
100
AcDbEntity
  8
0
  6
Continuous
 62
     7
370
    25
100
AcDbLine
 10
98.2804217019
 20
271.8176280681
 30
0.0
 11
98.2804217019
 21
272.0212136305
 31
0.0
  0
LINE
  5
B6
330
1F
100
AcDbEntity
  8
0
  6
Continuous
 62
     7
370
    25
100
AcDbLine
 10
286.5970669784
 20
271.8176280681
 30
0.0
 11
98.2804217019
 21
271.8176280681
 31
0.0
  0
LINE
  5
B7
330
1F
100
AcDbEntity
  8
0
  6
Continuous
 62
     7
370
    25
100
AcDbLine
 10
287.8185803531
 20
272.224799193
 30
0.0
 11
286.5970669784
 21
271.8176280681
 31
0.0
  0
LINE
  5
B8
330
1F
100
AcDbEntity
  8
0
  6
Continuous
 62
     7
370
    25
100
AcDbLine
 10
450.0762736346
 20
271.4104569432
 30
0.0
 11
287.8185803531
 21
272.224799193
 31
0.0
  0
LINE
  5
B9
330
1F
100
AcDbEntity
  8
0
  6
Continuous
 62
     7
370
    25
100
AcDbLine
 10
223.4855426154
 20
302.7626335622
 30
0.0
 11
299.8301285383
 21
303.1698046871
 31
0.0
  0
LINE
  5
BA
330
1F
100
AcDbEntity
  8
0
  6
Continuous
 62
     7
370
    25
100
AcDbLine
 10
223.4855426154
 20
302.7626335622
 30
0.0
 11
175.6429354371
 21
303.7615704487
 31
0.0
  0
SPLINE
  5
BB
330
1F
100
AcDbEntity
  8
0
  6
Continuous
 62
     7
370
    25
100
AcDbSpline
210
0.0
220
0.0
230
1.0
 70
     8
 71
     3
 72
    20
 73
    16
 74
     0
 42
0.000000001
 43
0.00000001
 40
0.0
 40
0.0
 40
0.0
 40
0.0
 40
1.0
 40
1.0
 40
1.0
 40
2.0
 40
2.0
 40
2.0
 40
3.0
 40
3.0
 40
3.0
 40
4.0
 40
4.0
 40
4.0
 40
4.65047247191934
 40
4.65047247191934
 40
4.65047247191934
 40
4.65047247191934
 10
307.3627943493885
 20
370.9637969866029
 30
0.0
 10
282.3881299906919
 20
370.4179026836803
 30
0.0
 10
257.4051615211391
 20
370.0998747150427
 30
0.0
 10
232.4433073637258
 20
369.1315269244537
 30
0.0
 10
207.7410659677881
 20
368.1732503185766
 30
0.0
 10
155.6395492609514
 20
371.0260508504614
 30
0.0
 10
130.6505261332063
 20
356.1020509269468
 30
0.0
 10
118.568984123861
 20
348.8866855602546
 30
0.0
 10
91.9552624294898
 20
315.5374195550073
 30
0.0
 10
115.3816089486284
 20
306.4271736864533
 30
0.0
 10
123.2658676215317
 20
303.3610730914353
 30
0.0
 10
128.1130603777919
 20
302.9376040498129
 30
0.0
 10
136.5545074445765
 20
302.9662191246157
 30
0.0
 10
149.5764765105866
 20
303.010361392636
 30
0.0
 10
162.6199229450629
 20
303.6867137793632
 30
0.0
 10
175.6429354371361
 20
303.7615704487342
 30
0.0
  0
LINE
  5
BC
330
1F
100
AcDbEntity
  8
0
  6
Continuous
 62
     7
370
    25
100
AcDbLine
 10
306.9556232245
 20
349.3837273657
 30
0.0
 11
307.3627943494
 21
370.9637969866
 31
0.0
  0
LINE
  5
BD
330
1F
100
AcDbEntity
  8
0
  6
Continuous
 62
     7
370
    25
100
AcDbLine
 10
187.4508980598
 20
347.1442861787
 30
0.0
 11
306.9556232245
 21
349.3837273657
 31
0.0
  0
LINE
  5
BE
330
1F
100
AcDbEntity
  8
0
  6
Continuous
 62
     7
370
    25
100
AcDbLine
 10
187.2473124974
 20
347.3478717411
 30
0.0
 11
187.4508980598
 21
347.1442861787
 31
0.0
  0
SPLINE
  5
BF
330
1F
100
AcDbEntity
  8
0
  6
Continuous
 62
     7
370
    25
100
AcDbSpline
210
0.0
220
0.0
230
1.0
 70
     8
 71
     3
 72
    23
 73
    19
 74
     0
 42
0.000000001
 43
0.00000001
 40
0.0
 40
0.0
 40
0.0
 40
0.0
 40
1.0
 40
1.0
 40
1.0
 40
2.0
 40
2.0
 40
2.0
 40
3.0
 40
3.0
 40
3.0
 40
4.0
 40
4.0
 40
4.0
 40
5.0
 40
5.0
 40
5.0
 40
6.0
 40
6.0
 40
6.0
 40
6.0
 10
306.9556232244663
 20
322.1032619959534
 30
0.0
 10
289.6489595206986
 20
321.6244214982208
 30
0.0
 10
272.3252910780614
 20
321.4814116485658
 30
0.0
 10
255.0413047969012
 20
320.474577496265
 30
0.0
 10
227.2213611728874
 20
318.8539982560312
 30
0.0
 10
199.4111349199275
 20
317.0229266657097
 30
0.0
 10
171.5712241878749
 20
315.7921095596611
 30
0.0
 10
169.9276016783759
 20
315.7194441434517
 30
0.0
 10
154.8540941548427
 20
313.8056810763448
 30
0.0
 10
153.2485235663816
 20
320.067406371343
 30
0.0
 10
151.8415224928962
 20
325.5547105579365
 30
0.0
 10
152.3582064700873
 20
323.7776815520648
 30
0.0
 10
153.2485235663816
 20
325.7678021202519
 30
0.0
 10
155.3590430135584
 20
330.4854338257062
 30
0.0
 10
157.6292539669685
 20
335.2736961029595
 30
0.0
 10
160.9847749399011
 20
339.2044492426807
 30
0.0
 10
167.1874731795155
 20
346.4704671805148
 30
0.0
 10
179.0908372569223
 20
346.2603417090619
 30
0.0
 10
187.2473124973753
 20
347.3478717411224
 30
0.0
  0
LINE
  5
C0
330
1F
100
AcDbEntity
  8
0
  6
Continuous
 62
     7
370
    25
100
AcDbLine
 10
307.1592087869
 20
303.1698046871
 30
0.0
 11
306.9556232245
 21
322.103261996
 31
0.0
  0
LINE
  5
C1
330
1F
100
AcDbEntity
  8
0
  6
Continuous
 62
     7
370
    25
100
AcDbLine
 10
305.3269387248
 20
302.7626335622
 30
0.0
 11
307.1592087869
 21
303.1698046871
 31
0.0
  0
LINE
  5
C2
330
1F
100
AcDbEntity
  8
0
  6
Continuous
 62
     7
370
    25
100
AcDbLine
 10
304.5125964749
 20
303.576975812
 30
0.0
 11
305.3269387248
 21
302.7626335622
 31
0.0
  0
LINE
  5
C3
330
1F
100
AcDbEntity
  8
0
  6
Continuous
 62
     7
370
    25
100
AcDbLine
 10
300.8480563506
 20
302.7626335622
 30
0.0
 11
304.5125964749
 21
303.576975812
 31
0.0
  0
LINE
  5
C4
330
1F
100
AcDbEntity
  8
0
  6
Continuous
 62
     7
370
    25
100
AcDbLine
 10
300.2372996633
 20
303.9841469369
 30
0.0
 11
300.8480563506
 21
302.7626335622
 31
0.0
  0
LINE
  5
C5
330
1F
100
AcDbEntity
  8
0
  6
Continuous
 62
     7
370
    25
100
AcDbLine
 10
299.8301285383
 20
303.1698046871
 30
0.0
 11
300.2372996633
 21
303.9841469369
 31
0.0
  0
SPLINE
  5
C6
330
1F
100
AcDbEntity
  8
0
  6
Continuous
 62
     7
370
    25
100
AcDbSpline
210
0.0
220
0.0
230
1.0
 70
     8
 71
     3
 72
    38
 73
    34
 74
     0
 42
0.000000001
 43
0.00000001
 40
0.0
 40
0.0
 40
0.0
 40
0.0
 40
1.0
 40
1.0
 40
1.0
 40
2.0
 40
2.0
 40
2.0
 40
3.0
 40
3.0
 40
3.0
 40
4.0
 40
4.0
 40
4.0
 40
5.0
 40
5.0
 40
5.0
 40
6.0
 40
6.0
 40
6.0
 40
7.0
 40
7.0
 40
7.0
 40
8.0
 40
8.0
 40
8.0
 40
9.0
 40
9.0
 40
9.0
 40
10.0
 40
10.0
 40
10.0
 40
11.0
 40
11.0
 40
11.0
 40
11.0
 10
308.1771365992326
 20
97.75197216388806
 30
0.0
 10
304.2411490583191
 20
94.96963614358721
 30
0.0
 10
300.7446609298797
 20
91.4269694375053
 30
0.0
 10
296.3691739764922
 20
89.40496410298543
 30
0.0
 10
271.1356030350553
 20
77.74399571338205
 30
0.0
 10
233.4068296392344
 20
89.81262196838851
 30
0.0
 10
210.2524810554727
 20
100.1949989134205
 30
0.0
 10
198.4278608240613
 20
105.4971417929857
 30
0.0
 10
186.7075900067011
 20
111.0996836717676
 30
0.0
 10
175.439349874635
 20
117.4997717226089
 30
0.0
 10
164.2108873185329
 20
123.877267071694
 30
0.0
 10
153.2548587094698
 20
130.7999669753467
 30
0.0
 10
142.8656598808687
 20
138.469084656096
 30
0.0
 10
134.5451171791765
 20
144.6111579958904
 30
0.0
 10
126.6804799434065
 20
151.4300292758509
 30
0.0
 10
119.4533201978492
 20
158.8276409021998
 30
0.0
 10
105.0919534863439
 20
173.5277190927499
 30
0.0
 10
92.75686199124077
 20
190.5045724118717
 30
0.0
 10
83.21509007978419
 20
208.7061037051544
 30
0.0
 10
79.87388770189942
 20
215.0796578209515
 30
0.0
 10
77.33304017775984
 20
221.9078188706906
 30
0.0
 10
75.47883870626468
 20
228.8610743887973
 30
0.0
 10
75.40251286854519
 20
229.1472962802456
 30
0.0
 10
71.98497741637412
 20
242.3165886482289
 30
0.0
 10
75.8860098311868
 20
245.7586760730636
 30
0.0
 10
84.23460913507424
 20
253.1250872235526
 30
0.0
 10
94.75007592706805
 20
255.3019341721371
 30
0.0
 10
105.6095019504985
 20
257.1594675708818
 30
0.0
 10
119.1499633717117
 20
259.4755991297734
 30
0.0
 10
132.9036634187173
 20
260.3059632078468
 30
0.0
 10
146.5302000051674
 20
262.0455210699468
 30
0.0
 10
152.6745441513435
 20
262.829905429033
 30
0.0
 10
151.4165449780892
 20
262.2492523693362
 30
0.0
 10
153.8592802537648
 20
263.4706200071741
 30
0.0
  0
LINE
  5
C7
330
1F
100
AcDbEntity
  8
0
  6
Continuous
 62
     7
370
    25
100
AcDbLine
 10
308.5843077242
 20
151.7021462161
 30
0.0
 11
308.1771365992
 21
97.7519721639
 31
0.0
  0
SPLINE
  5
C8
330
1F
100
AcDbEntity
  8
0
  6
Continuous
 62
     7
370
    25
100
AcDbSpline
210
0.0
220
0.0
230
1.0
 70
     8
 71
     3
 72
    35
 73
    31
 74
     0
 42
0.000000001
 43
0.00000001
 40
0.0
 40
0.0
 40
0.0
 40
0.0
 40
1.0
 40
1.0
 40
1.0
 40
2.0
 40
2.0
 40
2.0
 40
3.0
 40
3.0
 40
3.0
 40
4.0
 40
4.0
 40
4.0
 40
5.0
 40
5.0
 40
5.0
 40
6.0
 40
6.0
 40
6.0
 40
7.0
 40
7.0
 40
7.0
 40
8.0
 40
8.0
 40
8.0
 40
9.0
 40
9.0
 40
9.0
 40
10.0
 40
10.0
 40
10.0
 40
10.0
 10
286.1898958534403
 20
223.7714353272713
 30
0.0
 10
284.1540402288298
 20
226.2144620768037
 30
0.0
 10
282.7197655690173
 20
229.3237161893202
 30
0.0
 10
280.082328979609
 20
231.1005155758686
 30
0.0
 10
276.0990440345699
 20
233.7839917493688
 30
0.0
 10
271.5275480650914
 20
235.7140380435117
 30
0.0
 10
266.8492674196416
 20
236.8009113247778
 30
0.0
 10
257.9776300866206
 20
238.8619987859848
 30
0.0
 10
248.8710943378336
 20
240.0561026802397
 30
0.0
 10
239.7723876123232
 20
240.4654514490765
 30
0.0
 10
215.6364567741841
 20
241.551321548134
 30
0.0
 10
191.4554335350835
 20
241.07846448093
 30
0.0
 10
167.2959273761935
 20
241.2797936989207
 30
0.0
 10
167.0161354983946
 20
241.2821252979024
 30
0.0
 10
166.7589882923746
 20
241.1127651428351
 30
0.0
 10
166.4815851263491
 20
241.0762081364597
 30
0.0
 10
146.7933069725674
 20
238.481628844876
 30
0.0
 10
120.3714733418695
 20
239.2076120412877
 30
0.0
 10
121.8963469473816
 20
211.75988714207
 30
0.0
 10
122.5234466905905
 20
200.4720917643106
 30
0.0
 10
127.855520925818
 20
189.8687326729094
 30
0.0
 10
134.518651819966
 20
181.018467210453
 30
0.0
 10
151.7702623984361
 20
158.1041142283633
 30
0.0
 10
176.593767567347
 20
142.4871953708732
 30
0.0
 10
202.5162296819531
 20
131.1400044074985
 30
0.0
 10
211.1683584641167
 20
127.3526574688909
 30
0.0
 10
220.0773826591321
 20
124.0689901813247
 30
0.0
 10
229.1859383643493
 20
121.5714829718296
 30
0.0
 10
265.6323526160726
 20
111.5781113221635
 30
0.0
 10
291.6053671204608
 20
115.6218974332139
 30
0.0
 10
308.5843077241546
 20
151.7021462160635
 30
0.0
  0
SPLINE
  5
C9
330
1F
100
AcDbEntity
  8
0
  6
Continuous
 62
     7
370
    25
100
AcDbSpline
210
0.0
220
0.0
230
1.0
 70
     8
 71
     3
 72
    29
 73
    25
 74
     0
 42
0.000000001
 43
0.00000001
 40
0.0
 40
0.0
 40
0.0
 40
0.0
 40
1.0
 40
1.0
 40
1.0
 40
2.0
 40
2.0
 40
2.0
 40
3.0
 40
3.0
 40
3.0
 40
4.0
 40
4.0
 40
4.0
 40
5.0
 40
5.0
 40
5.0
 40
6.0
 40
6.0
 40
6.0
 40
7.0
 40
7.0
 40
7.0
 40
8.0
 40
8.0
 40
8.0
 40
8.0
 10
308.5843077241546
 20
199.7483389568686
 30
0.0
 10
308.3114663380737
 20
184.3782742076486
 30
0.0
 10
312.8033336291717
 20
167.1215808182436
 30
0.0
 10
302.4767408503236
 20
153.9415874031349
 30
0.0
 10
296.8020553404462
 20
146.6988966865809
 30
0.0
 10
287.3119203223852
 20
141.9564882324638
 30
0.0
 10
278.2500589174597
 20
141.1156969680894
 30
0.0
 10
269.5942949139793
 20
140.3125848440552
 30
0.0
 10
260.7263698682823
 20
140.4854360736126
 30
0.0
 10
252.1911069224467
 20
142.1336247803946
 30
0.0
 10
241.8024502388549
 20
144.1397102089503
 30
0.0
 10
230.9213326403747
 20
144.4520564530604
 30
0.0
 10
221.0425158659077
 20
148.2411916542258
 30
0.0
 10
211.9121674330794
 20
151.7432431079133
 30
0.0
 10
202.5450385681753
 20
154.7316046888053
 30
0.0
 10
193.7620504961284
 20
159.031226464661
 30
0.0
 10
179.7619187256598
 20
165.8848474568986
 30
0.0
 10
157.1382982358727
 20
179.6858117504007
 30
0.0
 10
152.8413524414596
 20
196.694555519953
 30
0.0
 10
150.7665551054827
 20
204.9072949748616
 30
0.0
 10
157.2372802967651
 20
214.6567739359669
 30
0.0
 10
165.463657314044
 20
216.2387695162128
 30
0.0
 10
203.8427022560329
 20
223.6193550819799
 30
0.0
 10
246.8493615823657
 20
222.5609573496998
 30
0.0
 10
286.1898958534403
 20
223.7714353272713
 30
0.0
  0
LINE
  5
CA
330
1F
100
AcDbEntity
  8
0
  6
Continuous
 62
     7
370
    25
100
AcDbLine
 10
346.044051217
 20
200.3590956443
 30
0.0
 11
308.5843077242
 21
199.7483389569
 31
0.0
  0
SPLINE
  5
CB
330
1F
100
AcDbEntity
  8
0
  6
Continuous
 62
     7
370
    25
100
AcDbSpline
210
0.0
220
0.0
230
1.0
 70
     8
 71
     3
 72
    29
 73
    25
 74
     0
 42
0.000000001
 43
0.00000001
 40
0.0
 40
0.0
 40
0.0
 40
0.0
 40
1.0
 40
1.0
 40
1.0
 40
2.0
 40
2.0
 40
2.0
 40
3.0
 40
3.0
 40
3.0
 40
4.0
 40
4.0
 40
4.0
 40
5.0
 40
5.0
 40
5.0
 40
6.0
 40
6.0
 40
6.0
 40
7.0
 40
7.0
 40
7.0
 40
8.0
 40
8.0
 40
8.0
 40
8.0
 10
369.4563909000053
 20
222.9570930774272
 30
0.0
 10
394.2277113069836
 20
222.2709069165692
 30
0.0
 10
419.1038661151783
 20
223.1490432365777
 30
0.0
 10
443.7651211982847
 20
220.7176518903557
 30
0.0
 10
457.9442940914192
 20
219.3197052670891
 30
0.0
 10
472.1353308595077
 20
218.0438872644018
 30
0.0
 10
486.3145037526421
 20
216.6459406411349
 30
0.0
 10
496.9871249851018
 20
215.5937103787798
 30
0.0
 10
505.4369289830919
 20
205.3961111985821
 30
0.0
 10
502.397763187064
 20
194.4551143328816
 30
0.0
 10
501.2327920756279
 20
190.261218331712
 30
0.0
 10
498.5610721612777
 20
186.5201339093295
 30
0.0
 10
495.6794396258497
 20
183.2579083975244
 30
0.0
 10
491.2880793013457
 20
178.286557086765
 30
0.0
 10
486.2111470868571
 20
173.8860692443952
 30
0.0
 10
480.8176935661941
 20
170.024846837557
 30
0.0
 10
458.0135485320776
 20
153.6991520972237
 30
0.0
 10
430.5430048797092
 20
144.8151444246052
 30
0.0
 10
402.844423143616
 20
141.7264536554725
 30
0.0
 10
386.0565453204195
 20
139.854424114037
 30
0.0
 10
364.9748416510753
 20
138.3255323919577
 30
0.0
 10
353.1695459031225
 20
153.7380018406738
 30
0.0
 10
344.106689158364
 20
165.5700648129972
 30
0.0
 10
346.5521706483548
 20
186.7669008551356
 30
0.0
 10
346.0440512169859
 20
200.3590956442518
 30
0.0
  0
LINE
  5
CC
330
1F
100
AcDbEntity
  8
0
  6
Continuous
 62
     7
370
    25
100
AcDbLine
 10
369.8635620249
 20
225.1965342645
 30
0.0
 11
369.4563909
 21
222.9570930774
 31
0.0
  0
LINE
  5
CD
330
1F
100
AcDbEntity
  8
0
  6
Continuous
 62
     7
370
    25
100
AcDbLine
 10
370.6779042748
 20
225.400119827
 30
0.0
 11
369.8635620249
 21
225.1965342645
 31
0.0
  0
SPLINE
  5
CE
330
1F
100
AcDbEntity
  8
0
  6
Continuous
 62
     7
370
    25
100
AcDbSpline
210
0.0
220
0.0
230
1.0
 70
     8
 71
     3
 72
    14
 73
    10
 74
     0
 42
0.000000001
 43
0.00000001
 40
0.0
 40
0.0
 40
0.0
 40
0.0
 40
1.0
 40
1.0
 40
1.0
 40
2.0
 40
2.0
 40
2.0
 40
3.0
 40
3.0
 40
3.0
 40
3.0
 10
446.0045623853562
 20
240.6690370115377
 30
0.0
 10
444.3758778856678
 20
240.7368988656911
 30
0.0
 10
442.7475586251001
 20
240.9310638202338
 30
0.0
 10
441.1185088862915
 20
240.8726225739986
 30
0.0
 10
425.4654337690046
 20
240.3110772783113
 30
0.0
 10
397.5837908788374
 20
241.3237528904453
 30
0.0
 10
380.4500112729015
 20
234.1542990127844
 30
0.0
 10
371.8487112533784
 20
230.5551734727003
 30
0.0
 10
372.0303972820847
 20
230.1338453525551
 30
0.0
 10
370.6779042747716
 20
225.4001198269596
 30
0.0
  0
LINE
  5
CF
330
1F
100
AcDbEntity
  8
0
  6
Continuous
 62
     7
370
    25
100
AcDbLine
 10
445.8009768229
 20
240.6690370115
 30
0.0
 11
446.0045623854
 21
240.6690370115
 31
0.0
  0
LINE
  5
D0
330
1F
100
AcDbEntity
  8
0
  6
Continuous
 62
     7
370
    25
100
AcDbLine
 10
446.0045623854
 20
240.2618658866
 30
0.0
 11
445.8009768229
 21
240.6690370115
 31
0.0
  0
LINE
  5
D1
330
1F
100
AcDbEntity
  8
0
  6
Continuous
 62
     7
370
    25
100
AcDbLine
 10
461.0698940075
 20
241.0762081365
 30
0.0
 11
446.0045623854
 21
240.2618658866
 31
0.0
  0
LINE
  5
D2
330
1F
100
AcDbEntity
  8
0
  6
Continuous
 62
     7
370
    25
100
AcDbLine
 10
461.2734795699
 20
240.6690370115
 30
0.0
 11
461.0698940075
 21
241.0762081365
 31
0.0
  0
SPLINE
  5
D3
330
1F
100
AcDbEntity
  8
0
  6
Continuous
 62
     7
370
    25
100
AcDbSpline
210
0.0
220
0.0
230
1.0
 70
     8
 71
     3
 72
    20
 73
    16
 74
     0
 42
0.000000001
 43
0.00000001
 40
0.0
 40
0.0
 40
0.0
 40
0.0
 40
1.0
 40
1.0
 40
1.0
 40
2.0
 40
2.0
 40
2.0
 40
3.0
 40
3.0
 40
3.0
 40
4.0
 40
4.0
 40
4.0
 40
5.0
 40
5.0
 40
5.0
 40
5.0
 10
500.9726642498367
 20
159.438397589583
 30
0.0
 10
506.7409218528995
 20
165.2745170467994
 30
0.0
 10
513.0812941761212
 20
170.5959146599055
 30
0.0
 10
518.2774370590249
 20
176.9467559612323
 30
0.0
 10
522.2950963661688
 20
181.8572284477412
 30
0.0
 10
525.7570219627655
 20
187.2884143235975
 30
0.0
 10
528.4567151820771
 20
193.0300153956543
 30
0.0
 10
530.6223993367747
 20
197.6359070486031
 30
0.0
 10
531.9861322038637
 20
202.6534873110563
 30
0.0
 10
532.7320119937591
 20
207.6881758928492
 30
0.0
 10
535.980981067606
 20
229.6187171413166
 30
0.0
 10
521.3334229806305
 20
237.7208819370496
 30
0.0
 10
500.7690786873755
 20
239.6511091992323
 30
0.0
 10
468.8651505273914
 20
242.6457017341046
 30
0.0
 10
474.4497700867213
 20
243.9631096407345
 30
0.0
 10
461.273479569934
 20
240.6690370115377
 30
0.0
  0
LINE
  5
D4
330
1F
100
AcDbEntity
  8
0
  6
Continuous
 62
     7
370
    25
100
AcDbLine
 10
500.9726642498
 20
159.641983152
 30
0.0
 11
500.9726642498
 21
159.4383975896
 31
0.0
  0
LINE
  5
D5
330
1F
100
AcDbEntity
  8
0
  6
Continuous
 62
     7
370
    25
100
AcDbLine
 10
476.8814934356
 20
142.6018867225
 30
0.0
 11
500.9726642498
 21
159.641983152
 31
0.0
  0
SPLINE
  5
D6
330
1F
100
AcDbEntity
  8
0
  6
Continuous
 62
     7
370
    25
100
AcDbSpline
210
0.0
220
0.0
230
1.0
 70
     8
 71
     3
 72
    17
 73
    13
 74
     0
 42
0.000000001
 43
0.00000001
 40
0.0
 40
0.0
 40
0.0
 40
0.0
 40
1.0
 40
1.0
 40
1.0
 40
2.0
 40
2.0
 40
2.0
 40
3.0
 40
3.0
 40
3.0
 40
3.323589011556314
 40
3.323589011556314
 40
3.323589011556314
 40
3.323589011556314
 10
347.4691501542132
 20
151.9057317785245
 30
0.0
 10
349.43714392467
 20
147.4268494043816
 30
0.0
 10
350.675424065758
 20
142.5502317481392
 30
0.0
 10
353.3731314655833
 20
138.469084656096
 30
0.0
 10
373.2506583655534
 20
108.3979542176796
 30
0.0
 10
413.9720587335809
 20
115.5835650099725
 30
0.0
 10
442.3400222610576
 20
126.0503653459724
 30
0.0
 10
452.6518256977276
 20
129.855065234675
 30
0.0
 10
462.4485492961554
 20
134.9540323245561
 30
0.0
 10
472.2670999428302
 20
139.8941835933231
 30
0.0
 10
475.5634612901823
 20
141.5527301831858
 30
0.0
 10
476.7197641385712
 20
142.3061992172617
 30
0.0
 10
476.8814934510719
 20
142.6018867139875
 30
0.0
  0
SPLINE
  5
D7
330
1F
100
AcDbEntity
  8
0
  6
Continuous
 62
     7
370
    25
100
AcDbSpline
210
0.0
220
0.0
230
1.0
 70
     8
 71
     3
 72
    32
 73
    28
 74
     0
 42
0.000000001
 43
0.00000001
 40
0.0
 40
0.0
 40
0.0
 40
0.0
 40
1.0
 40
1.0
 40
1.0
 40
2.0
 40
2.0
 40
2.0
 40
3.0
 40
3.0
 40
3.0
 40
4.0
 40
4.0
 40
4.0
 40
5.0
 40
5.0
 40
5.0
 40
6.0
 40
6.0
 40
6.0
 40
7.0
 40
7.0
 40
7.0
 40
8.0
 40
8.0
 40
8.0
 40
9.0
 40
9.0
 40
9.0
 40
9.0
 10
560.012477363538
 20
255.7343686336544
 30
0.0
 10
560.3517866343063
 20
255.1914738004252
 30
0.0
 10
560.450635511565
 20
254.3772218248305
 30
0.0
 10
561.030405175843
 20
254.1056841339662
 30
0.0
 10
565.9148580386816
 20
251.818028995675
 30
0.0
 10
571.462498723659
 20
250.9629255133413
 30
0.0
 10
576.0957367979602
 20
248.201702822596
 30
0.0
 10
578.3722181649581
 20
246.8450119069105
 30
0.0
 10
580.6246354908661
 20
244.6842224133433
 30
0.0
 10
581.185375859486
 20
242.0941359487648
 30
0.0
 10
582.1491478457525
 20
237.6424272502961
 30
0.0
 10
581.5542486943604
 20
232.8523767309806
 30
0.0
 10
580.3710336096422
 20
228.4539032638752
 30
0.0
 10
578.3938062072901
 20
221.1037753116548
 30
0.0
 10
575.3310555255306
 20
214.0344770341162
 30
0.0
 10
571.8204399862783
 20
207.2810047679272
 30
0.0
 10
541.484353972247
 20
148.922602012121
 30
0.0
 10
483.8913470217453
 20
111.9856657241096
 30
0.0
 10
422.9993938272587
 20
91.44081972759582
 30
0.0
 10
404.6430515844887
 20
85.2474197025962
 30
0.0
 10
382.0093505821712
 20
80.98816534526689
 30
0.0
 10
362.9416529012523
 20
87.57269404083601
 30
0.0
 10
359.7241371196742
 20
88.68377862728018
 30
0.0
 10
346.8972698329281
 20
95.9892575744048
 30
0.0
 10
346.654807904369
 20
99.78782778849838
 30
0.0
 10
345.5480333174274
 20
117.1272963172521
 30
0.0
 10
347.1977027375984
 20
134.5330971151824
 30
0.0
 10
347.4691501542132
 20
151.9057317785245
 30
0.0
  0
LINE
  5
D8
330
1F
100
AcDbEntity
  8
0
  6
Continuous
 62
     7
370
    25
100
AcDbLine
 10
522.3491483082
 20
260.4168365703
 30
0.0
 11
560.0124773635
 21
255.7343686337
 31
0.0
  0
LINE
  5
D9
330
1F
100
AcDbEntity
  8
0
  6
Continuous
 62
     7
370
    25
100
AcDbLine
 10
522.3491483082
 20
260.6204221327
 30
0.0
 11
522.3491483082
 21
260.4168365703
 31
0.0
  0
SPLINE
  5
DA
330
1F
100
AcDbEntity
  8
0
  6
Continuous
 62
     7
370
    25
100
AcDbSpline
210
0.0
220
0.0
230
1.0
 70
     8
 71
     3
 72
    14
 73
    10
 74
     0
 42
0.000000001
 43
0.00000001
 40
0.0
 40
0.0
 40
0.0
 40
0.0
 40
1.0
 40
1.0
 40
1.0
 40
2.0
 40
2.0
 40
2.0
 40
3.0
 40
3.0
 40
3.0
 40
3.0
 10
346.451222341908
 20
224.3821920146544
 30
0.0
 10
346.9069169863619
 20
241.5846648427893
 30
0.0
 10
339.4944943020889
 20
263.3094179959289
 30
0.0
 10
362.1273106514079
 20
263.2670344447131
 30
0.0
 10
398.3655407694731
 20
263.1991725905593
 30
0.0
 10
434.6499801437905
 20
264.8941736729272
 30
0.0
 10
470.8420010056029
 20
263.0634488822519
 30
0.0
 10
488.0084038593869
 20
262.1951094382862
 30
0.0
 10
505.1800992073648
 20
261.4347643825637
 30
0.0
 10
522.3491483082456
 20
260.6204221327194
 30
0.0
  0
LINE
  5
DB
330
1F
100
AcDbEntity
  8
0
  6
Continuous
 62
     7
370
    25
100
AcDbLine
 10
309.398649974
 20
223.7714353273
 30
0.0
 11
346.4512223419
 21
224.3821920147
 31
0.0
  0
SPLINE
  5
DC
330
1F
100
AcDbEntity
  8
0
  6
Continuous
 62
     7
370
    25
100
AcDbSpline
210
0.0
220
0.0
230
1.0
 70
     8
 71
     3
 72
    14
 73
    10
 74
     0
 42
0.000000001
 43
0.00000001
 40
0.0
 40
0.0
 40
0.0
 40
0.0
 40
1.0
 40
1.0
 40
1.0
 40
2.0
 40
2.0
 40
2.0
 40
3.0
 40
3.0
 40
3.0
 40
3.0
 10
271.5317353562453
 20
264.4885478194791
 30
0.0
 10
272.0067683353213
 20
264.0813766945572
 30
0.0
 10
272.3321978955307
 20
263.3027279531668
 30
0.0
 10
272.9568342934728
 20
263.2670344447131
 30
0.0
 10
285.5019803927416
 20
262.5501689533262
 30
0.0
 10
306.9314711737137
 20
269.2666880404308
 30
0.0
 10
308.5843077241546
 20
250.6447295721286
 30
0.0
 10
309.3766257932801
 20
241.7179459933162
 30
0.0
 10
309.1272025573841
 20
232.729200075557
 30
0.0
 10
309.3986499739989
 20
223.7714353272713
 30
0.0
  0
LINE
  5
DD
330
1F
100
AcDbEntity
  8
0
  6
Continuous
 62
     7
370
    25
100
AcDbLine
 10
243.8440988615
 20
265.0993045069
 30
0.0
 11
271.5317353562
 21
264.4885478195
 31
0.0
  0
LINE
  5
DE
330
1F
100
AcDbEntity
  8
0
  6
Continuous
 62
     7
370
    25
100
AcDbLine
 10
243.6405132991
 20
264.284962257
 30
0.0
 11
243.8440988615
 21
265.0993045069
 31
0.0
  0
LINE
  5
DF
330
1F
100
AcDbEntity
  8
0
  6
Continuous
 62
     7
370
    25
100
AcDbLine
 10
232.2397218013
 20
263.4706200072
 30
0.0
 11
243.6405132991
 21
264.284962257
 31
0.0
  0
LINE
  5
E0
330
1F
100
AcDbEntity
  8
0
  6
Continuous
 62
     7
370
    25
100
AcDbLine
 10
231.4253795514
 20
264.4885478195
 30
0.0
 11
232.2397218013
 21
263.4706200072
 31
0.0
  0
LINE
  5
E1
330
1F
100
AcDbEntity
  8
0
  6
Continuous
 62
     7
370
    25
100
AcDbLine
 10
212.4919222425
 20
264.6921333819
 30
0.0
 11
231.4253795514
 21
264.4885478195
 31
0.0
  0
LINE
  5
E2
330
1F
100
AcDbEntity
  8
0
  6
Continuous
 62
     7
370
    25
100
AcDbLine
 10
155.284379191
 20
262.4526921949
 30
0.0
 11
212.4919222425
 21
264.6921333819
 31
0.0
  0
LINE
  5
E3
330
1F
100
AcDbEntity
  8
0
  6
Continuous
 62
     7
370
    25
100
AcDbLine
 10
153.8592802538
 20
263.4706200072
 30
0.0
 11
155.284379191
 21
262.4526921949
 31
0.0
  0
SPLINE
  5
E4
330
1F
100
AcDbEntity
  8
0
  6
Continuous
 62
     7
370
    25
100
AcDbSpline
210
0.0
220
0.0
230
1.0
 70
     8
 71
     3
 72
    20
 73
    16
 74
     0
 42
0.000000001
 43
0.00000001
 40
0.0
 40
0.0
 40
0.0
 40
0.0
 40
1.0
 40
1.0
 40
1.0
 40
2.0
 40
2.0
 40
2.0
 40
3.0
 40
3.0
 40
3.0
 40
4.0
 40
4.0
 40
4.0
 40
5.0
 40
5.0
 40
5.0
 40
5.0
 10
261.7596283581156
 20
164.3244510886479
 30
0.0
 10
261.5560427956545
 20
164.1208655261869
 30
0.0
 10
261.4361954129012
 20
163.7321125898654
 30
0.0
 10
261.1488716707324
 20
163.7136944012648
 30
0.0
 10
255.933772057398
 20
163.3793931439998
 30
0.0
 10
250.6827115217729
 20
163.1030832012616
 30
0.0
 10
245.4727833612324
 20
163.5101088388037
 30
0.0
 10
226.7734684706977
 20
164.9709928146268
 30
0.0
 10
174.0925207991659
 20
169.2500591280399
 30
0.0
 10
171.9783953127971
 20
195.6766277076479
 30
0.0
 10
171.6543290553255
 20
199.7274559260441
 30
0.0
 10
181.0475811533347
 20
200.9620287283451
 30
0.0
 10
183.1756012481545
 20
200.969852331635
 30
0.0
 10
218.1926731527418
 20
201.0985915665783
 30
0.0
 10
253.209034734752
 20
200.5626812067129
 30
0.0
 10
288.2257514780508
 20
200.3590956442518
 30
0.0
  0
SPLINE
  5
E5
330
1F
100
AcDbEntity
  8
0
  6
Continuous
 62
     7
370
    25
100
AcDbSpline
210
0.0
220
0.0
230
1.0
 70
     8
 71
     3
 72
     8
 73
     4
 74
     0
 42
0.000000001
 43
0.00000001
 40
0.0
 40
0.0
 40
0.0
 40
0.0
 40
1.0
 40
1.0
 40
1.0
 40
1.0
 10
288.2257514780508
 20
200.3590956442518
 30
0.0
 10
288.0680841980855
 20
190.8990588463455
 30
0.0
 10
286.3541211024729
 20
165.5459644634142
 30
0.0
 10
271.1245642313233
 20
165.5459644634142
 30
0.0
  0
LINE
  5
E6
330
1F
100
AcDbEntity
  8
0
  6
Continuous
 62
     7
370
    25
100
AcDbLine
 10
271.1245642313
 20
165.5459644634
 30
0.0
 11
270.7173931064
 21
166.3603067133
 31
0.0
  0
LINE
  5
E7
330
1F
100
AcDbEntity
  8
0
  6
Continuous
 62
     7
370
    25
100
AcDbLine
 10
270.7173931064
 20
166.3603067133
 30
0.0
 11
269.9030508566
 21
164.935207776
 31
0.0
  0
LINE
  5
E8
330
1F
100
AcDbEntity
  8
0
  6
Continuous
 62
     7
370
    25
100
AcDbLine
 10
269.9030508566
 20
164.935207776
 30
0.0
 11
261.7596283581
 21
164.3244510886
 31
0.0
  0
LINE
  5
E9
330
1F
100
AcDbEntity
  8
0
  6
Continuous
 62
     7
370
    25
100
AcDbLine
 10
384.7253080846
 20
165.5459644634
 30
0.0
 11
384.1145513972
 21
165.1387933385
 31
0.0
  0
SPLINE
  5
EA
330
1F
100
AcDbEntity
  8
0
  6
Continuous
 62
     7
370
    25
100
AcDbSpline
210
0.0
220
0.0
230
1.0
 70
     8
 71
     3
 72
    23
 73
    19
 74
     0
 42
0.000000001
 43
0.00000001
 40
0.0
 40
0.0
 40
0.0
 40
0.0
 40
1.0
 40
1.0
 40
1.0
 40
2.0
 40
2.0
 40
2.0
 40
3.0
 40
3.0
 40
3.0
 40
4.0
 40
4.0
 40
4.0
 40
5.0
 40
5.0
 40
5.0
 40
6.0
 40
6.0
 40
6.0
 40
6.0
 10
384.1145513972002
 20
165.138793338492
 30
0.0
 10
374.3973319772144
 20
169.997403048485
 30
0.0
 10
368.8401244504557
 20
176.7872484961037
 30
0.0
 10
367.4205352753949
 20
188.1439618965894
 30
0.0
 10
366.9064638562408
 20
192.2565332498226
 30
0.0
 10
363.8867231420513
 20
200.5548167497475
 30
0.0
 10
368.031291962778
 20
200.5626812067129
 30
0.0
 10
403.5232372974979
 20
200.6300283515604
 30
0.0
 10
439.0151113457022
 20
200.3583182519863
 30
0.0
 10
474.5065411299017
 20
200.1555100817908
 30
0.0
 10
477.202479313566
 20
200.1401047207413
 30
0.0
 10
481.1233198280715
 20
198.6282829446107
 30
0.0
 10
482.8535491908042
 20
196.287384395031
 30
0.0
 10
487.7189273109146
 20
189.7048139972346
 30
0.0
 10
475.0124806940787
 20
179.8542985640079
 30
0.0
 10
470.8420010056029
 20
177.5575126486154
 30
0.0
 10
445.9711816728469
 20
163.8605396827496
 30
0.0
 10
416.259741709655
 20
161.9394245422418
 30
0.0
 10
388.5934337713429
 20
164.3244510886479
 30
0.0
  0
LINE
  5
EB
330
1F
100
AcDbEntity
  8
0
  6
Continuous
 62
     7
370
    25
100
AcDbLine
 10
388.5934337713
 20
164.3244510886
 30
0.0
 11
388.1862626464
 21
165.7495500259
 31
0.0
  0
LINE
  5
EC
330
1F
100
AcDbEntity
  8
0
  6
Continuous
 62
     7
370
    25
100
AcDbLine
 10
388.1862626464
 20
165.7495500259
 30
0.0
 11
387.3719203966
 21
164.5280366511
 31
0.0
  0
LINE
  5
ED
330
1F
100
AcDbEntity
  8
0
  6
Continuous
 62
     7
370
    25
100
AcDbLine
 10
387.3719203966
 20
164.5280366511
 30
0.0
 11
384.7253080846
 21
165.5459644634
 31
0.0
  0
ENDSEC
  0
SECTION
  2
OBJECTS
  0
DICTIONARY
  5
C
330
0
100
AcDbDictionary
281
     1
  3
ACAD_GROUP
350
D
  3
ACAD_LAYOUT
350
1A
  3
ACAD_MLINESTYLE
350
17
  3
ACAD_PLOTSETTINGS
350
19
  3
ACAD_PLOTSTYLENAME
350
E
  3
ACAD_SCALELIST
350
47
  0
DICTIONARY
  5
D
102
{ACAD_REACTORS
330
C
102
}
330
C
100
AcDbDictionary
281
     1
  0
DICTIONARY
  5
1A
102
{ACAD_REACTORS
330
C
102
}
330
C
100
AcDbDictionary
281
     1
  3
Layout1
350
1E
  3
Layout2
350
26
  3
Model
350
22
  0
DICTIONARY
  5
17
102
{ACAD_REACTORS
330
C
102
}
330
C
100
AcDbDictionary
281
     1
  3
Standard
350
18
  0
DICTIONARY
  5
19
102
{ACAD_REACTORS
330
C
102
}
330
C
100
AcDbDictionary
281
     1
  0
ACDBDICTIONARYWDFLT
  5
E
102
{ACAD_REACTORS
330
C
102
}
330
C
100
AcDbDictionary
281
     1
  3
Normal
350
F
100
AcDbDictionaryWithDefault
340
F
  0
DICTIONARY
  5
47
102
{ACAD_REACTORS
330
C
102
}
330
C
100
AcDbDictionary
281
     1
  3
A0
350
48
  3
A1
350
49
  3
A2
350
4A
  3
A3
350
4B
  3
A4
350
4C
  3
A5
350
4D
  3
A6
350
4E
  3
A7
350
4F
  3
A8
350
50
  3
A9
350
51
  3
B0
350
52
  3
B1
350
53
  3
B2
350
54
  3
B3
350
55
  3
B4
350
56
  3
B5
350
57
  3
B6
350
58
  3
B7
350
59
  3
B8
350
5A
  3
B9
350
5B
  3
C0
350
5C
  3
C1
350
5D
  3
C2
350
5E
  3
C3
350
5F
  3
C4
350
60
  3
C5
350
61
  3
C6
350
62
  3
C7
350
63
  3
C8
350
64
  3
C9
350
65
  3
D0
350
66
  3
D1
350
67
  3
D2
350
68
  0
LAYOUT
  5
1E
102
{ACAD_REACTORS
330
1A
102
}
330
1A
100
AcDbPlotSettings
  1

  2
none_device
  4

  6

 40
0.0
 41
0.0
 42
0.0
 43
0.0
 44
0.0
 45
0.0
 46
0.0
 47
0.0
 48
0.0
 49
0.0
140
0.0
141
0.0
142
1.0
143
1.0
 70
   688
 72
     1
 73
     0
 74
     5
  7

 75
    16
147
1.0
148
0.0
149
0.0
100
AcDbLayout
  1
Layout1
 70
     1
 71
     1
 10
0.0
 20
0.0
 11
420.0
 21
297.0
 12
0.0
 22
0.0
 32
0.0
 14
1.0000000000E+20
 24
1.0000000000E+20
 34
1.0000000000E+20
 15
-1.0000000000E+20
 25
-1.0000000000E+20
 35
-1.0000000000E+20
146
0.0
 13
0.0
 23
0.0
 33
0.0
 16
1.0
 26
0.0
 36
0.0
 17
0.0
 27
1.0
 37
0.0
 76
     0
330
1B
  0
LAYOUT
  5
26
102
{ACAD_REACTORS
330
1A
102
}
330
1A
100
AcDbPlotSettings
  1

  2
none_device
  4

  6

 40
0.0
 41
0.0
 42
0.0
 43
0.0
 44
0.0
 45
0.0
 46
0.0
 47
0.0
 48
0.0
 49
0.0
140
0.0
141
0.0
142
1.0
143
1.0
 70
   688
 72
     1
 73
     0
 74
     5
  7

 75
    16
147
1.0
148
0.0
149
0.0
100
AcDbLayout
  1
Layout2
 70
     1
 71
     2
 10
0.0
 20
0.0
 11
0.0
 21
0.0
 12
0.0
 22
0.0
 32
0.0
 14
0.0
 24
0.0
 34
0.0
 15
0.0
 25
0.0
 35
0.0
146
0.0
 13
0.0
 23
0.0
 33
0.0
 16
1.0
 26
0.0
 36
0.0
 17
0.0
 27
1.0
 37
0.0
 76
     0
330
23
  0
LAYOUT
  5
22
102
{ACAD_REACTORS
330
1A
102
}
330
1A
100
AcDbPlotSettings
  1

  2
none_device
  4
ANSI_A_(11.00_x_8.50_Inches)
  6

 40
6.35
 41
19.05
 42
6.35000508
 43
19.05000254
 44
279.4
 45
215.9
 46
14.1345167818
 47
-48.630614752
 48
0.0
 49
0.0
140
0.0
141
0.0
142
0.0143208132
143
1.0
 70
  1696
 72
     0
 73
     0
 74
     0
  7

 75
     0
147
0.0179189148
148
-1300.4909072572
149
0.0
100
AcDbLayout
  1
Model
 70
     1
 71
     0
 10
0.0
 20
0.0
 11
420.0
 21
297.0
 12
0.0
 22
0.0
 32
0.0
 14
28.6541593402
 24
84.2892836516
 34
0.0
 15
626.8285721533
 25
671.8955815716
 35
0.0
146
0.0
 13
0.0
 23
0.0
 33
0.0
 16
1.0
 26
0.0
 36
0.0
 17
0.0
 27
1.0
 37
0.0
 76
     0
330
1F
331
29
  0
MLINESTYLE
  5
18
102
{ACAD_REACTORS
330
17
102
}
330
17
100
AcDbMlineStyle
  2
Standard
 70
     0
  3

 62
   256
 51
90.0
 52
90.0
 71
     2
 49
0.5
 62
   256
  6
BYLAYER
 49
-0.5
 62
   256
  6
BYLAYER
  0
ACDBPLACEHOLDER
  5
F
102
{ACAD_REACTORS
330
E
102
}
330
E
  0
SCALE
  5
48
102
{ACAD_REACTORS
330
47
102
}
330
47
100
AcDbScale
 70
     0
300
1:1
140
1.0
141
1.0
290
     1
  0
SCALE
  5
49
102
{ACAD_REACTORS
330
47
102
}
330
47
100
AcDbScale
 70
     0
300
1:2
140
1.0
141
2.0
290
     0
  0
SCALE
  5
4A
102
{ACAD_REACTORS
330
47
102
}
330
47
100
AcDbScale
 70
     0
300
1:4
140
1.0
141
4.0
290
     0
  0
SCALE
  5
4B
102
{ACAD_REACTORS
330
47
102
}
330
47
100
AcDbScale
 70
     0
300
1:5
140
1.0
141
5.0
290
     0
  0
SCALE
  5
4C
102
{ACAD_REACTORS
330
47
102
}
330
47
100
AcDbScale
 70
     0
300
1:8
140
1.0
141
8.0
290
     0
  0
SCALE
  5
4D
102
{ACAD_REACTORS
330
47
102
}
330
47
100
AcDbScale
 70
     0
300
1:10
140
1.0
141
10.0
290
     0
  0
SCALE
  5
4E
102
{ACAD_REACTORS
330
47
102
}
330
47
100
AcDbScale
 70
     0
300
1:16
140
1.0
141
16.0
290
     0
  0
SCALE
  5
4F
102
{ACAD_REACTORS
330
47
102
}
330
47
100
AcDbScale
 70
     0
300
1:20
140
1.0
141
20.0
290
     0
  0
SCALE
  5
50
102
{ACAD_REACTORS
330
47
102
}
330
47
100
AcDbScale
 70
     0
300
1:30
140
1.0
141
30.0
290
     0
  0
SCALE
  5
51
102
{ACAD_REACTORS
330
47
102
}
330
47
100
AcDbScale
 70
     0
300
1:40
140
1.0
141
40.0
290
     0
  0
SCALE
  5
52
102
{ACAD_REACTORS
330
47
102
}
330
47
100
AcDbScale
 70
     0
300
1:50
140
1.0
141
50.0
290
     0
  0
SCALE
  5
53
102
{ACAD_REACTORS
330
47
102
}
330
47
100
AcDbScale
 70
     0
300
1:100
140
1.0
141
100.0
290
     0
  0
SCALE
  5
54
102
{ACAD_REACTORS
330
47
102
}
330
47
100
AcDbScale
 70
     0
300
2:1
140
2.0
141
1.0
290
     0
  0
SCALE
  5
55
102
{ACAD_REACTORS
330
47
102
}
330
47
100
AcDbScale
 70
     0
300
4:1
140
4.0
141
1.0
290
     0
  0
SCALE
  5
56
102
{ACAD_REACTORS
330
47
102
}
330
47
100
AcDbScale
 70
     0
300
8:1
140
8.0
141
1.0
290
     0
  0
SCALE
  5
57
102
{ACAD_REACTORS
330
47
102
}
330
47
100
AcDbScale
 70
     0
300
10:1
140
10.0
141
1.0
290
     0
  0
SCALE
  5
58
102
{ACAD_REACTORS
330
47
102
}
330
47
100
AcDbScale
 70
     0
300
100:1
140
100.0
141
1.0
290
     0
  0
SCALE
  5
59
102
{ACAD_REACTORS
330
47
102
}
330
47
100
AcDbScale
 70
     0
300
1/128" = 1'-0"
140
0.0078125
141
12.0
290
     0
  0
SCALE
  5
5A
102
{ACAD_REACTORS
330
47
102
}
330
47
100
AcDbScale
 70
     0
300
1/64" = 1'-0"
140
0.015625
141
12.0
290
     0
  0
SCALE
  5
5B
102
{ACAD_REACTORS
330
47
102
}
330
47
100
AcDbScale
 70
     0
300
1/32" = 1'-0"
140
0.03125
141
12.0
290
     0
  0
SCALE
  5
5C
102
{ACAD_REACTORS
330
47
102
}
330
47
100
AcDbScale
 70
     0
300
1/16" = 1'-0"
140
0.0625
141
12.0
290
     0
  0
SCALE
  5
5D
102
{ACAD_REACTORS
330
47
102
}
330
47
100
AcDbScale
 70
     0
300
3/32" = 1'-0"
140
0.09375
141
12.0
290
     0
  0
SCALE
  5
5E
102
{ACAD_REACTORS
330
47
102
}
330
47
100
AcDbScale
 70
     0
300
1/8" = 1'-0"
140
0.125
141
12.0
290
     0
  0
SCALE
  5
5F
102
{ACAD_REACTORS
330
47
102
}
330
47
100
AcDbScale
 70
     0
300
3/16" = 1'-0"
140
0.1875
141
12.0
290
     0
  0
SCALE
  5
60
102
{ACAD_REACTORS
330
47
102
}
330
47
100
AcDbScale
 70
     0
300
1/4" = 1'-0"
140
0.25
141
12.0
290
     0
  0
SCALE
  5
61
102
{ACAD_REACTORS
330
47
102
}
330
47
100
AcDbScale
 70
     0
300
3/8" = 1'-0"
140
0.375
141
12.0
290
     0
  0
SCALE
  5
62
102
{ACAD_REACTORS
330
47
102
}
330
47
100
AcDbScale
 70
     0
300
1/2" = 1'-0"
140
0.5
141
12.0
290
     0
  0
SCALE
  5
63
102
{ACAD_REACTORS
330
47
102
}
330
47
100
AcDbScale
 70
     0
300
3/4" = 1'-0"
140
0.75
141
12.0
290
     0
  0
SCALE
  5
64
102
{ACAD_REACTORS
330
47
102
}
330
47
100
AcDbScale
 70
     0
300
1" = 1'-0"
140
1.0
141
12.0
290
     0
  0
SCALE
  5
65
102
{ACAD_REACTORS
330
47
102
}
330
47
100
AcDbScale
 70
     0
300
1-1/2" = 1'-0"
140
1.5
141
12.0
290
     0
  0
SCALE
  5
66
102
{ACAD_REACTORS
330
47
102
}
330
47
100
AcDbScale
 70
     0
300
3" = 1'-0"
140
3.0
141
12.0
290
     0
  0
SCALE
  5
67
102
{ACAD_REACTORS
330
47
102
}
330
47
100
AcDbScale
 70
     0
300
6" = 1'-0"
140
6.0
141
12.0
290
     0
  0
SCALE
  5
68
102
{ACAD_REACTORS
330
47
102
}
330
47
100
AcDbScale
 70
     0
300
1'-0" = 1'-0"
140
12.0
141
12.0
290
     0
  0
ENDSEC
  0
EOF
