ISO-10303-21;
HEADER;
/* Generated by software containing ST-Developer
 * from STEP Tools, Inc. (www.steptools.com) 
 */

FILE_DESCRIPTION(
/* description */ (''),
/* implementation_level */ '2;1');

FILE_NAME(
/* name */ 'C:\\Users\\Eugen\\Desktop\\TEST\\Neuer Test\\Bauteil1.stp',

/* time_stamp */ '2018-05-15T15:50:37+02:00',
/* author */ ('Eugen'),
/* organization */ (''),
/* preprocessor_version */ 'ST-DEVELOPER v16.13',
/* originating_system */ 'Autodesk Inventor 2018',
/* authorisation */ '');

FILE_SCHEMA (('AUTOMOTIVE_DESIGN { 1 0 10303 214 3 1 1 }'));
ENDSEC;

DATA;
#10=MECHANICAL_DESIGN_GEOMETRIC_PRESENTATION_REPRESENTATION('',(#13,#14),
#212);
#11=SHAPE_REPRESENTATION_RELATIONSHIP('SRR','None',#219,#12);
#12=ADVANCED_BREP_SHAPE_REPRESENTATION('',(#45,#46),#211);
#13=STYLED_ITEM('',(#228),#45);
#14=STYLED_ITEM('',(#228),#46);
#15=LINE('',#186,#27);
#16=LINE('',#188,#28);
#17=LINE('',#190,#29);
#18=LINE('',#191,#30);
#19=LINE('',#194,#31);
#20=LINE('',#196,#32);
#21=LINE('',#197,#33);
#22=LINE('',#200,#34);
#23=LINE('',#202,#35);
#24=LINE('',#203,#36);
#25=LINE('',#205,#37);
#26=LINE('',#206,#38);
#27=VECTOR('',#156,10.);
#28=VECTOR('',#157,10.);
#29=VECTOR('',#158,10.);
#30=VECTOR('',#159,10.);
#31=VECTOR('',#162,10.);
#32=VECTOR('',#163,10.);
#33=VECTOR('',#164,10.);
#34=VECTOR('',#167,10.);
#35=VECTOR('',#168,10.);
#36=VECTOR('',#169,10.);
#37=VECTOR('',#172,10.);
#38=VECTOR('',#173,10.);
#39=PLANE('',#142);
#40=PLANE('',#143);
#41=PLANE('',#144);
#42=PLANE('',#145);
#43=PLANE('',#146);
#44=PLANE('',#147);
#45=MANIFOLD_SOLID_BREP('Volumenk\X\F6rper1',#119);
#46=MANIFOLD_SOLID_BREP('Volumenk\X\F6rper1',#120);
#47=FACE_OUTER_BOUND('',#54,.T.);
#48=FACE_OUTER_BOUND('',#55,.T.);
#49=FACE_OUTER_BOUND('',#56,.T.);
#50=FACE_OUTER_BOUND('',#57,.T.);
#51=FACE_OUTER_BOUND('',#58,.T.);
#52=FACE_OUTER_BOUND('',#59,.T.);
#53=FACE_OUTER_BOUND('',#60,.T.);
#54=EDGE_LOOP('',(#61,#62));
#55=EDGE_LOOP('',(#63,#64,#65,#66));
#56=EDGE_LOOP('',(#67,#68,#69,#70));
#57=EDGE_LOOP('',(#71,#72,#73,#74));
#58=EDGE_LOOP('',(#75,#76,#77,#78));
#59=EDGE_LOOP('',(#79,#80,#81,#82));
#60=EDGE_LOOP('',(#83,#84,#85,#86));
#61=ORIENTED_EDGE('',*,*,#87,.T.);
#62=ORIENTED_EDGE('',*,*,#87,.F.);
#63=ORIENTED_EDGE('',*,*,#88,.T.);
#64=ORIENTED_EDGE('',*,*,#89,.T.);
#65=ORIENTED_EDGE('',*,*,#90,.F.);
#66=ORIENTED_EDGE('',*,*,#91,.F.);
#67=ORIENTED_EDGE('',*,*,#92,.T.);
#68=ORIENTED_EDGE('',*,*,#91,.T.);
#69=ORIENTED_EDGE('',*,*,#93,.F.);
#70=ORIENTED_EDGE('',*,*,#94,.F.);
#71=ORIENTED_EDGE('',*,*,#95,.T.);
#72=ORIENTED_EDGE('',*,*,#94,.T.);
#73=ORIENTED_EDGE('',*,*,#96,.F.);
#74=ORIENTED_EDGE('',*,*,#97,.F.);
#75=ORIENTED_EDGE('',*,*,#98,.T.);
#76=ORIENTED_EDGE('',*,*,#97,.T.);
#77=ORIENTED_EDGE('',*,*,#99,.F.);
#78=ORIENTED_EDGE('',*,*,#89,.F.);
#79=ORIENTED_EDGE('',*,*,#99,.T.);
#80=ORIENTED_EDGE('',*,*,#96,.T.);
#81=ORIENTED_EDGE('',*,*,#93,.T.);
#82=ORIENTED_EDGE('',*,*,#90,.T.);
#83=ORIENTED_EDGE('',*,*,#98,.F.);
#84=ORIENTED_EDGE('',*,*,#88,.F.);
#85=ORIENTED_EDGE('',*,*,#92,.F.);
#86=ORIENTED_EDGE('',*,*,#95,.F.);
#87=EDGE_CURVE('',#100,#101,#110,.T.);
#88=EDGE_CURVE('',#102,#103,#15,.T.);
#89=EDGE_CURVE('',#103,#104,#16,.T.);
#90=EDGE_CURVE('',#105,#104,#17,.T.);
#91=EDGE_CURVE('',#102,#105,#18,.T.);
#92=EDGE_CURVE('',#106,#102,#19,.T.);
#93=EDGE_CURVE('',#107,#105,#20,.T.);
#94=EDGE_CURVE('',#106,#107,#21,.T.);
#95=EDGE_CURVE('',#108,#106,#22,.T.);
#96=EDGE_CURVE('',#109,#107,#23,.T.);
#97=EDGE_CURVE('',#108,#109,#24,.T.);
#98=EDGE_CURVE('',#103,#108,#25,.T.);
#99=EDGE_CURVE('',#104,#109,#26,.T.);
#100=VERTEX_POINT('',#181);
#101=VERTEX_POINT('',#182);
#102=VERTEX_POINT('',#184);
#103=VERTEX_POINT('',#185);
#104=VERTEX_POINT('',#187);
#105=VERTEX_POINT('',#189);
#106=VERTEX_POINT('',#193);
#107=VERTEX_POINT('',#195);
#108=VERTEX_POINT('',#199);
#109=VERTEX_POINT('',#201);
#110=CIRCLE('',#141,115.);
#111=SPHERICAL_SURFACE('',#140,115.);
#112=ADVANCED_FACE('',(#47),#111,.T.);
#113=ADVANCED_FACE('',(#48),#39,.T.);
#114=ADVANCED_FACE('',(#49),#40,.T.);
#115=ADVANCED_FACE('',(#50),#41,.T.);
#116=ADVANCED_FACE('',(#51),#42,.T.);
#117=ADVANCED_FACE('',(#52),#43,.T.);
#118=ADVANCED_FACE('',(#53),#44,.F.);
#119=CLOSED_SHELL('',(#112));
#120=CLOSED_SHELL('',(#113,#114,#115,#116,#117,#118));
#121=DERIVED_UNIT_ELEMENT(#123,0.);
#122=DERIVED_UNIT_ELEMENT(#214,0.);
#123=(
MASS_UNIT()
NAMED_UNIT(*)
SI_UNIT($,.GRAM.)
);
#124=DERIVED_UNIT((#121,#122));
#125=MEASURE_REPRESENTATION_ITEM('density measure',
POSITIVE_RATIO_MEASURE(1.),#124);
#126=PROPERTY_DEFINITION_REPRESENTATION(#131,#128);
#127=PROPERTY_DEFINITION_REPRESENTATION(#132,#129);
#128=REPRESENTATION('material name',(#130),#211);
#129=REPRESENTATION('density',(#125),#211);
#130=DESCRIPTIVE_REPRESENTATION_ITEM('Generisch','Generisch');
#131=PROPERTY_DEFINITION('material property','material name',#221);
#132=PROPERTY_DEFINITION('material property','density of part',#221);
#133=DATE_TIME_ROLE('creation_date');
#134=APPLIED_DATE_AND_TIME_ASSIGNMENT(#135,#133,(#221));
#135=DATE_AND_TIME(#136,#137);
#136=CALENDAR_DATE(2018,15,5);
#137=LOCAL_TIME(13,46,42.,#138);
#138=COORDINATED_UNIVERSAL_TIME_OFFSET(0,0,.BEHIND.);
#139=AXIS2_PLACEMENT_3D('placement',#178,#148,#149);
#140=AXIS2_PLACEMENT_3D('',#179,#150,#151);
#141=AXIS2_PLACEMENT_3D('',#180,#152,#153);
#142=AXIS2_PLACEMENT_3D('',#183,#154,#155);
#143=AXIS2_PLACEMENT_3D('',#192,#160,#161);
#144=AXIS2_PLACEMENT_3D('',#198,#165,#166);
#145=AXIS2_PLACEMENT_3D('',#204,#170,#171);
#146=AXIS2_PLACEMENT_3D('',#207,#174,#175);
#147=AXIS2_PLACEMENT_3D('',#208,#176,#177);
#148=DIRECTION('axis',(0.,0.,1.));
#149=DIRECTION('refdir',(1.,0.,0.));
#150=DIRECTION('center_axis',(6.12323399573677E-17,0.,1.));
#151=DIRECTION('ref_axis',(1.,0.,0.));
#152=DIRECTION('center_axis',(0.,1.,0.));
#153=DIRECTION('ref_axis',(-6.12323399573677E-17,0.,-1.));
#154=DIRECTION('center_axis',(-1.,0.,0.));
#155=DIRECTION('ref_axis',(0.,-1.,0.));
#156=DIRECTION('',(0.,-1.,0.));
#157=DIRECTION('',(0.,0.,1.));
#158=DIRECTION('',(0.,-1.,0.));
#159=DIRECTION('',(0.,0.,1.));
#160=DIRECTION('center_axis',(0.,1.,0.));
#161=DIRECTION('ref_axis',(-1.,0.,0.));
#162=DIRECTION('',(-1.,0.,0.));
#163=DIRECTION('',(-1.,0.,0.));
#164=DIRECTION('',(0.,0.,1.));
#165=DIRECTION('center_axis',(1.,0.,0.));
#166=DIRECTION('ref_axis',(0.,1.,0.));
#167=DIRECTION('',(0.,1.,0.));
#168=DIRECTION('',(0.,1.,0.));
#169=DIRECTION('',(0.,0.,1.));
#170=DIRECTION('center_axis',(0.,-1.,0.));
#171=DIRECTION('ref_axis',(1.,0.,0.));
#172=DIRECTION('',(1.,0.,0.));
#173=DIRECTION('',(1.,0.,0.));
#174=DIRECTION('center_axis',(0.,0.,1.));
#175=DIRECTION('ref_axis',(1.,0.,0.));
#176=DIRECTION('center_axis',(0.,0.,1.));
#177=DIRECTION('ref_axis',(1.,0.,0.));
#178=CARTESIAN_POINT('',(0.,0.,0.));
#179=CARTESIAN_POINT('Origin',(0.,0.,0.));
#180=CARTESIAN_POINT('Origin',(0.,0.,0.));
#181=CARTESIAN_POINT('',(-7.04171909509728E-15,0.,-115.));
#182=CARTESIAN_POINT('',(7.04171909509728E-15,0.,115.));
#183=CARTESIAN_POINT('Origin',(-275.,425.,115.1));
#184=CARTESIAN_POINT('',(-275.,425.,115.1));
#185=CARTESIAN_POINT('',(-275.,-425.,115.1));
#186=CARTESIAN_POINT('',(-275.,425.,115.1));
#187=CARTESIAN_POINT('',(-275.,-425.,118.1));
#188=CARTESIAN_POINT('',(-275.,-425.,115.1));
#189=CARTESIAN_POINT('',(-275.,425.,118.1));
#190=CARTESIAN_POINT('',(-275.,425.,118.1));
#191=CARTESIAN_POINT('',(-275.,425.,115.1));
#192=CARTESIAN_POINT('Origin',(275.,425.,115.1));
#193=CARTESIAN_POINT('',(275.,425.,115.1));
#194=CARTESIAN_POINT('',(275.,425.,115.1));
#195=CARTESIAN_POINT('',(275.,425.,118.1));
#196=CARTESIAN_POINT('',(275.,425.,118.1));
#197=CARTESIAN_POINT('',(275.,425.,115.1));
#198=CARTESIAN_POINT('Origin',(275.,-425.,115.1));
#199=CARTESIAN_POINT('',(275.,-425.,115.1));
#200=CARTESIAN_POINT('',(275.,-425.,115.1));
#201=CARTESIAN_POINT('',(275.,-425.,118.1));
#202=CARTESIAN_POINT('',(275.,-425.,118.1));
#203=CARTESIAN_POINT('',(275.,-425.,115.1));
#204=CARTESIAN_POINT('Origin',(-275.,-425.,115.1));
#205=CARTESIAN_POINT('',(-275.,-425.,115.1));
#206=CARTESIAN_POINT('',(-275.,-425.,118.1));
#207=CARTESIAN_POINT('Origin',(0.,0.,118.1));
#208=CARTESIAN_POINT('Origin',(0.,0.,115.1));
#209=UNCERTAINTY_MEASURE_WITH_UNIT(LENGTH_MEASURE(0.01),#213,
'DISTANCE_ACCURACY_VALUE',
'Maximum model space distance between geometric entities at asserted c
onnectivities');
#210=UNCERTAINTY_MEASURE_WITH_UNIT(LENGTH_MEASURE(0.01),#213,
'DISTANCE_ACCURACY_VALUE',
'Maximum model space distance between geometric entities at asserted c
onnectivities');
#211=(
GEOMETRIC_REPRESENTATION_CONTEXT(3)
GLOBAL_UNCERTAINTY_ASSIGNED_CONTEXT((#209))
GLOBAL_UNIT_ASSIGNED_CONTEXT((#213,#216,#215))
REPRESENTATION_CONTEXT('','3D')
);
#212=(
GEOMETRIC_REPRESENTATION_CONTEXT(3)
GLOBAL_UNCERTAINTY_ASSIGNED_CONTEXT((#210))
GLOBAL_UNIT_ASSIGNED_CONTEXT((#213,#216,#215))
REPRESENTATION_CONTEXT('','3D')
);
#213=(
LENGTH_UNIT()
NAMED_UNIT(*)
SI_UNIT(.MILLI.,.METRE.)
);
#214=(
LENGTH_UNIT()
NAMED_UNIT(*)
SI_UNIT(.CENTI.,.METRE.)
);
#215=(
NAMED_UNIT(*)
SI_UNIT($,.STERADIAN.)
SOLID_ANGLE_UNIT()
);
#216=(
NAMED_UNIT(*)
PLANE_ANGLE_UNIT()
SI_UNIT($,.RADIAN.)
);
#217=SHAPE_DEFINITION_REPRESENTATION(#218,#219);
#218=PRODUCT_DEFINITION_SHAPE('',$,#221);
#219=SHAPE_REPRESENTATION('',(#139),#211);
#220=PRODUCT_DEFINITION_CONTEXT('part definition',#225,'design');
#221=PRODUCT_DEFINITION('Bauteil1','Bauteil1',#222,#220);
#222=PRODUCT_DEFINITION_FORMATION('',$,#227);
#223=PRODUCT_RELATED_PRODUCT_CATEGORY('Bauteil1','Bauteil1',(#227));
#224=APPLICATION_PROTOCOL_DEFINITION('international standard',
'automotive_design',2009,#225);
#225=APPLICATION_CONTEXT(
'Core Data for Automotive Mechanical Design Process');
#226=PRODUCT_CONTEXT('part definition',#225,'mechanical');
#227=PRODUCT('Bauteil1','Bauteil1',$,(#226));
#228=PRESENTATION_STYLE_ASSIGNMENT((#229));
#229=SURFACE_STYLE_USAGE(.BOTH.,#230);
#230=SURFACE_SIDE_STYLE('',(#231));
#231=SURFACE_STYLE_FILL_AREA(#232);
#232=FILL_AREA_STYLE('',(#233));
#233=FILL_AREA_STYLE_COLOUR('',#234);
#234=COLOUR_RGB('',0.749019607843137,0.749019607843137,0.749019607843137);
ENDSEC;
END-ISO-10303-21;
