  0
SECTION
  2
HEADER
  9
$ACADVER
  1
AC1014
  9
$ACADMAINTVER
 70
     0
  9
$DWGCODEPAGE
  3
ANSI_1252
  9
$INSBASE
 10
0.0
 20
0.0
 30
0.0
  9
$EXTMIN
 10
0.0
 20
0.0
 30
0.0
  9
$EXTMAX
 10
55.883713
 20
30.340519
 30
2.0
  9
$LIMMIN
 10
0.0
 20
0.0
  9
$LIMMAX
 10
420.0
 20
297.0
  9
$ORTHOMODE
 70
     0
  9
$REGENMODE
 70
     1
  9
$FILLMODE
 70
     1
  9
$QTEXTMODE
 70
     0
  9
$MIRRTEXT
 70
     1
  9
$DRAGMODE
 70
     2
  9
$LTSCALE
 40
1.0
  9
$OSMODE
 70
     0
  9
$ATTMODE
 70
     1
  9
$TEXTSIZE
 40
2.5
  9
$TRACEWID
 40
1.0
  9
$TEXTSTYLE
  7
STANDARD
  9
$CLAYER
  8
0
  9
$CELTYPE
  6
BYLAYER
  9
$CECOLOR
 62
   256
  9
$CELTSCALE
 40
1.0
  9
$DELOBJ
 70
     1
  9
$DISPSILH
 70
     0
  9
$DIMSCALE
 40
1.0
  9
$DIMASZ
 40
2.5
  9
$DIMEXO
 40
0.625
  9
$DIMDLI
 40
3.75
  9
$DIMRND
 40
0.0
  9
$DIMDLE
 40
0.0
  9
$DIMEXE
 40
1.25
  9
$DIMTP
 40
0.0
  9
$DIMTM
 40
0.0
  9
$DIMTXT
 40
2.5
  9
$DIMCEN
 40
2.5
  9
$DIMTSZ
 40
0.0
  9
$DIMTOL
 70
     0
  9
$DIMLIM
 70
     0
  9
$DIMTIH
 70
     0
  9
$DIMTOH
 70
     0
  9
$DIMSE1
 70
     0
  9
$DIMSE2
 70
     0
  9
$DIMTAD
 70
     1
  9
$DIMZIN
 70
     8
  9
$DIMBLK
  1

  9
$DIMASO
 70
     1
  9
$DIMSHO
 70
     1
  9
$DIMPOST
  1

  9
$DIMAPOST
  1

  9
$DIMALT
 70
     0
  9
$DIMALTD
 70
     3
  9
$DIMALTF
 40
0.03937
  9
$DIMLFAC
 40
1.0
  9
$DIMTOFL
 70
     1
  9
$DIMTVP
 40
0.0
  9
$DIMTIX
 70
     0
  9
$DIMSOXD
 70
     0
  9
$DIMSAH
 70
     0
  9
$DIMBLK1
  1

  9
$DIMBLK2
  1

  9
$DIMSTYLE
  2

  9
$DIMCLRD
 70
     0
  9
$DIMCLRE
 70
     0
  9
$DIMCLRT
 70
     0
  9
$DIMTFAC
 40
1.0
  9
$DIMGAP
 40
0.625
  9
$DIMJUST
 70
     0
  9
$DIMSD1
 70
     0
  9
$DIMSD2
 70
     0
  9
$DIMTOLJ
 70
     0
  9
$DIMTZIN
 70
     8
  9
$DIMALTZ
 70
     0
  9
$DIMALTTZ
 70
     0
  9
$DIMFIT
 70
     0
  9
$DIMUPT
 70
     0
  9
$DIMUNIT
 70
     2
  9
$DIMDEC
 70
     2
  9
$DIMTDEC
 70
     2
  9
$DIMALTU
 70
     2
  9
$DIMALTTD
 70
     3
  9
$DIMTXSTY
  7
STANDARD
  9
$DIMAUNIT
 70
     0
  9
$LUNITS
 70
     2
  9
$LUPREC
 70
     4
  9
$SKETCHINC
 40
1.0
  9
$FILLETRAD
 40
2.5
  9
$AUNITS
 70
     0
  9
$AUPREC
 70
     0
  9
$MENU
  1
.
  9
$ELEVATION
 40
0.0
  9
$PELEVATION
 40
0.0
  9
$THICKNESS
 40
0.0
  9
$LIMCHECK
 70
     0
  9
$BLIPMODE
 70
     1
  9
$CHAMFERA
 40
2.5
  9
$CHAMFERB
 40
2.5
  9
$CHAMFERC
 40
0.0
  9
$CHAMFERD
 40
0.0
  9
$SKPOLY
 70
     0
  9
$TDCREATE
 40
0.000000000
  9
$TDUPDATE
 40
0.000000000
  9
$TDINDWG
 40
0.0000000000
  9
$TDUSRTIMER
 40
0.0000000000
  9
$USRTIMER
 70
     1
  9
$ANGBASE
 50
0.0
  9
$ANGDIR
 70
     0
  9
$PDMODE
 70
     0
  9
$PDSIZE
 40
0.0
  9
$PLINEWID
 40
0.0
  9
$COORDS
 70
     0
  9
$SPLFRAME
 70
     0
  9
$SPLINETYPE
 70
     6
  9
$SPLINESEGS
 70
     8
  9
$ATTDIA
 70
     0
  9
$ATTREQ
 70
     1
  9
$HANDLING
 70
     1
  9
$HANDSEED
  5
651
  9
$SURFTAB1
 70
     6
  9
$SURFTAB2
 70
     6
  9
$SURFTYPE
 70
     6
  9
$SURFU
 70
     6
  9
$SURFV
 70
     6
  9
$UCSNAME
  2

  9
$UCSORG
 10
0.0
 20
0.0
 30
0.0
  9
$UCSXDIR
 10
1.0
 20
0.0
 30
0.0
  9
$UCSYDIR
 10
0.0
 20
1.0
 30
0.0
  9
$PUCSNAME
  2

  9
$PUCSORG
 10
0.0
 20
0.0
 30
0.0
  9
$PUCSXDIR
 10
1.0
 20
0.0
 30
0.0
  9
$PUCSYDIR
 10
0.0
 20
1.0
 30
0.0
  9
$USERI1
 70
     0
  9
$USERI2
 70
     0
  9
$USERI3
 70
     0
  9
$USERI4
 70
     0
  9
$USERI5
 70
     0
  9
$USERR1
 40
0.0
  9
$USERR2
 40
0.0
  9
$USERR3
 40
0.0
  9
$USERR4
 40
0.0
  9
$USERR5
 40
0.0
  9
$WORLDVIEW
 70
     1
  9
$SHADEDGE
 70
     3
  9
$SHADEDIF
 70
    70
  9
$TILEMODE
 70
     1
  9
$MAXACTVP
 70
    48
  9
$PINSBASE
 10
0.0
 20
0.0
 30
0.0
  9
$PLIMCHECK
 70
     0
  9
$PEXTMIN
 10
0.0
 20
0.0
 30
0.0
  9
$PEXTMAX
 10
55.883713
 20
30.340519
 30
2.0
  9
$PLIMMIN
 10
0.0
 20
0.0
  9
$PLIMMAX
 10
420.0
 20
297.0
  9
$UNITMODE
 70
     0
  9
$VISRETAIN
 70
     0
  9
$PLINEGEN
 70
     0
  9
$PSLTSCALE
 70
     1
  9
$TREEDEPTH
 70
  3020
  9
$PICKSTYLE
 70
     1
  9
$CMLSTYLE
  2
STANDARD
  9
$CMLJUST
 70
     0
  9
$CMLSCALE
 40
20.0
  9
$PROXYGRAPHICS
 70
     1
  9
$MEASUREMENT
 70
     1
  0
ENDSEC
  0
SECTION
  2
CLASSES
  0
CLASS
  1
LWPOLYLINE
  2
AcDbPolyline
  3
"AutoCAD"
 90
        0
280
     0
281
     1
  0
CLASS
  1
IMAGE
  2
AcDbRasterImage
  3
ISM
 90
      127
280
     0
281
     1
  0
CLASS
  1
OLE2FRAME
  2
AcDbOle2Frame
  3
""
 90
        0
280
     0
281
     1
  0
CLASS
  1
HATCH
  2
AcDbHatch
  3
"ACAD_SEDONA"
 90
        0
280
     0
281
     1
  0
CLASS
  1
DICTIONARYVAR
  2
AcDbDictionaryVar
  3
"AutoCAD"
 90
        0
280
     0
281
     0
  0
CLASS
  1
RASTERVARIABLES
  2
AcDbRasterVariables
  3
ISM
 90
        0
280
     0
281
     0
  0
CLASS
  1
IMAGEDEF
  2
AcDbRasterImageDef
  3
ISM
 90
        0
280
     0
281
     0
  0
CLASS
  1
IMAGEDEF_REACTOR
  2
AcDbRasterImageDefReactor
  3
ISM
 90
        1
280
     0
281
     0
  0
CLASS
  1
IDBUFFER
  2
AcDbIdBuffer
  3
"Acad"
 90
        0
280
     0
281
     0
  0
CLASS
  1
SPATIAL_FILTER
  2
AcDbSpatialFilter
  3
"Acad"
 90
        0
280
     0
281
     0
  0
CLASS
  1
XRECORD
  2
AcDbXrecord
  3
"<Built In>"
 90
        0
280
     0
281
     0
  0
CLASS
  1
SORTENTSTABLE
  2
AcDbSortentsTable
  3
"AutoCAD"
 90
        0
280
     0
281
     0
  0
CLASS
  1
LAYER_INDEX
  2
AcDbLayerIndex
  3
"Acad"
 90
        0
280
     0
281
     0
  0
CLASS
  1
SPATIAL_INDEX
  2
AcDbSpatialIndex
  3
"Acad"
 90
        0
280
     0
281
     0
  0
CLASS
  1
OBJECT_PTR
  2
CAseDLPNTableRecord
  3
"ASE-LPNTableRecord"
 90
        1
280
     0
281
     0
  0
CLASS
  1
LAYOUT
  2
AcDbLayout
  3
"AutoCAD 2000"
 90
        0
280
     0
281
     0
  0
CLASS
  1
PLOTSETTINGS
  2
AcDbPlotSettings
  3
"AutoCAD 2000"
 90
        0
280
     0
281
     0
  0
CLASS
  1
ACDBDICTIONARYWDFLT
  2
AcDbDictionaryWithDefault
  3
"AutoCAD 2000"
 90
        0
280
     0
281
     0
  0
CLASS
  1
ACDBPLACEHOLDER
  2
AcDbPlaceHolder
  3
"AutoCAD 2000"
 90
        0
280
     0
281
     0
  0
CLASS
  1
VBA_PROJECT
  2
AcDbVbaProject
  3
"acadvba"
 90
        0
280
     0
281
     0
  0
CLASS
  1
WIPEOUT
  2
AcDbWipeout
  3
WipeOut|AutoCAD Express Tool|expresstools@autodesk.com
 90
      127
280
     0
281
     1
  0
CLASS
  1
WIPEOUTVARIABLES
  2
AcDbWipeoutVariables
  3
WipeOut|AutoCAD Express Tool|expresstools@autodesk.com
 90
        0
280
     0
281
     0
  0
CLASS
  1
RTEXT
  2
RText
  3
RText|AutoCAD Express Tool|expresstools@autodesk.com
 90
        0
280
     0
281
     1
  0
CLASS
  1
ARCALIGNEDTEXT
  2
AcDbArcAlignedText
  3
ATEXT|AutoCAD Express Tool|expresstools@autodesk.com
 90
        0
280
     0
281
     1
  0
ENDSEC
  0
SECTION
  2
TABLES
  0
TABLE
  2
VPORT
  5
7
100
AcDbSymbolTable
 70
     1
  0
VPORT
  5
15
100
AcDbSymbolTableRecord
100
AcDbViewportTableRecord
  2
*ACTIVE
 70
     0
 10
0.0
 20
0.0
 11
1.0
 21
1.0
 12
6.591288
 22
4.579184
 13
0.0
 23
0.0
 14
1.0
 24
1.0
 15
0.0
 25
0.0
 16
0.0
 26
0.0
 36
1.0
 17
0.0
 27
0.0
 37
0.0
 40
9.158369
 41
0.688564
 42
50.0
 43
0.0
 44
0.0
 50
0.0
 51
0.0
 71
     0
 72
   100
 73
     1
 74
     1
 75
     0
 76
     0
 77
     0
 78
     0
  0
ENDTAB
  0
TABLE
  2
LTYPE
  5
4
100
AcDbSymbolTable
 70
     3
  0
LTYPE
  5
11
100
AcDbSymbolTableRecord
100
AcDbLinetypeTableRecord
  2
BYBLOCK
 70
    64
  3

 72
    65
 73
     0
 40
0.0
  0
LTYPE
  5
12
100
AcDbSymbolTableRecord
100
AcDbLinetypeTableRecord
  2
BYLAYER
 70
    64
  3

 72
    65
 73
     0
 40
0.0
  0
LTYPE
  5
13
100
AcDbSymbolTableRecord
100
AcDbLinetypeTableRecord
  2
CONTINUOUS
 70
    64
  3
Solid line
 72
    65
 73
     0
 40
0.0
  0
ENDTAB
  0
TABLE
  2
LAYER
  5
2
100
AcDbSymbolTable
 70
     1
  0
LAYER
  5
14
100
AcDbSymbolTableRecord
100
AcDbLayerTableRecord
  2
0
 70
     0
 62
     7
  6
CONTINUOUS
  0
ENDTAB
  0
TABLE
  2
STYLE
  5
3
100
AcDbSymbolTable
 70
     1
  0
STYLE
  5
17
100
AcDbSymbolTableRecord
100
AcDbTextStyleTableRecord
  2
STANDARD
 70
     0
 40
0.0
 41
1.0
 50
0.0
 71
     0
 42
0.0
  3
txt
  4

  0
ENDTAB
  0
TABLE
  2
VIEW
  5
5
100
AcDbSymbolTable
 70
     0
  0
ENDTAB
  0
TABLE
  2
UCS
  5
6
100
AcDbSymbolTable
 70
     0
  0
ENDTAB
  0
TABLE
  2
APPID
  5
8
100
AcDbSymbolTable
 70
     1
  0
APPID
  5
16
100
AcDbSymbolTableRecord
100
AcDbRegAppTableRecord
  2
ACAD
 70
     0
  0
ENDTAB
  0
TABLE
  2
DIMSTYLE
  5
9
100
AcDbSymbolTable
 70
     1
  0
DIMSTYLE
105
18
100
AcDbSymbolTableRecord
100
AcDbDimStyleTableRecord
  2
STANDARD
 70
     0
  3

  4

  5

  6

  7

 40
1.0
 41
0.18
 42
0.0625
 43
0.38
 44
0.18
 45
0.0
 46
0.0
 47
0.0
 48
0.0
 71
     0
 72
     0
 73
     1
 74
     1
 75
     0
 76
     0
 77
     0
 78
     0
140
0.18
141
0.09
142
0.0
143
25.4
144
1.0
145
0.0
146
1.0
147
0.09
170
     0
171
     2
172
     0
173
     0
174
     0
175
     0
176
     0
177
     0
178
     0
270
     2
271
     4
272
     4
273
     2
274
     2
275
     0
280
     0
281
     0
282
     0
283
     1
284
     0
285
     0
286
     0
287
     3
288
     0
340
17
  0
ENDTAB
  0
TABLE
  2
BLOCK_RECORD
  5
1
100
AcDbSymbolTable
 70
     0
  0
BLOCK_RECORD
  5
A
100
AcDbSymbolTableRecord
100
AcDbBlockTableRecord
  2
*MODEL_SPACE
  0
BLOCK_RECORD
  5
B
100
AcDbSymbolTableRecord
100
AcDbBlockTableRecord
  2
*PAPER_SPACE
  0
ENDTAB
  0
ENDSEC
  0
SECTION
  2
BLOCKS
  0
BLOCK
  5
D
100
AcDbEntity
  8
0
100
AcDbBlockBegin
  2
*MODEL_SPACE
 70
     0
 10
0.0
 20
0.0
 30
0.0
  3
*MODEL_SPACE
  1

  0
ENDBLK
  5
E
100
AcDbEntity
  8
0
100
AcDbBlockEnd
  0
BLOCK
  5
F
100
AcDbEntity
 67
     1
  8
0
100
AcDbBlockBegin
  2
*PAPER_SPACE
 70
     0
 10
0.0
 20
0.0
 30
0.0
  3
*PAPER_SPACE
  1

  0
ENDBLK
  5
10
100
AcDbEntity
 67
     1
  8
0
100
AcDbBlockEnd
  0
ENDSEC
  0
SECTION
  2
ENTITIES
  0
VIEWPORT
  5
650
100
AcDbEntity
 67
     1
  8
0
 62
     0
 48
0.0
100
AcDbViewport
 10
0.0
 20
0.0
 30
0.0
 40
1000.0
 41
1000.0
 68
     1
 69
     1
1001
ACAD
1000
MVIEW
1002
{
1070
    16
1010
0.0
1020
0.0
1030
0.0
1010
0.0
1020
0.0
1030
1.0
1040
0.0
1040
1000.0
1040
0.0
1040
0.0
1040
50.0
1040
0.0
1040
0.0
1070
     0
1070
   100
1070
     1
1070
     1
1070
     0
1070
     0
1070
     0
1070
     0
1040
0.0
1040
0.0
1040
0.0
1040
1.0
1040
1.0
1040
1.0
1040
1.0
1070
     0
1002
{
1002
}
1002
}
  0
ARC
  5
1D
100
AcDbEntity
  8
0
 62
     7
100
AcDbCircle
 10
27.74189
 20
30.296059
 30
0.0
 40
0.114247
210
0.0
220
0.0
230
1.0
100
AcDbArc
 50
168.901863
 51
177.947601
  0
LINE
  5
1E
100
AcDbEntity
  8
0
 62
     7
 48
0.005277
100
AcDbLine
 10
27.627716
 20
30.30015
 30
0.0
 11
27.620218
 21
30.089193
 31
0.0
210
0.0
220
0.0
230
1.0
  0
LINE
  5
1F
100
AcDbEntity
  8
0
 62
     7
 48
0.005981
100
AcDbLine
 10
27.620218
 20
30.089193
 30
0.0
 11
27.612154
 21
29.850098
 31
0.0
210
0.0
220
0.0
230
1.0
  0
LINE
  5
20
100
AcDbEntity
  8
0
 62
     7
 48
0.006992
100
AcDbLine
 10
27.612154
 20
29.850098
 30
0.0
 11
27.603426
 21
29.570551
 31
0.0
210
0.0
220
0.0
230
1.0
  0
LINE
  5
21
100
AcDbEntity
  8
0
 62
     7
 48
0.006966
100
AcDbLine
 10
27.603426
 20
29.570551
 30
0.0
 11
27.594692
 21
29.292036
 31
0.0
210
0.0
220
0.0
230
1.0
  0
LINE
  5
22
100
AcDbEntity
  8
0
 62
     7
 48
0.005896
100
AcDbLine
 10
27.594692
 20
29.292036
 30
0.0
 11
27.58663
 21
29.056318
 31
0.0
210
0.0
220
0.0
230
1.0
  0
LINE
  5
23
100
AcDbEntity
  8
0
 62
     7
 48
0.005296
100
AcDbLine
 10
27.58663
 20
29.056318
 30
0.0
 11
27.578979
 21
28.844624
 31
0.0
210
0.0
220
0.0
230
1.0
  0
ARC
  5
24
100
AcDbEntity
  8
0
 62
     7
100
AcDbCircle
 10
27.565069
 20
28.845127
 30
0.0
 40
0.01392
210
0.0
220
0.0
230
1.0
100
AcDbArc
 50
329.451989
 51
357.923168
  0
ARC
  5
25
100
AcDbEntity
  8
0
 62
     7
100
AcDbCircle
 10
27.569778
 20
28.842348
 30
0.0
 40
0.008453
210
0.0
220
0.0
230
1.0
100
AcDbArc
 50
301.920511
 51
329.451989
  0
ARC
  5
26
100
AcDbEntity
  8
0
 62
     7
100
AcDbCircle
 10
27.559719
 20
28.85849
 30
0.0
 40
0.027474
210
0.0
220
0.0
230
1.0
100
AcDbArc
 50
290.478079
 51
301.92062
  0
ARC
  5
27
100
AcDbEntity
  8
0
 62
     7
100
AcDbCircle
 10
27.557289
 20
28.865004
 30
0.0
 40
0.034428
210
0.0
220
0.0
230
1.0
100
AcDbArc
 50
280.043517
 51
290.477888
  0
ARC
  5
28
100
AcDbEntity
  8
0
 62
     7
100
AcDbCircle
 10
27.556973
 20
28.866777
 30
0.0
 40
0.036226
210
0.0
220
0.0
230
1.0
100
AcDbArc
 50
269.999943
 51
280.043436
  0
ARC
  5
29
100
AcDbEntity
  8
0
 62
     7
100
AcDbCircle
 10
27.556973
 20
28.791464
 30
0.0
 40
0.039087
210
0.0
220
0.0
230
1.0
100
AcDbArc
 50
90.000009
 51
107.051331
  0
ARC
  5
2A
100
AcDbEntity
  8
0
 62
     7
100
AcDbCircle
 10
31.975882
 20
14.384084
 30
0.0
 40
15.108903
210
0.0
220
0.0
230
1.0
100
AcDbArc
 50
107.051379
 51
107.308289
  0
ARC
  5
2B
100
AcDbEntity
  8
0
 62
     7
100
AcDbCircle
 10
29.431702
 20
22.548384
 30
0.0
 40
6.557375
210
0.0
220
0.0
230
1.0
100
AcDbArc
 50
107.308392
 51
107.996854
  0
ARC
  5
2C
100
AcDbEntity
  8
0
 62
     7
100
AcDbCircle
 10
30.945644
 20
17.88813
 30
0.0
 40
11.457376
210
0.0
220
0.0
230
1.0
100
AcDbArc
 50
107.996936
 51
108.450256
  0
ARC
  5
2D
100
AcDbEntity
  8
0
 62
     7
100
AcDbCircle
 10
29.740265
 20
21.501045
 30
0.0
 40
7.648688
210
0.0
220
0.0
230
1.0
100
AcDbArc
 50
108.450235
 51
109.825549
  0
ARC
  5
2E
100
AcDbEntity
  8
0
 62
     7
100
AcDbCircle
 10
29.504732
 20
22.15431
 30
0.0
 40
6.954256
210
0.0
220
0.0
230
1.0
100
AcDbArc
 50
109.825453
 51
111.302516
  0
ARC
  5
2F
100
AcDbEntity
  8
0
 62
     7
100
AcDbCircle
 10
29.224993
 20
22.871704
 30
0.0
 40
6.184256
210
0.0
220
0.0
230
1.0
100
AcDbArc
 50
111.302481
 51
112.86182
  0
ARC
  5
30
100
AcDbEntity
  8
0
 62
     7
100
AcDbCircle
 10
28.356104
 20
24.932489
 30
0.0
 40
3.947782
210
0.0
220
0.0
230
1.0
100
AcDbArc
 50
112.861861
 51
115.044537
  0
ARC
  5
31
100
AcDbEntity
  8
0
 62
     7
100
AcDbCircle
 10
25.007795
 20
32.098408
 30
0.0
 40
3.961807
210
0.0
220
0.0
230
1.0
100
AcDbArc
 50
294.401203
 51
295.044525
  0
ARC
  5
32
100
AcDbEntity
  8
0
 62
     7
100
AcDbCircle
 10
25.705976
 20
30.559374
 30
0.0
 40
2.271809
210
0.0
220
0.0
230
1.0
100
AcDbArc
 50
293.425497
 51
294.401122
  0
ARC
  5
33
100
AcDbEntity
  8
0
 62
     7
100
AcDbCircle
 10
24.644964
 20
33.008255
 30
0.0
 40
4.940664
210
0.0
220
0.0
230
1.0
100
AcDbArc
 50
293.041067
 51
293.425415
  0
ARC
  5
34
100
AcDbEntity
  8
0
 62
     7
100
AcDbCircle
 10
26.572874
 20
28.475424
 30
0.0
 40
0.014871
210
0.0
220
0.0
230
1.0
100
AcDbArc
 50
269.999916
 51
293.041067
  0
ARC
  5
35
100
AcDbEntity
  8
0
 62
     7
100
AcDbCircle
 10
26.572874
 20
28.468281
 30
0.0
 40
0.007727
210
0.0
220
0.0
230
1.0
100
AcDbArc
 50
223.622282
 51
269.999943
  0
LINE
  5
36
100
AcDbEntity
  8
0
 62
     7
 48
0.005452
100
AcDbLine
 10
26.567282
 20
28.462948
 30
0.0
 11
26.416847
 21
28.62085
 31
0.0
210
0.0
220
0.0
230
1.0
  0
ARC
  5
37
100
AcDbEntity
  8
0
 62
     7
100
AcDbCircle
 10
62.197758
 20
62.698277
 30
0.0
 40
49.411987
210
0.0
220
0.0
230
1.0
100
AcDbArc
 50
223.321699
 51
223.60313
  0
LINE
  5
38
100
AcDbEntity
  8
0
 62
     7
 48
0.00718
100
AcDbLine
 10
26.249891
 20
28.797016
 30
0.0
 11
26.053158
 21
29.006248
 31
0.0
210
0.0
220
0.0
230
1.0
  0
LINE
  5
39
100
AcDbEntity
  8
0
 62
     7
 48
0.0187
100
AcDbLine
 10
26.053158
 20
29.006248
 30
0.0
 11
25.541588
 21
29.551949
 31
0.0
210
0.0
220
0.0
230
1.0
  0
LINE
  5
3A
100
AcDbEntity
  8
0
 62
     7
 48
0.000718
100
AcDbLine
 10
25.541588
 20
29.551949
 30
0.0
 11
25.520201
 21
29.532793
 31
0.0
210
0.0
220
0.0
230
1.0
  0
ARC
  5
3B
100
AcDbEntity
  8
0
 62
     7
100
AcDbCircle
 10
27.500711
 20
27.321547
 30
0.0
 40
2.968507
210
0.0
220
0.0
230
1.0
100
AcDbArc
 50
131.849316
 51
133.140755
  0
LINE
  5
3C
100
AcDbEntity
  8
0
 62
     7
 48
0.04393
100
AcDbLine
 10
25.470867
 20
29.487593
 30
0.0
 11
24.188677
 21
28.286011
 31
0.0
210
0.0
220
0.0
230
1.0
  0
LINE
  5
3D
100
AcDbEntity
  8
0
 62
     7
 48
0.04371
100
AcDbLine
 10
24.188677
 20
28.286011
 30
0.0
 11
22.91293
 21
27.09042
 31
0.0
210
0.0
220
0.0
230
1.0
  0
ARC
  5
3E
100
AcDbEntity
  8
0
 62
     7
100
AcDbCircle
 10
26.23805
 20
23.54245
 30
0.0
 40
4.862561
210
0.0
220
0.0
230
1.0
100
AcDbArc
 50
133.14294
 51
134.148822
  0
LINE
  5
3F
100
AcDbEntity
  8
0
 62
     7
 48
0.001312
100
AcDbLine
 10
22.851158
 20
27.031498
 30
0.0
 11
22.813503
 21
26.994951
 31
0.0
210
0.0
220
0.0
230
1.0
  0
LINE
  5
40
100
AcDbEntity
  8
0
 62
     7
 48
0.018798
100
AcDbLine
 10
22.813503
 20
26.994951
 30
0.0
 11
23.327871
 21
26.446503
 31
0.0
210
0.0
220
0.0
230
1.0
  0
LINE
  5
41
100
AcDbEntity
  8
0
 62
     7
 48
0.018798
100
AcDbLine
 10
23.327871
 20
26.446503
 30
0.0
 11
23.842239
 21
25.898062
 31
0.0
210
0.0
220
0.0
230
1.0
  0
LINE
  5
42
100
AcDbEntity
  8
0
 62
     7
 48
0.001765
100
AcDbLine
 10
23.842239
 20
25.898062
 30
0.0
 11
23.807156
 21
25.836805
 31
0.0
210
0.0
220
0.0
230
1.0
  0
ARC
  5
43
100
AcDbEntity
  8
0
 62
     7
100
AcDbCircle
 10
26.351885
 20
24.379242
 30
0.0
 40
2.9326
210
0.0
220
0.0
230
1.0
100
AcDbArc
 50
150.196898
 51
153.670596
  0
ARC
  5
44
100
AcDbEntity
  8
0
 62
     7
100
AcDbCircle
 10
30.996641
 20
22.080683
 30
0.0
 40
8.114987
210
0.0
220
0.0
230
1.0
100
AcDbArc
 50
153.670527
 51
155.295866
  0
ARC
  5
45
100
AcDbEntity
  8
0
 62
     7
100
AcDbCircle
 10
31.378057
 20
21.905214
 30
0.0
 40
8.53483
210
0.0
220
0.0
230
1.0
100
AcDbArc
 50
155.295839
 51
156.909485
  0
ARC
  5
46
100
AcDbEntity
  8
0
 62
     7
100
AcDbCircle
 10
28.309359
 20
23.213524
 30
0.0
 40
5.198876
210
0.0
220
0.0
230
1.0
100
AcDbArc
 50
156.909499
 51
159.248688
  0
LINE
  5
47
100
AcDbEntity
  8
0
 62
     7
 48
0.003743
100
AcDbLine
 10
23.44775
 20
25.055552
 30
0.0
 11
23.394705
 21
24.91555
 31
0.0
210
0.0
220
0.0
230
1.0
  0
LINE
  5
48
100
AcDbEntity
  8
0
 62
     7
 48
0.0017
100
AcDbLine
 10
23.394705
 20
24.91555
 30
0.0
 11
23.326759
 21
24.918047
 31
0.0
210
0.0
220
0.0
230
1.0
  0
ARC
  5
49
100
AcDbEntity
  8
0
 62
     7
100
AcDbCircle
 10
20.758917
 20
-45.056511
 30
0.0
 40
70.021652
210
0.0
220
0.0
230
1.0
100
AcDbArc
 50
87.898374
 51
88.222439
  0
LINE
  5
4A
100
AcDbEntity
  8
0
 62
     7
 48
0.012315
100
AcDbLine
 10
22.930943
 20
24.93145
 30
0.0
 11
22.438543
 21
24.946001
 31
0.0
210
0.0
220
0.0
230
1.0
  0
LINE
  5
4B
100
AcDbEntity
  8
0
 62
     7
 48
0.013341
100
AcDbLine
 10
22.438543
 20
24.946001
 30
0.0
 11
21.905117
 21
24.960947
 31
0.0
210
0.0
220
0.0
230
1.0
  0
ARC
  5
4C
100
AcDbEntity
  8
0
 62
     7
100
AcDbCircle
 10
21.904852
 20
24.951357
 30
0.0
 40
0.009593
210
0.0
220
0.0
230
1.0
100
AcDbArc
 50
88.397401
 51
135.000014
  0
ARC
  5
4D
100
AcDbEntity
  8
0
 62
     7
100
AcDbCircle
 10
21.905603
 20
24.950605
 30
0.0
 40
0.010657
210
0.0
220
0.0
230
1.0
100
AcDbArc
 50
135.000096
 51
178.07952
  0
LINE
  5
4E
100
AcDbEntity
  8
0
 62
     7
 48
0.044963
100
AcDbLine
 10
21.894953
 20
24.950962
 30
0.0
 11
21.834682
 21
23.153437
 31
0.0
210
0.0
220
0.0
230
1.0
  0
LINE
  5
4F
100
AcDbEntity
  8
0
 62
     7
 48
0.042921
100
AcDbLine
 10
21.834682
 20
23.153437
 30
0.0
 11
21.777306
 21
21.437548
 31
0.0
210
0.0
220
0.0
230
1.0
  0
ARC
  5
50
100
AcDbEntity
  8
0
 62
     7
100
AcDbCircle
 10
27.932447
 20
21.232241
 30
0.0
 40
6.158563
210
0.0
220
0.0
230
1.0
100
AcDbArc
 50
178.089574
 51
179.787559
  0
LINE
  5
51
100
AcDbEntity
  8
0
 62
     7
 48
0.000762
100
AcDbLine
 10
21.773924
 20
21.255074
 30
0.0
 11
21.773811
 21
21.224594
 31
0.0
210
0.0
220
0.0
230
1.0
  0
LINE
  5
52
100
AcDbEntity
  8
0
 62
     7
 48
0.017946
100
AcDbLine
 10
21.773811
 20
21.224594
 30
0.0
 11
22.491312
 21
21.202261
 31
0.0
210
0.0
220
0.0
230
1.0
  0
LINE
  5
53
100
AcDbEntity
  8
0
 62
     7
 48
0.006937
100
AcDbLine
 10
22.491312
 20
21.202261
 30
0.0
 11
22.768648
 21
21.19372
 31
0.0
210
0.0
220
0.0
230
1.0
  0
LINE
  5
54
100
AcDbEntity
  8
0
 62
     7
 48
0.005973
100
AcDbLine
 10
22.768648
 20
21.19372
 30
0.0
 11
23.007479
 21
21.186577
 31
0.0
210
0.0
220
0.0
230
1.0
  0
LINE
  5
55
100
AcDbEntity
  8
0
 62
     7
 48
0.005218
100
AcDbLine
 10
23.007479
 20
21.186577
 30
0.0
 11
23.216097
 21
21.180477
 31
0.0
210
0.0
220
0.0
230
1.0
  0
ARC
  5
56
100
AcDbEntity
  8
0
 62
     7
100
AcDbCircle
 10
23.234686
 20
21.819271
 30
0.0
 40
0.639063
210
0.0
220
0.0
230
1.0
100
AcDbArc
 50
268.333158
 51
270.559609
  0
ARC
  5
57
100
AcDbEntity
  8
0
 62
     7
100
AcDbCircle
 10
23.242071
 20
21.062948
 30
0.0
 40
0.117294
210
0.0
220
0.0
230
1.0
100
AcDbArc
 50
81.416388
 51
90.559607
  0
ARC
  5
58
100
AcDbEntity
  8
0
 62
     7
100
AcDbCircle
 10
23.256805
 20
21.160557
 30
0.0
 40
0.01858
210
0.0
220
0.0
230
1.0
100
AcDbArc
 50
45.743133
 51
81.416319
  0
ARC
  5
59
100
AcDbEntity
  8
0
 62
     7
100
AcDbCircle
 10
23.250257
 20
21.153837
 30
0.0
 40
0.027962
210
0.0
220
0.0
230
1.0
100
AcDbArc
 50
18.896811
 51
45.743153
  0
ARC
  5
5A
100
AcDbEntity
  8
0
 62
     7
100
AcDbCircle
 10
22.938282
 20
21.047045
 30
0.0
 40
0.35771
210
0.0
220
0.0
230
1.0
100
AcDbArc
 50
14.738922
 51
18.89676
  0
ARC
  5
5B
100
AcDbEntity
  8
0
 62
     7
100
AcDbCircle
 10
25.582479
 20
21.742655
 30
0.0
 40
2.376454
210
0.0
220
0.0
230
1.0
100
AcDbArc
 50
194.738888
 51
198.943702
  0
ARC
  5
5C
100
AcDbEntity
  8
0
 62
     7
100
AcDbCircle
 10
32.876503
 20
24.246176
 30
0.0
 40
10.088161
210
0.0
220
0.0
230
1.0
100
AcDbArc
 50
198.943716
 51
200.380446
  0
ARC
  5
5D
100
AcDbEntity
  8
0
 62
     7
100
AcDbCircle
 10
32.989506
 20
24.288164
 30
0.0
 40
10.208711
210
0.0
220
0.0
230
1.0
100
AcDbArc
 50
200.380474
 51
201.8541
  0
ARC
  5
5E
100
AcDbEntity
  8
0
 62
     7
100
AcDbCircle
 10
27.661255
 20
22.151186
 30
0.0
 40
4.467898
210
0.0
220
0.0
230
1.0
100
AcDbArc
 50
201.854196
 51
204.587064
  0
ARC
  5
5F
100
AcDbEntity
  8
0
 62
     7
100
AcDbCircle
 10
14.581402
 20
16.166323
 30
0.0
 40
9.916161
210
0.0
220
0.0
230
1.0
100
AcDbArc
 50
24.290782
 51
24.587113
  0
ARC
  5
60
100
AcDbEntity
  8
0
 62
     7
100
AcDbCircle
 10
18.77165
 20
18.057489
 30
0.0
 40
5.318911
210
0.0
220
0.0
230
1.0
100
AcDbArc
 50
23.818364
 51
24.290709
  0
LINE
  5
61
100
AcDbEntity
  8
0
 62
     7
 48
0.000965
100
AcDbLine
 10
23.637552
 20
20.205467
 30
0.0
 11
23.653114
 21
20.170141
 31
0.0
210
0.0
220
0.0
230
1.0
  0
ARC
  5
62
100
AcDbEntity
  8
0
 62
     7
100
AcDbCircle
 10
23.645538
 20
20.166817
 30
0.0
 40
0.008273
210
0.0
220
0.0
230
1.0
100
AcDbArc
 50
359.999955
 51
23.724237
  0
ARC
  5
63
100
AcDbEntity
  8
0
 62
     7
100
AcDbCircle
 10
23.649618
 20
20.166817
 30
0.0
 40
0.004194
210
0.0
220
0.0
230
1.0
100
AcDbArc
 50
313.357714
 51
359.999901
  0
LINE
  5
64
100
AcDbEntity
  8
0
 62
     7
 48
0.005434
100
AcDbLine
 10
23.652498
 20
20.163765
 30
0.0
 11
23.494452
 21
20.014545
 31
0.0
210
0.0
220
0.0
230
1.0
  0
LINE
  5
65
100
AcDbEntity
  8
0
 62
     7
 48
0.006013
100
AcDbLine
 10
23.494452
 20
20.014545
 30
0.0
 11
23.319324
 21
19.849657
 31
0.0
210
0.0
220
0.0
230
1.0
  0
LINE
  5
66
100
AcDbEntity
  8
0
 62
     7
 48
0.007128
100
AcDbLine
 10
23.319324
 20
19.849657
 30
0.0
 11
23.111311
 21
19.654657
 31
0.0
210
0.0
220
0.0
230
1.0
  0
LINE
  5
67
100
AcDbEntity
  8
0
 62
     7
 48
0.007134
100
AcDbLine
 10
23.111311
 20
19.654657
 30
0.0
 11
22.903101
 21
19.459496
 31
0.0
210
0.0
220
0.0
230
1.0
  0
LINE
  5
68
100
AcDbEntity
  8
0
 62
     7
 48
0.006034
100
AcDbLine
 10
22.903101
 20
19.459496
 30
0.0
 11
22.727329
 21
19.294081
 31
0.0
210
0.0
220
0.0
230
1.0
  0
LINE
  5
69
100
AcDbEntity
  8
0
 62
     7
 48
0.005432
100
AcDbLine
 10
22.727329
 20
19.294081
 30
0.0
 11
22.569288
 21
19.144955
 31
0.0
210
0.0
220
0.0
230
1.0
  0
ARC
  5
6A
100
AcDbEntity
  8
0
 62
     7
100
AcDbCircle
 10
22.579048
 20
19.134613
 30
0.0
 40
0.014222
210
0.0
220
0.0
230
1.0
100
AcDbArc
 50
133.341221
 51
157.085212
  0
ARC
  5
6B
100
AcDbEntity
  8
0
 62
     7
100
AcDbCircle
 10
22.57024
 20
19.138334
 30
0.0
 40
0.004657
210
0.0
220
0.0
230
1.0
100
AcDbArc
 50
157.085267
 51
222.928157
  0
LINE
  5
6C
100
AcDbEntity
  8
0
 62
     7
 48
0.013657
100
AcDbLine
 10
22.56683
 20
19.135166
 30
0.0
 11
22.938892
 21
18.735195
 31
0.0
210
0.0
220
0.0
230
1.0
  0
LINE
  5
6D
100
AcDbEntity
  8
0
 62
     7
 48
0.015083
100
AcDbLine
 10
22.938892
 20
18.735195
 30
0.0
 11
23.350311
 21
18.293936
 31
0.0
210
0.0
220
0.0
230
1.0
  0
LINE
  5
6E
100
AcDbEntity
  8
0
 62
     7
 48
0.017901
100
AcDbLine
 10
23.350311
 20
18.293936
 30
0.0
 11
23.839561
 21
17.771084
 31
0.0
210
0.0
220
0.0
230
1.0
  0
LINE
  5
6F
100
AcDbEntity
  8
0
 62
     7
 48
0.046672
100
AcDbLine
 10
23.839561
 20
17.771084
 30
0.0
 11
25.116035
 21
16.408783
 31
0.0
210
0.0
220
0.0
230
1.0
  0
LINE
  5
70
100
AcDbEntity
  8
0
 62
     7
 48
0.001078
100
AcDbLine
 10
25.116035
 20
16.408783
 30
0.0
 11
25.147425
 21
16.438351
 31
0.0
210
0.0
220
0.0
230
1.0
  0
LINE
  5
71
100
AcDbEntity
  8
0
 62
     7
 48
0.02183
100
AcDbLine
 10
25.147425
 20
16.438351
 30
0.0
 11
25.783508
 21
17.036581
 31
0.0
210
0.0
220
0.0
230
1.0
  0
ARC
  5
72
100
AcDbEntity
  8
0
 62
     7
100
AcDbCircle
 10
40.235336
 20
1.644907
 30
0.0
 40
21.113005
210
0.0
220
0.0
230
1.0
100
AcDbArc
 50
132.219881
 51
133.196202
  0
ARC
  5
73
100
AcDbEntity
  8
0
 62
     7
100
AcDbCircle
 10
37.359676
 20
4.814128
 30
0.0
 40
16.833593
210
0.0
220
0.0
230
1.0
100
AcDbArc
 50
131.481292
 51
132.219949
  0
ARC
  5
74
100
AcDbEntity
  8
0
 62
     7
100
AcDbCircle
 10
26.224871
 20
17.408022
 30
0.0
 40
0.023177
210
0.0
220
0.0
230
1.0
100
AcDbArc
 50
57.002136
 51
131.481346
  0
ARC
  5
75
100
AcDbEntity
  8
0
 62
     7
100
AcDbCircle
 10
26.630577
 20
18.032803
 30
0.0
 40
0.721771
210
0.0
220
0.0
230
1.0
100
AcDbArc
 50
237.002186
 51
242.597258
  0
ARC
  5
76
100
AcDbEntity
  8
0
 62
     7
100
AcDbCircle
 10
32.621372
 20
29.588833
 30
0.0
 40
13.738352
210
0.0
220
0.0
230
1.0
100
AcDbArc
 50
242.597203
 51
243.252902
  0
ARC
  5
77
100
AcDbEntity
  8
0
 62
     7
100
AcDbCircle
 10
31.404352
 20
27.174007
 30
0.0
 40
11.034189
210
0.0
220
0.0
230
1.0
100
AcDbArc
 50
243.252902
 51
244.113478
  0
ARC
  5
78
100
AcDbEntity
  8
0
 62
     7
100
AcDbCircle
 10
28.670267
 20
21.54003
 30
0.0
 40
4.771845
210
0.0
220
0.0
230
1.0
100
AcDbArc
 50
244.11356
 51
245.723757
  0
ARC
  5
79
100
AcDbEntity
  8
0
 62
     7
100
AcDbCircle
 10
28.882534
 20
22.010683
 30
0.0
 40
5.288151
210
0.0
220
0.0
230
1.0
100
AcDbArc
 50
245.723818
 51
248.029301
  0
ARC
  5
7A
100
AcDbEntity
  8
0
 62
     7
100
AcDbCircle
 10
31.248463
 20
27.875219
 30
0.0
 40
11.611947
210
0.0
220
0.0
230
1.0
100
AcDbArc
 50
248.029362
 51
249.309804
  0
LINE
  5
7B
100
AcDbEntity
  8
0
 62
     7
 48
0.006736
100
AcDbLine
 10
27.145786
 20
17.012186
 30
0.0
 11
27.398043
 21
16.91748
 31
0.0
210
0.0
220
0.0
230
1.0
  0
ARC
  5
7C
100
AcDbEntity
  8
0
 62
     7
100
AcDbCircle
 10
27.404823
 20
16.935644
 30
0.0
 40
0.019387
210
0.0
220
0.0
230
1.0
100
AcDbArc
 50
249.533964
 51
315.000019
  0
ARC
  5
7D
100
AcDbEntity
  8
0
 62
     7
100
AcDbCircle
 10
27.390537
 20
16.94993
 30
0.0
 40
0.039588
210
0.0
220
0.0
230
1.0
100
AcDbArc
 50
315.000019
 51
343.091331
  0
LINE
  5
7E
100
AcDbEntity
  8
0
 62
     7
 48
0.007243
100
AcDbLine
 10
27.428413
 20
16.938417
 30
0.0
 11
27.512533
 21
17.215677
 31
0.0
210
0.0
220
0.0
230
1.0
  0
LINE
  5
7F
100
AcDbEntity
  8
0
 62
     7
 48
0.007361
100
AcDbLine
 10
27.512533
 20
17.215677
 30
0.0
 11
27.597778
 21
17.497494
 31
0.0
210
0.0
220
0.0
230
1.0
  0
ARC
  5
80
100
AcDbEntity
  8
0
 62
     7
100
AcDbCircle
 10
27.591698
 20
17.499331
 30
0.0
 40
0.006353
210
0.0
220
0.0
230
1.0
100
AcDbArc
 50
343.18556
 51
58.675485
  0
ARC
  5
81
100
AcDbEntity
  8
0
 62
     7
100
AcDbCircle
 10
27.58427
 20
17.487129
 30
0.0
 40
0.020639
210
0.0
220
0.0
230
1.0
100
AcDbArc
 50
58.675423
 51
71.989941
  0
ARC
  5
82
100
AcDbEntity
  8
0
 62
     7
100
AcDbCircle
 10
27.307621
 20
16.636196
 30
0.0
 40
0.915414
210
0.0
220
0.0
230
1.0
100
AcDbArc
 50
71.989982
 51
72.859274
  0
ARC
  5
83
100
AcDbEntity
  8
0
 62
     7
100
AcDbCircle
 10
27.354021
 20
16.78665
 30
0.0
 40
0.757967
210
0.0
220
0.0
230
1.0
100
AcDbArc
 50
72.85924
 51
74.113775
  0
ARC
  5
84
100
AcDbEntity
  8
0
 62
     7
100
AcDbCircle
 10
27.251852
 20
16.42765
 30
0.0
 40
1.131221
210
0.0
220
0.0
230
1.0
100
AcDbArc
 50
74.113761
 51
75.04309
  0
ARC
  5
85
100
AcDbEntity
  8
0
 62
     7
100
AcDbCircle
 10
27.767817
 20
18.359056
 30
0.0
 40
0.867918
210
0.0
220
0.0
230
1.0
100
AcDbArc
 50
250.005336
 51
255.043113
  0
ARC
  5
86
100
AcDbEntity
  8
0
 62
     7
100
AcDbCircle
 10
31.315485
 20
28.109013
 30
0.0
 40
11.243252
210
0.0
220
0.0
230
1.0
100
AcDbArc
 50
249.232042
 51
250.005302
  0
ARC
  5
87
100
AcDbEntity
  8
0
 62
     7
100
AcDbCircle
 10
30.920742
 20
27.068106
 30
0.0
 40
10.130007
210
0.0
220
0.0
230
1.0
100
AcDbArc
 50
248.302973
 51
249.23207
  0
ARC
  5
88
100
AcDbEntity
  8
0
 62
     7
100
AcDbCircle
 10
29.31155
 20
23.023794
 30
0.0
 40
5.777316
210
0.0
220
0.0
230
1.0
100
AcDbArc
 50
246.888304
 51
248.303034
  0
ARC
  5
89
100
AcDbEntity
  8
0
 62
     7
100
AcDbCircle
 10
28.550982
 20
21.241684
 30
0.0
 40
3.839694
210
0.0
220
0.0
230
1.0
100
AcDbArc
 50
244.226094
 51
246.888393
  0
ARC
  5
8A
100
AcDbEntity
  8
0
 62
     7
100
AcDbCircle
 10
29.722715
 20
23.668373
 30
0.0
 40
6.534461
210
0.0
220
0.0
230
1.0
100
AcDbArc
 50
242.438333
 51
244.226176
  0
ARC
  5
8B
100
AcDbEntity
  8
0
 62
     7
100
AcDbCircle
 10
29.975426
 20
24.152557
 30
0.0
 40
7.080627
210
0.0
220
0.0
230
1.0
100
AcDbArc
 50
240.710131
 51
242.438388
  0
ARC
  5
8C
100
AcDbEntity
  8
0
 62
     7
100
AcDbCircle
 10
29.630604
 20
23.537842
 30
0.0
 40
6.375803
210
0.0
220
0.0
230
1.0
100
AcDbArc
 50
238.840517
 51
240.710159
  0
LINE
  5
8D
100
AcDbEntity
  8
0
 62
     7
 48
0.005842
100
AcDbLine
 10
26.331621
 20
18.081875
 30
0.0
 11
26.131651
 21
18.202787
 31
0.0
210
0.0
220
0.0
230
1.0
  0
LINE
  5
8E
100
AcDbEntity
  8
0
 62
     7
 48
0.001968
100
AcDbLine
 10
26.131651
 20
18.202787
 30
0.0
 11
26.075233
 21
18.1479
 31
0.0
210
0.0
220
0.0
230
1.0
  0
ARC
  5
8F
100
AcDbEntity
  8
0
 62
     7
100
AcDbCircle
 10
17.394779
 20
27.070448
 30
0.0
 40
12.448379
210
0.0
220
0.0
230
1.0
100
AcDbArc
 50
313.135815
 51
314.212061
  0
LINE
  5
90
100
AcDbEntity
  8
0
 62
     7
 48
0.012026
100
AcDbLine
 10
25.906111
 20
17.986429
 30
0.0
 11
25.554651
 21
17.658003
 31
0.0
210
0.0
220
0.0
230
1.0
  0
LINE
  5
91
100
AcDbEntity
  8
0
 62
     7
 48
0.013716
100
AcDbLine
 10
25.554651
 20
17.658003
 30
0.0
 11
25.153276
 21
17.283974
 31
0.0
210
0.0
220
0.0
230
1.0
  0
ARC
  5
92
100
AcDbEntity
  8
0
 62
     7
100
AcDbCircle
 10
25.144575
 20
17.293314
 30
0.0
 40
0.012762
210
0.0
220
0.0
230
1.0
100
AcDbArc
 50
269.999943
 51
312.976945
  0
ARC
  5
93
100
AcDbEntity
  8
0
 62
     7
100
AcDbCircle
 10
25.144575
 20
17.28793
 30
0.0
 40
0.007379
210
0.0
220
0.0
230
1.0
100
AcDbArc
 50
223.414685
 51
269.999916
  0
LINE
  5
94
100
AcDbEntity
  8
0
 62
     7
 48
0.008436
100
AcDbLine
 10
25.139217
 20
17.28286
 30
0.0
 11
24.907318
 21
17.527992
 31
0.0
210
0.0
220
0.0
230
1.0
  0
LINE
  5
95
100
AcDbEntity
  8
0
 62
     7
 48
0.009344
100
AcDbLine
 10
24.907318
 20
17.527992
 30
0.0
 11
24.650892
 21
17.799911
 31
0.0
210
0.0
220
0.0
230
1.0
  0
LINE
  5
96
100
AcDbEntity
  8
0
 62
     7
 48
0.011073
100
AcDbLine
 10
24.650892
 20
17.799911
 30
0.0
 11
24.347805
 21
18.1229
 31
0.0
210
0.0
220
0.0
230
1.0
  0
LINE
  5
97
100
AcDbEntity
  8
0
 62
     7
 48
0.011235
100
AcDbLine
 10
24.347805
 20
18.1229
 30
0.0
 11
24.040554
 21
18.450874
 31
0.0
210
0.0
220
0.0
230
1.0
  0
LINE
  5
98
100
AcDbEntity
  8
0
 62
     7
 48
0.009868
100
AcDbLine
 10
24.040554
 20
18.450874
 30
0.0
 11
23.77063
 21
18.738882
 31
0.0
210
0.0
220
0.0
230
1.0
  0
LINE
  5
99
100
AcDbEntity
  8
0
 62
     7
 48
0.008419
100
AcDbLine
 10
23.77063
 20
18.738882
 30
0.0
 11
23.540304
 21
18.98455
 31
0.0
210
0.0
220
0.0
230
1.0
  0
ARC
  5
9A
100
AcDbEntity
  8
0
 62
     7
100
AcDbCircle
 10
12.368567
 20
8.509431
 30
0.0
 40
15.314563
210
0.0
220
0.0
230
1.0
100
AcDbArc
 50
43.15681
 51
43.426329
  0
LINE
  5
9B
100
AcDbEntity
  8
0
 62
     7
 48
0.00247
100
AcDbLine
 10
23.490904
 20
19.036987
 30
0.0
 11
23.422997
 21
19.10873
 31
0.0
210
0.0
220
0.0
230
1.0
  0
LINE
  5
9C
100
AcDbEntity
  8
0
 62
     7
 48
0.016926
100
AcDbLine
 10
23.422997
 20
19.10873
 30
0.0
 11
23.917313
 21
19.571367
 31
0.0
210
0.0
220
0.0
230
1.0
  0
LINE
  5
9D
100
AcDbEntity
  8
0
 62
     7
 48
0.016926
100
AcDbLine
 10
23.917313
 20
19.571367
 30
0.0
 11
24.411629
 21
20.034004
 31
0.0
210
0.0
220
0.0
230
1.0
  0
LINE
  5
9E
100
AcDbEntity
  8
0
 62
     7
 48
0.006484
100
AcDbLine
 10
24.411629
 20
20.034004
 30
0.0
 11
24.29328
 21
20.264774
 31
0.0
210
0.0
220
0.0
230
1.0
  0
ARC
  5
9F
100
AcDbEntity
  8
0
 62
     7
100
AcDbCircle
 10
31.066441
 20
23.738281
 30
0.0
 40
7.611895
210
0.0
220
0.0
230
1.0
100
AcDbArc
 50
204.42818
 51
207.150284
  0
ARC
  5
A0
100
AcDbEntity
  8
0
 62
     7
100
AcDbCircle
 10
28.664688
 20
22.647377
 30
0.0
 40
4.974
210
0.0
220
0.0
230
1.0
100
AcDbArc
 50
200.683911
 51
204.428208
  0
ARC
  5
A1
100
AcDbEntity
  8
0
 62
     7
100
AcDbCircle
 10
28.572748
 20
22.612665
 30
0.0
 40
4.875725
210
0.0
220
0.0
230
1.0
100
AcDbArc
 50
196.897705
 51
200.683925
  0
ARC
  5
A2
100
AcDbEntity
  8
0
 62
     7
100
AcDbCircle
 10
30.615145
 20
23.233095
 30
0.0
 40
7.01028
210
0.0
220
0.0
230
1.0
100
AcDbArc
 50
194.013521
 51
196.897637
  0
LINE
  5
A3
100
AcDbEntity
  8
0
 62
     7
 48
0.005926
100
AcDbLine
 10
23.813501
 20
21.535551
 30
0.0
 11
23.7561
 21
21.765551
 31
0.0
210
0.0
220
0.0
230
1.0
  0
LINE
  5
A4
100
AcDbEntity
  8
0
 62
     7
 48
0.001475
100
AcDbLine
 10
23.7561
 20
21.765551
 30
0.0
 11
23.697454
 21
21.771864
 31
0.0
210
0.0
220
0.0
230
1.0
  0
ARC
  5
A5
100
AcDbEntity
  8
0
 62
     7
100
AcDbCircle
 10
23.631233
 20
21.156645
 30
0.0
 40
0.618773
210
0.0
220
0.0
230
1.0
100
AcDbArc
 50
83.856377
 51
87.775027
  0
LINE
  5
A6
100
AcDbEntity
  8
0
 62
     7
 48
0.004447
100
AcDbLine
 10
23.655256
 20
21.77495
 30
0.0
 11
23.477522
 21
21.781673
 31
0.0
210
0.0
220
0.0
230
1.0
  0
ARC
  5
A7
100
AcDbEntity
  8
0
 62
     7
100
AcDbCircle
 10
21.569527
 20
-30.026451
 30
0.0
 40
51.84325
210
0.0
220
0.0
230
1.0
100
AcDbArc
 50
87.890854
 51
88.122329
  0
LINE
  5
A8
100
AcDbEntity
  8
0
 62
     7
 48
0.005931
100
AcDbLine
 10
23.268204
 20
21.78896
 30
0.0
 11
23.031099
 21
21.796406
 31
0.0
210
0.0
220
0.0
230
1.0
  0
LINE
  5
A9
100
AcDbEntity
  8
0
 62
     7
 48
0.005846
100
AcDbLine
 10
23.031099
 20
21.796406
 30
0.0
 11
22.797375
 21
21.803846
 31
0.0
210
0.0
220
0.0
230
1.0
  0
ARC
  5
AA
100
AcDbEntity
  8
0
 62
     7
100
AcDbCircle
 10
23.90856
 20
54.776585
 30
0.0
 40
32.991459
210
0.0
220
0.0
230
1.0
100
AcDbArc
 50
267.724943
 51
268.069841
  0
LINE
  5
AB
100
AcDbEntity
  8
0
 62
     7
 48
0.004424
100
AcDbLine
 10
22.5989
 20
21.811132
 30
0.0
 11
22.422079
 21
21.818222
 31
0.0
210
0.0
220
0.0
230
1.0
  0
ARC
  5
AC
100
AcDbEntity
  8
0
 62
     7
100
AcDbCircle
 10
22.422823
 20
21.836586
 30
0.0
 40
0.018376
210
0.0
220
0.0
230
1.0
100
AcDbArc
 50
238.282546
 51
267.683225
  0
ARC
  5
AD
100
AcDbEntity
  8
0
 62
     7
100
AcDbCircle
 10
22.421097
 20
21.833794
 30
0.0
 40
0.015094
210
0.0
220
0.0
230
1.0
100
AcDbArc
 50
178.282089
 51
238.282491
  0
LINE
  5
AE
100
AcDbEntity
  8
0
 62
     7
 48
0.030988
100
AcDbLine
 10
22.40601
 20
21.834248
 30
0.0
 11
22.443224
 21
23.073193
 31
0.0
210
0.0
220
0.0
230
1.0
  0
LINE
  5
AF
100
AcDbEntity
  8
0
 62
     7
 48
0.030932
100
AcDbLine
 10
22.443224
 20
23.073193
 30
0.0
 11
22.48049
 21
24.309906
 31
0.0
210
0.0
220
0.0
230
1.0
  0
ARC
  5
B0
100
AcDbEntity
  8
0
 62
     7
100
AcDbCircle
 10
22.508183
 20
24.309072
 30
0.0
 40
0.027705
210
0.0
220
0.0
230
1.0
100
AcDbArc
 50
135.000014
 51
178.270956
  0
ARC
  5
B1
100
AcDbEntity
  8
0
 62
     7
100
AcDbCircle
 10
22.495186
 20
24.322065
 30
0.0
 40
0.009329
210
0.0
220
0.0
230
1.0
100
AcDbArc
 50
88.343525
 51
135.0
  0
LINE
  5
B2
100
AcDbEntity
  8
0
 62
     7
 48
0.00778
100
AcDbLine
 10
22.495457
 20
24.33139
 30
0.0
 11
22.806507
 21
24.322357
 31
0.0
210
0.0
220
0.0
230
1.0
  0
LINE
  5
B3
100
AcDbEntity
  8
0
 62
     7
 48
0.009223
100
AcDbLine
 10
22.806507
 20
24.322357
 30
0.0
 11
23.175249
 21
24.310904
 31
0.0
210
0.0
220
0.0
230
1.0
  0
LINE
  5
B4
100
AcDbEntity
  8
0
 62
     7
 48
0.012221
100
AcDbLine
 10
23.175249
 20
24.310904
 30
0.0
 11
23.663813
 21
24.294394
 31
0.0
210
0.0
220
0.0
230
1.0
  0
LINE
  5
B5
100
AcDbEntity
  8
0
 62
     7
 48
0.004378
100
AcDbLine
 10
23.663813
 20
24.294394
 30
0.0
 11
23.838812
 21
24.28833
 31
0.0
210
0.0
220
0.0
230
1.0
  0
LINE
  5
B6
100
AcDbEntity
  8
0
 62
     7
 48
0.00427
100
AcDbLine
 10
23.838812
 20
24.28833
 30
0.0
 11
23.887903
 21
24.451942
 31
0.0
210
0.0
220
0.0
230
1.0
  0
ARC
  5
B7
100
AcDbEntity
  8
0
 62
     7
100
AcDbCircle
 10
29.369051
 20
22.807274
 30
0.0
 40
5.722578
210
0.0
220
0.0
230
1.0
100
AcDbArc
 50
159.691763
 51
163.297665
  0
ARC
  5
B8
100
AcDbEntity
  8
0
 62
     7
100
AcDbCircle
 10
29.065269
 20
22.919701
 30
0.0
 40
5.39866
210
0.0
220
0.0
230
1.0
100
AcDbArc
 50
155.924859
 51
159.691831
  0
ARC
  5
B9
100
AcDbEntity
  8
0
 62
     7
100
AcDbCircle
 10
29.219959
 20
22.85059
 30
0.0
 40
5.568085
210
0.0
220
0.0
230
1.0
100
AcDbArc
 50
152.218183
 51
155.924886
  0
ARC
  5
BA
100
AcDbEntity
  8
0
 62
     7
100
AcDbCircle
 10
30.137669
 20
22.367119
 30
0.0
 40
6.605361
210
0.0
220
0.0
230
1.0
100
AcDbArc
 50
148.957178
 51
152.218224
  0
LINE
  5
BB
100
AcDbEntity
  8
0
 62
     7
 48
0.006064
100
AcDbLine
 10
24.478313
 20
25.773359
 30
0.0
 11
24.60339
 21
25.981171
 31
0.0
210
0.0
220
0.0
230
1.0
  0
LINE
  5
BC
100
AcDbEntity
  8
0
 62
     7
 48
0.016785
100
AcDbLine
 10
24.60339
 20
25.981171
 30
0.0
 11
24.143602
 21
26.470453
 31
0.0
210
0.0
220
0.0
230
1.0
  0
LINE
  5
BD
100
AcDbEntity
  8
0
 62
     7
 48
0.006448
100
AcDbLine
 10
24.143602
 20
26.470453
 30
0.0
 11
23.967312
 21
26.658745
 31
0.0
210
0.0
220
0.0
230
1.0
  0
ARC
  5
BE
100
AcDbEntity
  8
0
 62
     7
100
AcDbCircle
 10
50.26096
 20
51.184952
 30
0.0
 40
35.956791
210
0.0
220
0.0
230
1.0
100
AcDbArc
 50
222.660236
 51
223.008139
  0
LINE
  5
BF
100
AcDbEntity
  8
0
 62
     7
 48
0.004886
100
AcDbLine
 10
23.818874
 20
26.818851
 30
0.0
 11
23.68646
 21
26.962626
 31
0.0
210
0.0
220
0.0
230
1.0
  0
ARC
  5
C0
100
AcDbEntity
  8
0
 62
     7
100
AcDbCircle
 10
23.693838
 20
26.969414
 30
0.0
 40
0.010026
210
0.0
220
0.0
230
1.0
100
AcDbArc
 50
180.000009
 51
222.629159
  0
ARC
  5
C1
100
AcDbEntity
  8
0
 62
     7
100
AcDbCircle
 10
23.692545
 20
26.969414
 30
0.0
 40
0.008734
210
0.0
220
0.0
230
1.0
100
AcDbArc
 50
142.78826
 51
180.000036
  0
ARC
  5
C2
100
AcDbEntity
  8
0
 62
     7
100
AcDbCircle
 10
23.820856
 20
26.871983
 30
0.0
 40
0.169843
210
0.0
220
0.0
230
1.0
100
AcDbArc
 50
138.490855
 51
142.788219
  0
ARC
  5
C3
100
AcDbEntity
  8
0
 62
     7
100
AcDbCircle
 10
23.832823
 20
26.861391
 30
0.0
 40
0.185825
210
0.0
220
0.0
230
1.0
100
AcDbArc
 50
133.668646
 51
138.490869
  0
ARC
  5
C4
100
AcDbEntity
  8
0
 62
     7
100
AcDbCircle
 10
23.894598
 20
26.796675
 30
0.0
 40
0.275294
210
0.0
220
0.0
230
1.0
100
AcDbArc
 50
130.076691
 51
133.668619
  0
ARC
  5
C5
100
AcDbEntity
  8
0
 62
     7
100
AcDbCircle
 10
23.295313
 20
27.50894
 30
0.0
 40
0.655547
210
0.0
220
0.0
230
1.0
100
AcDbArc
 50
310.076628
 51
313.076228
  0
LINE
  5
C6
100
AcDbEntity
  8
0
 62
     7
 48
0.008787
100
AcDbLine
 10
23.743032
 20
27.030098
 30
0.0
 11
23.999727
 21
27.270164
 31
0.0
210
0.0
220
0.0
230
1.0
  0
LINE
  5
C7
100
AcDbEntity
  8
0
 62
     7
 48
0.009995
100
AcDbLine
 10
23.999727
 20
27.270164
 30
0.0
 11
24.291525
 21
27.543457
 31
0.0
210
0.0
220
0.0
230
1.0
  0
LINE
  5
C8
100
AcDbEntity
  8
0
 62
     7
 48
0.011655
100
AcDbLine
 10
24.291525
 20
27.543457
 30
0.0
 11
24.631495
 21
27.862471
 31
0.0
210
0.0
220
0.0
230
1.0
  0
LINE
  5
C9
100
AcDbEntity
  8
0
 62
     7
 48
0.0302
100
AcDbLine
 10
24.631495
 20
27.862471
 30
0.0
 11
25.512079
 21
28.689394
 31
0.0
210
0.0
220
0.0
230
1.0
  0
LINE
  5
CA
100
AcDbEntity
  8
0
 62
     7
 48
0.014964
100
AcDbLine
 10
25.512079
 20
28.689394
 30
0.0
 11
25.921192
 21
28.25247
 31
0.0
210
0.0
220
0.0
230
1.0
  0
LINE
  5
CB
100
AcDbEntity
  8
0
 62
     7
 48
0.005879
100
AcDbLine
 10
25.921192
 20
28.25247
 30
0.0
 11
26.081913
 21
28.08079
 31
0.0
210
0.0
220
0.0
230
1.0
  0
LINE
  5
CC
100
AcDbEntity
  8
0
 62
     7
 48
0.005283
100
AcDbLine
 10
26.081913
 20
28.08079
 30
0.0
 11
26.226282
 21
27.926498
 31
0.0
210
0.0
220
0.0
230
1.0
  0
LINE
  5
CD
100
AcDbEntity
  8
0
 62
     7
 48
0.004443
100
AcDbLine
 10
26.226282
 20
27.926498
 30
0.0
 11
26.347673
 21
27.7967
 31
0.0
210
0.0
220
0.0
230
1.0
  0
LINE
  5
CE
100
AcDbEntity
  8
0
 62
     7
 48
0.00138
100
AcDbLine
 10
26.347673
 20
27.7967
 30
0.0
 11
26.385298
 21
27.756317
 31
0.0
210
0.0
220
0.0
230
1.0
  0
LINE
  5
CF
100
AcDbEntity
  8
0
 62
     7
 48
0.002021
100
AcDbLine
 10
26.385298
 20
27.756317
 30
0.0
 11
26.44029
 21
27.69709
 31
0.0
210
0.0
220
0.0
230
1.0
  0
LINE
  5
D0
100
AcDbEntity
  8
0
 62
     7
 48
0.005084
100
AcDbLine
 10
26.44029
 20
27.69709
 30
0.0
 11
26.619551
 21
27.793076
 31
0.0
210
0.0
220
0.0
230
1.0
  0
ARC
  5
D1
100
AcDbEntity
  8
0
 62
     7
100
AcDbCircle
 10
29.480272
 20
22.450706
 30
0.0
 40
6.060085
210
0.0
220
0.0
230
1.0
100
AcDbArc
 50
114.795181
 51
118.168051
  0
ARC
  5
D2
100
AcDbEntity
  8
0
 62
     7
100
AcDbCircle
 10
29.128815
 20
23.211498
 30
0.0
 40
5.222034
210
0.0
220
0.0
230
1.0
100
AcDbArc
 50
111.02409
 51
114.795181
  0
ARC
  5
D3
100
AcDbEntity
  8
0
 62
     7
100
AcDbCircle
 10
29.144869
 20
23.169712
 30
0.0
 40
5.266802
210
0.0
220
0.0
230
1.0
100
AcDbArc
 50
107.269897
 51
111.024035
  0
ARC
  5
D4
100
AcDbEntity
  8
0
 62
     7
100
AcDbCircle
 10
29.451551
 20
22.183256
 30
0.0
 40
6.29983
210
0.0
220
0.0
230
1.0
100
AcDbArc
 50
103.987561
 51
107.269931
  0
ARC
  5
D5
100
AcDbEntity
  8
0
 62
     7
100
AcDbCircle
 10
25.405315
 20
38.426826
 30
0.0
 40
10.440106
210
0.0
220
0.0
230
1.0
100
AcDbArc
 50
283.987576
 51
284.490408
  0
ARC
  5
D6
100
AcDbEntity
  8
0
 62
     7
100
AcDbCircle
 10
26.574982
 20
33.90094
 30
0.0
 40
5.765522
210
0.0
220
0.0
230
1.0
100
AcDbArc
 50
284.490408
 51
285.274657
  0
ARC
  5
D7
100
AcDbEntity
  8
0
 62
     7
100
AcDbCircle
 10
23.610157
 20
44.757374
 30
0.0
 40
17.019512
210
0.0
220
0.0
230
1.0
100
AcDbArc
 50
285.274677
 51
285.505217
  0
ARC
  5
D8
100
AcDbEntity
  8
0
 62
     7
100
AcDbCircle
 10
28.154606
 20
28.376421
 30
0.0
 40
0.019878
210
0.0
220
0.0
230
1.0
100
AcDbArc
 50
285.505217
 51
311.580389
  0
ARC
  5
D9
100
AcDbEntity
  8
0
 62
     7
100
AcDbCircle
 10
28.160206
 20
28.370111
 30
0.0
 40
0.011441
210
0.0
220
0.0
230
1.0
100
AcDbArc
 50
311.580444
 51
357.347929
  0
LINE
  5
DA
100
AcDbEntity
  8
0
 62
     7
 48
0.004831
100
AcDbLine
 10
28.171635
 20
28.369579
 30
0.0
 11
28.180489
 21
28.562601
 31
0.0
210
0.0
220
0.0
230
1.0
  0
ARC
  5
DB
100
AcDbEntity
  8
0
 62
     7
100
AcDbCircle
 10
1.238326
 20
29.786386
 30
0.0
 40
26.969942
210
0.0
220
0.0
230
1.0
100
AcDbArc
 50
357.399265
 51
357.859675
  0
ARC
  5
DC
100
AcDbEntity
  8
0
 62
     7
100
AcDbCircle
 10
-23.891945
 20
30.725565
 30
0.0
 40
52.117752
210
0.0
220
0.0
230
1.0
100
AcDbArc
 50
357.859702
 51
358.140915
  0
LINE
  5
DD
100
AcDbEntity
  8
0
 62
     7
 48
0.00639
100
AcDbLine
 10
28.198378
 20
29.034784
 30
0.0
 11
28.207039
 21
29.290239
 31
0.0
210
0.0
220
0.0
230
1.0
  0
ARC
  5
DE
100
AcDbEntity
  8
0
 62
     7
100
AcDbCircle
 10
73.615288
 20
27.685034
 30
0.0
 40
45.436607
210
0.0
220
0.0
230
1.0
100
AcDbArc
 50
177.702903
 51
177.9754
  0
LINE
  5
DF
100
AcDbEntity
  8
0
 62
     7
 48
0.004853
100
AcDbLine
 10
28.215187
 20
29.506182
 30
0.0
 11
28.223001
 21
29.700151
 31
0.0
210
0.0
220
0.0
230
1.0
  0
ARC
  5
E0
100
AcDbEntity
  8
0
 62
     7
100
AcDbCircle
 10
28.230789
 20
29.699839
 30
0.0
 40
0.007796
210
0.0
220
0.0
230
1.0
100
AcDbArc
 50
135.0
 51
177.683601
  0
ARC
  5
E1
100
AcDbEntity
  8
0
 62
     7
100
AcDbCircle
 10
28.230312
 20
29.700317
 30
0.0
 40
0.007121
210
0.0
220
0.0
230
1.0
100
AcDbArc
 50
88.491746
 51
135.000041
  0
LINE
  5
E2
100
AcDbEntity
  8
0
 62
     7
 48
0.006752
100
AcDbLine
 10
28.230501
 20
29.707436
 30
0.0
 11
28.500484
 21
29.700296
 31
0.0
210
0.0
220
0.0
230
1.0
  0
LINE
  5
E3
100
AcDbEntity
  8
0
 62
     7
 48
0.00749
100
AcDbLine
 10
28.500484
 20
29.700296
 30
0.0
 11
28.799984
 21
29.691807
 31
0.0
210
0.0
220
0.0
230
1.0
  0
LINE
  5
E4
100
AcDbEntity
  8
0
 62
     7
 48
0.008872
100
AcDbLine
 10
28.799984
 20
29.691807
 30
0.0
 11
29.154697
 21
29.680702
 31
0.0
210
0.0
220
0.0
230
1.0
  0
LINE
  5
E5
100
AcDbEntity
  8
0
 62
     7
 48
0.02316
100
AcDbLine
 10
29.154697
 20
29.680702
 30
0.0
 11
30.080616
 21
29.650591
 31
0.0
210
0.0
220
0.0
230
1.0
  0
LINE
  5
E6
100
AcDbEntity
  8
0
 62
     7
 48
0.009796
100
AcDbLine
 10
30.080616
 20
29.650591
 30
0.0
 11
30.472233
 21
29.637367
 31
0.0
210
0.0
220
0.0
230
1.0
  0
LINE
  5
E7
100
AcDbEntity
  8
0
 62
     7
 48
0.006337
100
AcDbLine
 10
30.472233
 20
29.637367
 30
0.0
 11
30.725559
 21
29.62849
 31
0.0
210
0.0
220
0.0
230
1.0
  0
ARC
  5
E8
100
AcDbEntity
  8
0
 62
     7
100
AcDbCircle
 10
30.725224
 20
29.6189
 30
0.0
 40
0.009598
210
0.0
220
0.0
230
1.0
100
AcDbArc
 50
44.999953
 51
87.984926
  0
ARC
  5
E9
100
AcDbEntity
  8
0
 62
     7
100
AcDbCircle
 10
30.728827
 20
29.622505
 30
0.0
 40
0.004502
210
0.0
220
0.0
230
1.0
100
AcDbArc
 50
358.427072
 51
45.000001
  0
LINE
  5
EA
100
AcDbEntity
  8
0
 62
     7
 48
0.004875
100
AcDbLine
 10
30.733326
 20
29.622377
 30
0.0
 11
30.727961
 21
29.427441
 31
0.0
210
0.0
220
0.0
230
1.0
  0
LINE
  5
EB
100
AcDbEntity
  8
0
 62
     7
 48
0.005402
100
AcDbLine
 10
30.727961
 20
29.427441
 30
0.0
 11
30.721649
 21
29.211439
 31
0.0
210
0.0
220
0.0
230
1.0
  0
LINE
  5
EC
100
AcDbEntity
  8
0
 62
     7
 48
0.006401
100
AcDbLine
 10
30.721649
 20
29.211439
 30
0.0
 11
30.713512
 21
28.955517
 31
0.0
210
0.0
220
0.0
230
1.0
  0
ARC
  5
ED
100
AcDbEntity
  8
0
 62
     7
100
AcDbCircle
 10
83.416138
 20
27.22835
 30
0.0
 40
52.730923
210
0.0
220
0.0
230
1.0
100
AcDbArc
 50
178.122973
 51
178.403038
  0
ARC
  5
EE
100
AcDbEntity
  8
0
 62
     7
100
AcDbCircle
 10
57.160168
 20
27.960384
 30
0.0
 40
26.464748
210
0.0
220
0.0
230
1.0
100
AcDbArc
 50
178.403107
 51
178.872245
  0
LINE
  5
EF
100
AcDbEntity
  8
0
 62
     7
 48
0.004812
100
AcDbLine
 10
30.700548
 20
28.481258
 30
0.0
 11
30.696844
 21
28.288822
 31
0.0
210
0.0
220
0.0
230
1.0
  0
ARC
  5
F0
100
AcDbEntity
  8
0
 62
     7
100
AcDbCircle
 10
30.706951
 20
28.288631
 30
0.0
 40
0.01011
210
0.0
220
0.0
230
1.0
100
AcDbArc
 50
178.923253
 51
228.359879
  0
ARC
  5
F1
100
AcDbEntity
  8
0
 62
     7
100
AcDbCircle
 10
30.714918
 20
28.297592
 30
0.0
 40
0.022097
210
0.0
220
0.0
230
1.0
100
AcDbArc
 50
228.359852
 51
250.828421
  0
LINE
  5
F2
100
AcDbEntity
  8
0
 62
     7
 48
0.001596
100
AcDbLine
 10
30.707659
 20
28.276724
 30
0.0
 11
30.767979
 21
28.255873
 31
0.0
210
0.0
220
0.0
230
1.0
  0
ARC
  5
F3
100
AcDbEntity
  8
0
 62
     7
100
AcDbCircle
 10
32.726151
 20
33.955242
 30
0.0
 40
6.026378
210
0.0
220
0.0
230
1.0
100
AcDbArc
 50
251.038463
 51
251.737909
  0
ARC
  5
F4
100
AcDbEntity
  8
0
 62
     7
100
AcDbCircle
 10
34.240295
 20
38.543755
 30
0.0
 40
10.858262
210
0.0
220
0.0
230
1.0
100
AcDbArc
 50
251.737875
 51
252.187991
  0
ARC
  5
F5
100
AcDbEntity
  8
0
 62
     7
100
AcDbCircle
 10
28.718649
 20
21.358217
 30
0.0
 40
7.192538
210
0.0
220
0.0
230
1.0
100
AcDbArc
 50
69.310499
 51
72.187969
  0
ARC
  5
F6
100
AcDbEntity
  8
0
 62
     7
100
AcDbCircle
 10
29.508457
 20
23.449535
 30
0.0
 40
4.957048
210
0.0
220
0.0
230
1.0
100
AcDbArc
 50
65.507129
 51
69.310533
  0
ARC
  5
F7
100
AcDbEntity
  8
0
 62
     7
100
AcDbCircle
 10
29.492435
 20
23.41436
 30
0.0
 40
4.995702
210
0.0
220
0.0
230
1.0
100
AcDbArc
 50
61.720253
 51
65.507156
  0
ARC
  5
F8
100
AcDbEntity
  8
0
 62
     7
100
AcDbCircle
 10
28.340845
 20
21.273827
 30
0.0
 40
7.426346
210
0.0
220
0.0
230
1.0
100
AcDbArc
 50
58.906652
 51
61.720192
  0
LINE
  5
F9
100
AcDbEntity
  8
0
 62
     7
 48
0.00605
100
AcDbLine
 10
32.176064
 20
27.633207
 30
0.0
 11
32.383312
 21
27.508223
 31
0.0
210
0.0
220
0.0
230
1.0
  0
LINE
  5
FA
100
AcDbEntity
  8
0
 62
     7
 48
0.007469
100
AcDbLine
 10
32.383312
 20
27.508223
 30
0.0
 11
32.601063
 21
27.712763
 31
0.0
210
0.0
220
0.0
230
1.0
  0
LINE
  5
FB
100
AcDbEntity
  8
0
 62
     7
 48
0.013852
100
AcDbLine
 10
32.601063
 20
27.712763
 30
0.0
 11
33.005119
 21
28.091909
 31
0.0
210
0.0
220
0.0
230
1.0
  0
ARC
  5
FC
100
AcDbEntity
  8
0
 62
     7
100
AcDbCircle
 10
64.073013
 20
-5.053685
 30
0.0
 40
45.42955
210
0.0
220
0.0
230
1.0
100
AcDbArc
 50
132.780312
 51
133.146779
  0
LINE
  5
FD
100
AcDbEntity
  8
0
 62
     7
 48
0.005036
100
AcDbLine
 10
33.217758
 20
28.28994
 30
0.0
 11
33.3657
 21
28.426683
 31
0.0
210
0.0
220
0.0
230
1.0
  0
ARC
  5
FE
100
AcDbEntity
  8
0
 62
     7
100
AcDbCircle
 10
33.371349
 20
28.420567
 30
0.0
 40
0.008327
210
0.0
220
0.0
230
1.0
100
AcDbArc
 50
68.962002
 51
132.712379
  0
ARC
  5
FF
100
AcDbEntity
  8
0
 62
     7
100
AcDbCircle
 10
33.35907
 20
28.388638
 30
0.0
 40
0.042535
210
0.0
220
0.0
230
1.0
100
AcDbArc
 50
43.088453
 51
68.962064
  0
LINE
  5
100
100
AcDbEntity
  8
0
 62
     7
 48
0.030871
100
AcDbLine
 10
33.390137
 20
28.417694
 30
0.0
 11
34.233669
 21
27.515854
 31
0.0
210
0.0
220
0.0
230
1.0
  0
LINE
  5
101
100
AcDbEntity
  8
0
 62
     7
 48
0.030958
100
AcDbLine
 10
34.233669
 20
27.515854
 30
0.0
 11
35.079533
 21
26.61145
 31
0.0
210
0.0
220
0.0
230
1.0
  0
ARC
  5
102
100
AcDbEntity
  8
0
 62
     7
100
AcDbCircle
 10
35.067951
 20
26.60062
 30
0.0
 40
0.01586
210
0.0
220
0.0
230
1.0
100
AcDbArc
 50
359.999955
 51
43.083358
  0
ARC
  5
103
100
AcDbEntity
  8
0
 62
     7
100
AcDbCircle
 10
35.07267
 20
26.60062
 30
0.0
 40
0.011141
210
0.0
220
0.0
230
1.0
100
AcDbArc
 50
313.375995
 51
359.999928
  0
LINE
  5
104
100
AcDbEntity
  8
0
 62
     7
 48
0.014731
100
AcDbLine
 10
35.080322
 20
26.59252
 30
0.0
 11
34.652004
 21
26.18786
 31
0.0
210
0.0
220
0.0
230
1.0
  0
LINE
  5
105
100
AcDbEntity
  8
0
 62
     7
 48
0.013119
100
AcDbLine
 10
34.652004
 20
26.18786
 30
0.0
 11
34.270195
 21
25.827871
 31
0.0
210
0.0
220
0.0
230
1.0
  0
ARC
  5
106
100
AcDbEntity
  8
0
 62
     7
100
AcDbCircle
 10
29.983534
 20
30.383169
 30
0.0
 40
6.255095
210
0.0
220
0.0
230
1.0
100
AcDbArc
 50
311.588832
 51
313.259769
  0
LINE
  5
107
100
AcDbEntity
  8
0
 62
     7
 48
0.001112
100
AcDbLine
 10
34.135544
 20
25.704809
 30
0.0
 11
34.102272
 21
25.675287
 31
0.0
210
0.0
220
0.0
230
1.0
  0
LINE
  5
108
100
AcDbEntity
  8
0
 62
     7
 48
0.005073
100
AcDbLine
 10
34.102272
 20
25.675287
 30
0.0
 11
34.196186
 21
25.495419
 31
0.0
210
0.0
220
0.0
230
1.0
  0
ARC
  5
109
100
AcDbEntity
  8
0
 62
     7
100
AcDbCircle
 10
27.771202
 20
22.140938
 30
0.0
 40
7.247961
210
0.0
220
0.0
230
1.0
100
AcDbArc
 50
24.437003
 51
27.569053
  0
ARC
  5
10A
100
AcDbEntity
  8
0
 62
     7
100
AcDbCircle
 10
29.448734
 20
22.903217
 30
0.0
 40
5.405358
210
0.0
220
0.0
230
1.0
100
AcDbArc
 50
20.534535
 51
24.436918
  0
ARC
  5
10B
100
AcDbEntity
  8
0
 62
     7
100
AcDbCircle
 10
29.568821
 20
22.948202
 30
0.0
 40
5.277121
210
0.0
220
0.0
230
1.0
100
AcDbArc
 50
16.580991
 51
20.534467
  0
ARC
  5
10C
100
AcDbEntity
  8
0
 62
     7
100
AcDbCircle
 10
28.36878
 20
22.590893
 30
0.0
 40
6.529226
210
0.0
220
0.0
230
1.0
100
AcDbArc
 50
13.210811
 51
16.580933
  0
ARC
  5
10D
100
AcDbEntity
  8
0
 62
     7
100
AcDbCircle
 10
43.637184
 20
26.175106
 30
0.0
 40
9.154233
210
0.0
220
0.0
230
1.0
100
AcDbArc
 50
193.210824
 51
193.815173
  0
ARC
  5
10E
100
AcDbEntity
  8
0
 62
     7
100
AcDbCircle
 10
34.938339
 20
24.036024
 30
0.0
 40
0.196236
210
0.0
220
0.0
230
1.0
100
AcDbArc
 50
193.815255
 51
203.398461
  0
ARC
  5
10F
100
AcDbEntity
  8
0
 62
     7
100
AcDbCircle
 10
34.789692
 20
23.971703
 30
0.0
 40
0.03427
210
0.0
220
0.0
230
1.0
100
AcDbArc
 50
203.398516
 51
235.198278
  0
ARC
  5
110
100
AcDbEntity
  8
0
 62
     7
100
AcDbCircle
 10
34.794888
 20
23.979179
 30
0.0
 40
0.043372
210
0.0
220
0.0
230
1.0
100
AcDbArc
 50
235.198278
 51
261.854259
  0
ARC
  5
111
100
AcDbEntity
  8
0
 62
     7
100
AcDbCircle
 10
34.820076
 20
24.155174
 30
0.0
 40
0.221166
210
0.0
220
0.0
230
1.0
100
AcDbArc
 50
261.854205
 51
267.91261
  0
LINE
  5
112
100
AcDbEntity
  8
0
 62
     7
 48
0.004675
100
AcDbLine
 10
34.812019
 20
23.93416
 30
0.0
 11
34.998901
 21
23.927425
 31
0.0
210
0.0
220
0.0
230
1.0
  0
LINE
  5
113
100
AcDbEntity
  8
0
 62
     7
 48
0.005362
100
AcDbLine
 10
34.998901
 20
23.927425
 30
0.0
 11
35.213268
 21
23.920116
 31
0.0
210
0.0
220
0.0
230
1.0
  0
LINE
  5
114
100
AcDbEntity
  8
0
 62
     7
 48
0.00622
100
AcDbLine
 10
35.213268
 20
23.920116
 30
0.0
 11
35.461956
 21
23.91227
 31
0.0
210
0.0
220
0.0
230
1.0
  0
LINE
  5
115
100
AcDbEntity
  8
0
 62
     7
 48
0.006179
100
AcDbLine
 10
35.461956
 20
23.91227
 30
0.0
 11
35.708988
 21
23.904287
 31
0.0
210
0.0
220
0.0
230
1.0
  0
ARC
  5
116
100
AcDbEntity
  8
0
 62
     7
100
AcDbCircle
 10
34.463432
 20
-12.662893
 30
0.0
 40
36.588383
210
0.0
220
0.0
230
1.0
100
AcDbArc
 50
87.721629
 51
88.049137
  0
LINE
  5
117
100
AcDbEntity
  8
0
 62
     7
 48
0.004685
100
AcDbLine
 10
35.91798
 20
23.896566
 30
0.0
 11
36.105244
 21
23.889072
 31
0.0
210
0.0
220
0.0
230
1.0
  0
ARC
  5
118
100
AcDbEntity
  8
0
 62
     7
100
AcDbCircle
 10
36.104881
 20
23.880053
 30
0.0
 40
0.009024
210
0.0
220
0.0
230
1.0
100
AcDbArc
 50
44.999906
 51
87.694131
  0
ARC
  5
119
100
AcDbEntity
  8
0
 62
     7
100
AcDbCircle
 10
36.10527
 20
23.880449
 30
0.0
 40
0.008469
210
0.0
220
0.0
230
1.0
100
AcDbArc
 50
359.101786
 51
45.000035
  0
LINE
  5
11A
100
AcDbEntity
  8
0
 62
     7
 48
0.033575
100
AcDbLine
 10
36.113739
 20
23.880318
 30
0.0
 11
36.092678
 21
22.537485
 31
0.0
210
0.0
220
0.0
230
1.0
  0
LINE
  5
11B
100
AcDbEntity
  8
0
 62
     7
 48
0.036979
100
AcDbLine
 10
36.092678
 20
22.537485
 30
0.0
 11
36.068848
 21
21.058525
 31
0.0
210
0.0
220
0.0
230
1.0
  0
LINE
  5
11C
100
AcDbEntity
  8
0
 62
     7
 48
0.043897
100
AcDbLine
 10
36.068848
 20
21.058525
 30
0.0
 11
36.039349
 21
19.30291
 31
0.0
210
0.0
220
0.0
230
1.0
  0
LINE
  5
11D
100
AcDbEntity
  8
0
 62
     7
 48
0.044122
100
AcDbLine
 10
36.039349
 20
19.30291
 30
0.0
 11
36.009861
 21
17.538261
 31
0.0
210
0.0
220
0.0
230
1.0
  0
LINE
  5
11E
100
AcDbEntity
  8
0
 62
     7
 48
0.03772
100
AcDbLine
 10
36.009861
 20
17.538261
 30
0.0
 11
35.986004
 21
16.029646
 31
0.0
210
0.0
220
0.0
230
1.0
  0
LINE
  5
11F
100
AcDbEntity
  8
0
 62
     7
 48
0.033329
100
AcDbLine
 10
35.986004
 20
16.029646
 30
0.0
 11
35.96579
 21
14.69664
 31
0.0
210
0.0
220
0.0
230
1.0
  0
ARC
  5
120
100
AcDbEntity
  8
0
 62
     7
100
AcDbCircle
 10
37.805233
 20
14.668927
 30
0.0
 40
1.839651
210
0.0
220
0.0
230
1.0
100
AcDbArc
 50
179.136874
 51
182.531973
  0
ARC
  5
121
100
AcDbEntity
  8
0
 62
     7
100
AcDbCircle
 10
38.887234
 20
14.716774
 30
0.0
 40
2.922714
210
0.0
220
0.0
230
1.0
100
AcDbArc
 50
182.531987
 51
201.598091
  0
ARC
  5
122
100
AcDbEntity
  8
0
 62
     7
100
AcDbCircle
 10
39.000889
 20
14.761772
 30
0.0
 40
3.04495
210
0.0
220
0.0
230
1.0
100
AcDbArc
 50
201.598146
 51
220.087386
  0
ARC
  5
123
100
AcDbEntity
  8
0
 62
     7
100
AcDbCircle
 10
39.01173
 20
14.770901
 30
0.0
 40
3.059125
210
0.0
220
0.0
230
1.0
100
AcDbArc
 50
220.087413
 51
238.529962
  0
ARC
  5
124
100
AcDbEntity
  8
0
 62
     7
100
AcDbCircle
 10
38.968193
 20
14.699758
 30
0.0
 40
2.975714
210
0.0
220
0.0
230
1.0
100
AcDbArc
 50
238.529935
 51
257.358847
  0
ARC
  5
125
100
AcDbEntity
  8
0
 62
     7
100
AcDbCircle
 10
38.919487
 20
14.482585
 30
0.0
 40
2.753149
210
0.0
220
0.0
230
1.0
100
AcDbArc
 50
257.358765
 51
262.616454
  0
ARC
  5
126
100
AcDbEntity
  8
0
 62
     7
100
AcDbCircle
 10
38.931808
 20
14.577682
 30
0.0
 40
2.849039
210
0.0
220
0.0
230
1.0
100
AcDbArc
 50
262.616454
 51
267.740817
  0
ARC
  5
127
100
AcDbEntity
  8
0
 62
     7
100
AcDbCircle
 10
39.254612
 20
22.760546
 30
0.0
 40
11.038268
210
0.0
220
0.0
230
1.0
100
AcDbArc
 50
267.740899
 51
269.814025
  0
LINE
  5
128
100
AcDbEntity
  8
0
 62
     7
 48
0.025313
100
AcDbLine
 10
39.218788
 20
11.722336
 30
0.0
 11
40.231312
 21
11.720654
 31
0.0
210
0.0
220
0.0
230
1.0
  0
LINE
  5
129
100
AcDbEntity
  8
0
 62
     7
 48
0.034062
100
AcDbLine
 10
40.231312
 20
11.720654
 30
0.0
 11
41.593811
 21
11.720551
 31
0.0
210
0.0
220
0.0
230
1.0
  0
LINE
  5
12A
100
AcDbEntity
  8
0
 62
     7
 48
0.047812
100
AcDbLine
 10
41.593811
 20
11.720551
 30
0.0
 11
41.593849
 21
13.633051
 31
0.0
210
0.0
220
0.0
230
1.0
  0
LINE
  5
12B
100
AcDbEntity
  8
0
 62
     7
 48
0.047813
100
AcDbLine
 10
41.593849
 20
13.633051
 30
0.0
 11
41.593895
 21
15.545551
 31
0.0
210
0.0
220
0.0
230
1.0
  0
LINE
  5
12C
100
AcDbEntity
  8
0
 62
     7
 48
0.0088
100
AcDbLine
 10
41.593895
 20
15.545551
 30
0.0
 11
41.921352
 21
15.674648
 31
0.0
210
0.0
220
0.0
230
1.0
  0
ARC
  5
12D
100
AcDbEntity
  8
0
 62
     7
100
AcDbCircle
 10
35.217102
 20
32.680271
 30
0.0
 40
18.279448
210
0.0
220
0.0
230
1.0
100
AcDbArc
 50
291.516186
 51
292.688008
  0
ARC
  5
12E
100
AcDbEntity
  8
0
 62
     7
100
AcDbCircle
 10
41.468517
 20
17.726992
 30
0.0
 40
2.072015
210
0.0
220
0.0
230
1.0
100
AcDbArc
 50
292.68798
 51
298.501585
  0
ARC
  5
12F
100
AcDbEntity
  8
0
 62
     7
100
AcDbCircle
 10
41.985565
 20
16.774775
 30
0.0
 40
0.98848
210
0.0
220
0.0
230
1.0
100
AcDbArc
 50
298.501564
 51
307.827583
  0
ARC
  5
130
100
AcDbEntity
  8
0
 62
     7
100
AcDbCircle
 10
41.715481
 20
17.122616
 30
0.0
 40
1.428863
210
0.0
220
0.0
230
1.0
100
AcDbArc
 50
307.827583
 51
314.903194
  0
ARC
  5
131
100
AcDbEntity
  8
0
 62
     7
100
AcDbCircle
 10
41.796886
 20
17.040937
 30
0.0
 40
1.313544
210
0.0
220
0.0
230
1.0
100
AcDbArc
 50
314.903167
 51
325.177903
  0
ARC
  5
132
100
AcDbEntity
  8
0
 62
     7
100
AcDbCircle
 10
41.908115
 20
16.96357
 30
0.0
 40
1.178056
210
0.0
220
0.0
230
1.0
100
AcDbArc
 50
325.177848
 51
336.3266
  0
ARC
  5
133
100
AcDbEntity
  8
0
 62
     7
100
AcDbCircle
 10
41.894707
 20
16.969448
 30
0.0
 40
1.192696
210
0.0
220
0.0
230
1.0
100
AcDbArc
 50
336.3266
 51
347.401726
  0
ARC
  5
134
100
AcDbEntity
  8
0
 62
     7
100
AcDbCircle
 10
41.707085
 20
17.011381
 30
0.0
 40
1.384949
210
0.0
220
0.0
230
1.0
100
AcDbArc
 50
347.401753
 51
357.302714
  0
ARC
  5
135
100
AcDbEntity
  8
0
 62
     7
100
AcDbCircle
 10
41.768009
 20
17.008511
 30
0.0
 40
1.323951
210
0.0
220
0.0
230
1.0
100
AcDbArc
 50
357.302686
 51
3.820733
  0
ARC
  5
136
100
AcDbEntity
  8
0
 62
     7
100
AcDbCircle
 10
41.827568
 20
17.012489
 30
0.0
 40
1.264266
210
0.0
220
0.0
230
1.0
100
AcDbArc
 50
3.82065
 51
10.568143
  0
ARC
  5
137
100
AcDbEntity
  8
0
 62
     7
100
AcDbCircle
 10
41.879665
 20
17.022211
 30
0.0
 40
1.211265
210
0.0
220
0.0
230
1.0
100
AcDbArc
 50
10.568054
 51
17.461864
  0
ARC
  5
138
100
AcDbEntity
  8
0
 62
     7
100
AcDbCircle
 10
42.012302
 20
17.063934
 30
0.0
 40
1.072222
210
0.0
220
0.0
230
1.0
100
AcDbArc
 50
17.461811
 51
25.015699
  0
ARC
  5
139
100
AcDbEntity
  8
0
 62
     7
100
AcDbCircle
 10
41.883854
 20
17.003994
 30
0.0
 40
1.213964
210
0.0
220
0.0
230
1.0
100
AcDbArc
 50
25.015754
 51
28.200277
  0
LINE
  5
13A
100
AcDbEntity
  8
0
 62
     7
 48
0.009664
100
AcDbLine
 10
42.953724
 20
17.57766
 30
0.0
 11
42.770901
 21
17.918266
 31
0.0
210
0.0
220
0.0
230
1.0
  0
LINE
  5
13B
100
AcDbEntity
  8
0
 62
     7
 48
0.01123
100
AcDbLine
 10
42.770901
 20
17.918266
 30
0.0
 11
42.557827
 21
18.313725
 31
0.0
210
0.0
220
0.0
230
1.0
  0
LINE
  5
13C
100
AcDbEntity
  8
0
 62
     7
 48
0.012895
100
AcDbLine
 10
42.557827
 20
18.313725
 30
0.0
 11
42.312294
 21
18.767344
 31
0.0
210
0.0
220
0.0
230
1.0
  0
LINE
  5
13D
100
AcDbEntity
  8
0
 62
     7
 48
0.012866
100
AcDbLine
 10
42.312294
 20
18.767344
 30
0.0
 11
42.067722
 21
19.220137
 31
0.0
210
0.0
220
0.0
230
1.0
  0
ARC
  5
13E
100
AcDbEntity
  8
0
 62
     7
100
AcDbCircle
 10
119.532486
 20
60.897007
 30
0.0
 40
87.964485
210
0.0
220
0.0
230
1.0
100
AcDbArc
 50
207.990588
 51
208.280735
  0
LINE
  5
13F
100
AcDbEntity
  8
0
 62
     7
 48
0.009651
100
AcDbLine
 10
41.857666
 20
19.612953
 30
0.0
 11
41.676765
 21
19.95397
 31
0.0
210
0.0
220
0.0
230
1.0
  0
ARC
  5
140
100
AcDbEntity
  8
0
 62
     7
100
AcDbCircle
 10
42.011814
 20
20.131357
 30
0.0
 40
0.37911
210
0.0
220
0.0
230
1.0
100
AcDbArc
 50
199.380944
 51
207.898271
  0
ARC
  5
141
100
AcDbEntity
  8
0
 62
     7
100
AcDbCircle
 10
42.162956
 20
20.184526
 30
0.0
 40
0.539332
210
0.0
220
0.0
230
1.0
100
AcDbArc
 50
194.715132
 51
199.380889
  0
ARC
  5
142
100
AcDbEntity
  8
0
 62
     7
100
AcDbCircle
 10
41.932495
 20
20.124002
 30
0.0
 40
0.301055
210
0.0
220
0.0
230
1.0
100
AcDbArc
 50
187.495813
 51
194.715214
  0
ARC
  5
143
100
AcDbEntity
  8
0
 62
     7
100
AcDbCircle
 10
42.08234
 20
20.143721
 30
0.0
 40
0.452194
210
0.0
220
0.0
230
1.0
100
AcDbArc
 50
181.89458
 51
187.495854
  0
ARC
  5
144
100
AcDbEntity
  8
0
 62
     7
100
AcDbCircle
 10
43.860218
 20
20.202528
 30
0.0
 40
2.231042
210
0.0
220
0.0
230
1.0
100
AcDbArc
 50
180.179192
 51
181.894594
  0
ARC
  5
145
100
AcDbEntity
  8
0
 62
     7
100
AcDbCircle
 10
42.496071
 20
20.198261
 30
0.0
 40
0.866891
210
0.0
220
0.0
230
1.0
100
AcDbArc
 50
170.882249
 51
180.179233
  0
ARC
  5
146
100
AcDbEntity
  8
0
 62
     7
100
AcDbCircle
 10
42.092636
 20
20.263012
 30
0.0
 40
0.45829
210
0.0
220
0.0
230
1.0
100
AcDbArc
 50
155.901773
 51
170.882276
  0
ARC
  5
147
100
AcDbEntity
  8
0
 62
     7
100
AcDbCircle
 10
42.189461
 20
20.219702
 30
0.0
 40
0.564358
210
0.0
220
0.0
230
1.0
100
AcDbArc
 50
142.710095
 51
155.901732
  0
ARC
  5
148
100
AcDbEntity
  8
0
 62
     7
100
AcDbCircle
 10
43.141567
 20
19.494658
 30
0.0
 40
1.761102
210
0.0
220
0.0
230
1.0
100
AcDbArc
 50
137.06142
 51
142.710095
  0
ARC
  5
149
100
AcDbEntity
  8
0
 62
     7
100
AcDbCircle
 10
39.826351
 20
22.579506
 30
0.0
 40
2.767357
210
0.0
220
0.0
230
1.0
100
AcDbArc
 50
317.061425
 51
322.741246
  0
ARC
  5
14A
100
AcDbEntity
  8
0
 62
     7
100
AcDbCircle
 10
40.128735
 20
22.349497
 30
0.0
 40
2.387438
210
0.0
220
0.0
230
1.0
100
AcDbArc
 50
322.741246
 51
329.086161
  0
ARC
  5
14B
100
AcDbEntity
  8
0
 62
     7
100
AcDbCircle
 10
40.191692
 20
22.311796
 30
0.0
 40
2.314051
210
0.0
220
0.0
230
1.0
100
AcDbArc
 50
329.086192
 51
335.535284
  0
ARC
  5
14C
100
AcDbEntity
  8
0
 62
     7
100
AcDbCircle
 10
40.116741
 20
22.345898
 30
0.0
 40
2.396396
210
0.0
220
0.0
230
1.0
100
AcDbArc
 50
335.535256
 51
341.817446
  0
ARC
  5
14D
100
AcDbEntity
  8
0
 62
     7
100
AcDbCircle
 10
40.044823
 20
22.36952
 30
0.0
 40
2.472094
210
0.0
220
0.0
230
1.0
100
AcDbArc
 50
341.817446
 51
350.221939
  0
ARC
  5
14E
100
AcDbEntity
  8
0
 62
     7
100
AcDbCircle
 10
40.277313
 20
22.329458
 30
0.0
 40
2.236178
210
0.0
220
0.0
230
1.0
100
AcDbArc
 50
350.221911
 51
359.282977
  0
ARC
  5
14F
100
AcDbEntity
  8
0
 62
     7
100
AcDbCircle
 10
39.484871
 20
22.339375
 30
0.0
 40
3.028684
210
0.0
220
0.0
230
1.0
100
AcDbArc
 50
359.282949
 51
6.888817
  0
ARC
  5
150
100
AcDbEntity
  8
0
 62
     7
100
AcDbCircle
 10
34.569412
 20
21.745512
 30
0.0
 40
7.979884
210
0.0
220
0.0
230
1.0
100
AcDbArc
 50
6.888799
 51
10.579015
  0
ARC
  5
151
100
AcDbEntity
  8
0
 62
     7
100
AcDbCircle
 10
34.093597
 20
21.656654
 30
0.0
 40
8.463927
210
0.0
220
0.0
230
1.0
100
AcDbArc
 50
10.578975
 51
16.339424
  0
ARC
  5
152
100
AcDbEntity
  8
0
 62
     7
100
AcDbCircle
 10
34.216
 20
21.692533
 30
0.0
 40
8.336372
210
0.0
220
0.0
230
1.0
100
AcDbArc
 50
16.339448
 51
22.165863
  0
ARC
  5
153
100
AcDbEntity
  8
0
 62
     7
100
AcDbCircle
 10
34.214794
 20
21.692036
 30
0.0
 40
8.337679
210
0.0
220
0.0
230
1.0
100
AcDbArc
 50
22.165914
 51
27.991869
  0
ARC
  5
154
100
AcDbEntity
  8
0
 62
     7
100
AcDbCircle
 10
34.097435
 20
21.629642
 30
0.0
 40
8.470589
210
0.0
220
0.0
230
1.0
100
AcDbArc
 50
27.991949
 51
33.749191
  0
ARC
  5
155
100
AcDbEntity
  8
0
 62
     7
100
AcDbCircle
 10
34.168831
 20
21.677334
 30
0.0
 40
8.384731
210
0.0
220
0.0
230
1.0
100
AcDbArc
 50
33.749269
 51
43.647945
  0
ARC
  5
156
100
AcDbEntity
  8
0
 62
     7
100
AcDbCircle
 10
34.077324
 20
21.590044
 30
0.0
 40
8.511195
210
0.0
220
0.0
230
1.0
100
AcDbArc
 50
43.647945
 51
53.436132
  0
ARC
  5
157
100
AcDbEntity
  8
0
 62
     7
100
AcDbCircle
 10
34.077866
 20
21.590767
 30
0.0
 40
8.510294
210
0.0
220
0.0
230
1.0
100
AcDbArc
 50
53.436163
 51
63.224807
  0
ARC
  5
158
100
AcDbEntity
  8
0
 62
     7
100
AcDbCircle
 10
34.136566
 20
21.707075
 30
0.0
 40
8.380011
210
0.0
220
0.0
230
1.0
100
AcDbArc
 50
63.224896
 51
73.127461
  0
ARC
  5
159
100
AcDbEntity
  8
0
 62
     7
100
AcDbCircle
 10
34.135555
 20
21.70373
 30
0.0
 40
8.383505
210
0.0
220
0.0
230
1.0
100
AcDbArc
 50
73.127482
 51
79.173538
  0
ARC
  5
15A
100
AcDbEntity
  8
0
 62
     7
100
AcDbCircle
 10
34.109898
 20
21.56958
 30
0.0
 40
8.520086
210
0.0
220
0.0
230
1.0
100
AcDbArc
 50
79.173483
 51
85.146709
  0
ARC
  5
15B
100
AcDbEntity
  8
0
 62
     7
100
AcDbCircle
 10
34.106747
 20
21.532656
 30
0.0
 40
8.557144
210
0.0
220
0.0
230
1.0
100
AcDbArc
 50
85.146634
 51
91.106801
  0
ARC
  5
15C
100
AcDbEntity
  8
0
 62
     7
100
AcDbCircle
 10
34.106865
 20
21.526562
 30
0.0
 40
8.563237
210
0.0
220
0.0
230
1.0
100
AcDbArc
 50
91.106766
 51
97.06373
  0
ARC
  5
15D
100
AcDbEntity
  8
0
 62
     7
100
AcDbCircle
 10
34.040119
 20
22.065199
 30
0.0
 40
8.020482
210
0.0
220
0.0
230
1.0
100
AcDbArc
 50
97.06375
 51
99.881872
  0
ARC
  5
15E
100
AcDbEntity
  8
0
 62
     7
100
AcDbCircle
 10
34.11549
 20
21.632534
 30
0.0
 40
8.459663
210
0.0
220
0.0
230
1.0
100
AcDbArc
 50
99.881886
 51
102.589557
  0
ARC
  5
15F
100
AcDbEntity
  8
0
 62
     7
100
AcDbCircle
 10
34.11618
 20
21.629448
 30
0.0
 40
8.462826
210
0.0
220
0.0
230
1.0
100
AcDbArc
 50
102.58953
 51
105.296744
  0
ARC
  5
160
100
AcDbEntity
  8
0
 62
     7
100
AcDbCircle
 10
34.003895
 20
22.039974
 30
0.0
 40
8.037219
210
0.0
220
0.0
230
1.0
100
AcDbArc
 50
105.296751
 51
108.110748
  0
ARC
  5
161
100
AcDbEntity
  8
0
 62
     7
100
AcDbCircle
 10
29.49254
 20
35.833706
 30
0.0
 40
6.475509
210
0.0
220
0.0
230
1.0
100
AcDbArc
 50
287.562354
 51
288.11079
  0
ARC
  5
162
100
AcDbEntity
  8
0
 62
     7
100
AcDbCircle
 10
30.436474
 20
32.851257
 30
0.0
 40
3.347253
210
0.0
220
0.0
230
1.0
100
AcDbArc
 50
286.663747
 51
287.562354
  0
LINE
  5
163
100
AcDbEntity
  8
0
 62
     7
 48
0.001155
100
AcDbLine
 10
31.396313
 20
29.644579
 30
0.0
 11
31.352045
 21
29.631392
 31
0.0
210
0.0
220
0.0
230
1.0
  0
ARC
  5
164
100
AcDbEntity
  8
0
 62
     7
100
AcDbCircle
 10
31.351236
 20
29.634125
 30
0.0
 40
0.002849
210
0.0
220
0.0
230
1.0
100
AcDbArc
 50
222.26134
 51
286.508537
  0
ARC
  5
165
100
AcDbEntity
  8
0
 62
     7
100
AcDbCircle
 10
31.352501
 20
29.635273
 30
0.0
 40
0.004558
210
0.0
220
0.0
230
1.0
100
AcDbArc
 50
178.684825
 51
222.261039
  0
LINE
  5
166
100
AcDbEntity
  8
0
 62
     7
 48
0.002096
100
AcDbLine
 10
31.347942
 20
29.63538
 30
0.0
 11
31.349895
 21
29.719204
 31
0.0
210
0.0
220
0.0
230
1.0
  0
ARC
  5
167
100
AcDbEntity
  8
0
 62
     7
100
AcDbCircle
 10
45.311058
 20
29.389618
 30
0.0
 40
13.965055
210
0.0
220
0.0
230
1.0
100
AcDbArc
 50
178.262869
 51
178.647669
  0
ARC
  5
168
100
AcDbEntity
  8
0
 62
     7
100
AcDbCircle
 10
58.381664
 20
28.993261
 30
0.0
 40
27.041664
210
0.0
220
0.0
230
1.0
100
AcDbArc
 50
178.02828
 51
178.262965
  0
ARC
  5
169
100
AcDbEntity
  8
0
 62
     7
100
AcDbCircle
 10
12.505621
 20
30.572592
 30
0.0
 40
18.861551
210
0.0
220
0.0
230
1.0
100
AcDbArc
 50
358.028353
 51
358.365027
  0
ARC
  5
16A
100
AcDbEntity
  8
0
 62
     7
100
AcDbCircle
 10
21.558052
 20
30.314203
 30
0.0
 40
9.805435
210
0.0
220
0.0
230
1.0
100
AcDbArc
 50
358.365027
 51
358.914365
  0
LINE
  5
16B
100
AcDbEntity
  8
0
 62
     7
 48
0.002088
100
AcDbLine
 10
31.361727
 20
30.128422
 30
0.0
 11
31.363255
 21
30.211924
 31
0.0
210
0.0
220
0.0
230
1.0
  0
ARC
  5
16C
100
AcDbEntity
  8
0
 62
     7
100
AcDbCircle
 10
31.357428
 20
30.212027
 30
0.0
 40
0.005828
210
0.0
220
0.0
230
1.0
100
AcDbArc
 50
358.98682
 51
44.999964
  0
ARC
  5
16D
100
AcDbEntity
  8
0
 62
     7
100
AcDbCircle
 10
31.355398
 20
30.209995
 30
0.0
 40
0.008699
210
0.0
220
0.0
230
1.0
100
AcDbArc
 50
45.000111
 51
88.079756
  0
LINE
  5
16E
100
AcDbEntity
  8
0
 62
     7
 48
0.045355
100
AcDbLine
 10
31.355692
 20
30.218691
 30
0.0
 11
29.542528
 21
30.279476
 31
0.0
210
0.0
220
0.0
230
1.0
  0
LINE
  5
16F
100
AcDbEntity
  8
0
 62
     7
 48
0.043737
100
AcDbLine
 10
29.542528
 20
30.279476
 30
0.0
 11
27.794039
 21
30.337997
 31
0.0
210
0.0
220
0.0
230
1.0
  0
ARC
  5
170
100
AcDbEntity
  8
0
 62
     7
100
AcDbCircle
 10
27.642721
 20
25.809965
 30
0.0
 40
4.530563
210
0.0
220
0.0
230
1.0
100
AcDbArc
 50
88.085985
 51
89.88893
  0
ARC
  5
171
100
AcDbEntity
  8
0
 62
     7
100
AcDbCircle
 10
27.65147
 20
30.324247
 30
0.0
 40
0.016272
210
0.0
220
0.0
230
1.0
100
AcDbArc
 50
89.888916
 51
115.9338
  0
ARC
  5
172
100
AcDbEntity
  8
0
 62
     7
100
AcDbCircle
 10
27.654459
 20
30.318106
 30
0.0
 40
0.023102
210
0.0
220
0.0
230
1.0
100
AcDbArc
 50
115.933923
 51
135.963795
  0
ARC
  5
173
100
AcDbEntity
  8
0
 62
     7
100
AcDbCircle
 10
27.658262
 20
30.314423
 30
0.0
 40
0.028394
210
0.0
220
0.0
230
1.0
100
AcDbArc
 50
135.963754
 51
153.861308
  0
ARC
  5
174
100
AcDbEntity
  8
0
 62
     7
100
AcDbCircle
 10
27.664917
 20
30.311157
 30
0.0
 40
0.035808
210
0.0
220
0.0
230
1.0
100
AcDbArc
 50
153.861349
 51
168.901863
  0
ARC
  5
175
100
AcDbEntity
  8
0
 62
     7
100
AcDbCircle
 10
34.061047
 20
21.335117
 30
0.0
 40
8.147137
210
0.0
220
0.0
230
1.0
100
AcDbArc
 50
76.854224
 51
86.919888
  0
ARC
  5
176
100
AcDbEntity
  8
0
 62
     7
100
AcDbCircle
 10
34.150414
 20
21.71773
 30
0.0
 40
7.754224
210
0.0
220
0.0
230
1.0
100
AcDbArc
 50
66.408454
 51
76.854258
  0
ARC
  5
177
100
AcDbEntity
  8
0
 62
     7
100
AcDbCircle
 10
34.162449
 20
21.745283
 30
0.0
 40
7.724154
210
0.0
220
0.0
230
1.0
100
AcDbArc
 50
55.941425
 51
66.408495
  0
ARC
  5
178
100
AcDbEntity
  8
0
 62
     7
100
AcDbCircle
 10
34.004452
 20
21.511562
 30
0.0
 40
8.006271
210
0.0
220
0.0
230
1.0
100
AcDbArc
 50
45.752227
 51
55.941408
  0
ARC
  5
179
100
AcDbEntity
  8
0
 62
     7
100
AcDbCircle
 10
34.117451
 20
21.627586
 30
0.0
 40
7.844315
210
0.0
220
0.0
230
1.0
100
AcDbArc
 50
36.173266
 51
45.752121
  0
ARC
  5
17A
100
AcDbEntity
  8
0
 62
     7
100
AcDbCircle
 10
34.223133
 20
21.704868
 30
0.0
 40
7.713388
210
0.0
220
0.0
230
1.0
100
AcDbArc
 50
26.472633
 51
36.173198
  0
ARC
  5
17B
100
AcDbEntity
  8
0
 62
     7
100
AcDbCircle
 10
34.196091
 20
21.691416
 30
0.0
 40
7.743591
210
0.0
220
0.0
230
1.0
100
AcDbArc
 50
16.79168
 51
26.472572
  0
ARC
  5
17C
100
AcDbEntity
  8
0
 62
     7
100
AcDbCircle
 10
33.964226
 20
21.62145
 30
0.0
 40
7.985783
210
0.0
220
0.0
230
1.0
100
AcDbArc
 50
7.331759
 51
16.791646
  0
ARC
  5
17D
100
AcDbEntity
  8
0
 62
     7
100
AcDbCircle
 10
39.647957
 20
22.352753
 30
0.0
 40
2.255198
210
0.0
220
0.0
230
1.0
100
AcDbArc
 50
359.936325
 51
7.331794
  0
ARC
  5
17E
100
AcDbEntity
  8
0
 62
     7
100
AcDbCircle
 10
40.049881
 20
22.352304
 30
0.0
 40
1.853274
210
0.0
220
0.0
230
1.0
100
AcDbArc
 50
351.368236
 51
359.93638
  0
ARC
  5
17F
100
AcDbEntity
  8
0
 62
     7
100
AcDbCircle
 10
40.161976
 20
22.335287
 30
0.0
 40
1.739898
210
0.0
220
0.0
230
1.0
100
AcDbArc
 50
342.511528
 51
351.368263
  0
ARC
  5
180
100
AcDbEntity
  8
0
 62
     7
100
AcDbCircle
 10
40.204227
 20
22.321978
 30
0.0
 40
1.695598
210
0.0
220
0.0
230
1.0
100
AcDbArc
 50
333.481773
 51
342.511502
  0
ARC
  5
181
100
AcDbEntity
  8
0
 62
     7
100
AcDbCircle
 10
39.744946
 20
22.551147
 30
0.0
 40
2.208882
210
0.0
220
0.0
230
1.0
100
AcDbArc
 50
329.569113
 51
333.481826
  0
ARC
  5
182
100
AcDbEntity
  8
0
 62
     7
100
AcDbCircle
 10
40.291565
 20
22.230049
 30
0.0
 40
1.574924
210
0.0
220
0.0
230
1.0
100
AcDbArc
 50
324.527286
 51
329.569192
  0
ARC
  5
183
100
AcDbEntity
  8
0
 62
     7
100
AcDbCircle
 10
40.135239
 20
22.341444
 30
0.0
 40
1.76688
210
0.0
220
0.0
230
1.0
100
AcDbArc
 50
319.806341
 51
324.527314
  0
ARC
  5
184
100
AcDbEntity
  8
0
 62
     7
100
AcDbCircle
 10
38.826599
 20
23.447084
 30
0.0
 40
3.480056
210
0.0
220
0.0
230
1.0
100
AcDbArc
 50
316.963425
 51
319.806287
  0
ARC
  5
185
100
AcDbEntity
  8
0
 62
     7
100
AcDbCircle
 10
42.634476
 20
19.891636
 30
0.0
 40
1.729657
210
0.0
220
0.0
230
1.0
100
AcDbArc
 50
136.963434
 51
143.072464
  0
ARC
  5
186
100
AcDbEntity
  8
0
 62
     7
100
AcDbCircle
 10
42.166298
 20
20.243505
 30
0.0
 40
1.143992
210
0.0
220
0.0
230
1.0
100
AcDbArc
 50
143.072505
 51
151.399872
  0
ARC
  5
187
100
AcDbEntity
  8
0
 62
     7
100
AcDbCircle
 10
42.140614
 20
20.257509
 30
0.0
 40
1.114737
210
0.0
220
0.0
230
1.0
100
AcDbArc
 50
151.399845
 51
159.84898
  0
ARC
  5
188
100
AcDbEntity
  8
0
 62
     7
100
AcDbCircle
 10
42.556767
 20
20.104799
 30
0.0
 40
1.558027
210
0.0
220
0.0
230
1.0
100
AcDbArc
 50
159.848912
 51
166.422832
  0
ARC
  5
189
100
AcDbEntity
  8
0
 62
     7
100
AcDbCircle
 10
41.796844
 20
20.288321
 30
0.0
 40
0.77626
210
0.0
220
0.0
230
1.0
100
AcDbArc
 50
166.422832
 51
174.06371
  0
ARC
  5
18A
100
AcDbEntity
  8
0
 62
     7
100
AcDbCircle
 10
42.746426
 20
20.189585
 30
0.0
 40
1.730956
210
0.0
220
0.0
230
1.0
100
AcDbArc
 50
174.063792
 51
178.259208
  0
ARC
  5
18B
100
AcDbEntity
  8
0
 62
     7
100
AcDbCircle
 10
42.774334
 20
20.18874
 30
0.0
 40
1.758881
210
0.0
220
0.0
230
1.0
100
AcDbArc
 50
178.259277
 51
182.441173
  0
ARC
  5
18C
100
AcDbEntity
  8
0
 62
     7
100
AcDbCircle
 10
41.930931
 20
20.152782
 30
0.0
 40
0.914712
210
0.0
220
0.0
230
1.0
100
AcDbArc
 50
182.441187
 51
189.262647
  0
ARC
  5
18D
100
AcDbEntity
  8
0
 62
     7
100
AcDbCircle
 10
42.018112
 20
20.167002
 30
0.0
 40
1.003046
210
0.0
220
0.0
230
1.0
100
AcDbArc
 50
189.262674
 51
199.300662
  0
ARC
  5
18E
100
AcDbEntity
  8
0
 62
     7
100
AcDbCircle
 10
42.68602
 20
20.400913
 30
0.0
 40
1.710728
210
0.0
220
0.0
230
1.0
100
AcDbArc
 50
199.30073
 51
206.030584
  0
ARC
  5
18F
100
AcDbEntity
  8
0
 62
     7
100
AcDbCircle
 10
48.930927
 20
23.450897
 30
0.0
 40
8.660638
210
0.0
220
0.0
230
1.0
100
AcDbArc
 50
206.030666
 51
208.31464
  0
LINE
  5
190
100
AcDbEntity
  8
0
 62
     7
 48
0.024667
100
AcDbLine
 10
41.306477
 20
19.34304
 30
0.0
 11
41.775646
 21
18.475023
 31
0.0
210
0.0
220
0.0
230
1.0
  0
LINE
  5
191
100
AcDbEntity
  8
0
 62
     7
 48
0.015885
100
AcDbLine
 10
41.775646
 20
18.475023
 30
0.0
 11
42.077824
 21
17.916059
 31
0.0
210
0.0
220
0.0
230
1.0
  0
ARC
  5
192
100
AcDbEntity
  8
0
 62
     7
100
AcDbCircle
 10
-6.931906
 20
-8.498292
 30
0.0
 40
55.674694
210
0.0
220
0.0
230
1.0
100
AcDbArc
 50
27.879251
 51
28.322947
  0
ARC
  5
193
100
AcDbEntity
  8
0
 62
     7
100
AcDbCircle
 10
-17.249201
 20
-13.956289
 30
0.0
 40
67.346725
210
0.0
220
0.0
230
1.0
100
AcDbArc
 50
27.61023
 51
27.879292
  0
ARC
  5
194
100
AcDbEntity
  8
0
 62
     7
100
AcDbCircle
 10
42.072201
 20
17.069681
 30
0.0
 40
0.401674
210
0.0
220
0.0
230
1.0
100
AcDbArc
 50
17.434102
 51
27.610244
  0
ARC
  5
195
100
AcDbEntity
  8
0
 62
     7
100
AcDbCircle
 10
42.026203
 20
17.055239
 30
0.0
 40
0.449884
210
0.0
220
0.0
230
1.0
100
AcDbArc
 50
6.741751
 51
17.434087
  0
ARC
  5
196
100
AcDbEntity
  8
0
 62
     7
100
AcDbCircle
 10
41.502483
 20
16.99333
 30
0.0
 40
0.977253
210
0.0
220
0.0
230
1.0
100
AcDbArc
 50
0.755455
 51
6.741731
  0
ARC
  5
197
100
AcDbEntity
  8
0
 62
     7
100
AcDbCircle
 10
41.511784
 20
16.993452
 30
0.0
 40
0.967951
210
0.0
220
0.0
230
1.0
100
AcDbArc
 50
354.761419
 51
0.755469
  0
ARC
  5
198
100
AcDbEntity
  8
0
 62
     7
100
AcDbCircle
 10
42.074184
 20
16.941885
 30
0.0
 40
0.403194
210
0.0
220
0.0
230
1.0
100
AcDbArc
 50
343.229956
 51
354.761419
  0
ARC
  5
199
100
AcDbEntity
  8
0
 62
     7
100
AcDbCircle
 10
41.789753
 20
17.027597
 30
0.0
 40
0.700259
210
0.0
220
0.0
230
1.0
100
AcDbArc
 50
332.651031
 51
343.229929
  0
ARC
  5
19A
100
AcDbEntity
  8
0
 62
     7
100
AcDbCircle
 10
41.790951
 20
17.026978
 30
0.0
 40
0.69891
210
0.0
220
0.0
230
1.0
100
AcDbArc
 50
322.056779
 51
332.651004
  0
ARC
  5
19B
100
AcDbEntity
  8
0
 62
     7
100
AcDbCircle
 10
41.811558
 20
17.010912
 30
0.0
 40
0.672783
210
0.0
220
0.0
230
1.0
100
AcDbArc
 50
311.255791
 51
322.056725
  0
ARC
  5
19C
100
AcDbEntity
  8
0
 62
     7
100
AcDbCircle
 10
41.869602
 20
16.944736
 30
0.0
 40
0.584754
210
0.0
220
0.0
230
1.0
100
AcDbArc
 50
299.257038
 51
311.25571
  0
ARC
  5
19D
100
AcDbEntity
  8
0
 62
     7
100
AcDbCircle
 10
41.992226
 20
16.725847
 30
0.0
 40
0.333859
210
0.0
220
0.0
230
1.0
100
AcDbArc
 50
292.603204
 51
299.257038
  0
LINE
  5
19E
100
AcDbEntity
  8
0
 62
     7
 48
0.004439
100
AcDbLine
 10
42.120541
 20
16.417631
 30
0.0
 11
41.956528
 21
16.349623
 31
0.0
210
0.0
220
0.0
230
1.0
  0
ARC
  5
19F
100
AcDbEntity
  8
0
 62
     7
100
AcDbCircle
 10
29.120096
 20
47.433445
 30
0.0
 40
33.630016
210
0.0
220
0.0
230
1.0
100
AcDbArc
 50
292.083754
 51
292.43876
  0
ARC
  5
1A0
100
AcDbEntity
  8
0
 62
     7
100
AcDbCircle
 10
20.622192
 20
68.378395
 30
0.0
 40
56.233227
210
0.0
220
0.0
230
1.0
100
AcDbArc
 50
291.84215
 51
292.083727
  0
LINE
  5
1A1
100
AcDbEntity
  8
0
 62
     7
 48
0.015217
100
AcDbLine
 10
41.543812
 20
16.182018
 30
0.0
 11
40.978813
 21
15.955551
 31
0.0
210
0.0
220
0.0
230
1.0
  0
LINE
  5
1A2
100
AcDbEntity
  8
0
 62
     7
 48
0.045325
100
AcDbLine
 10
40.978813
 20
15.955551
 30
0.0
 11
40.976284
 21
14.142533
 31
0.0
210
0.0
220
0.0
230
1.0
  0
LINE
  5
1A3
100
AcDbEntity
  8
0
 62
     7
 48
0.045326
100
AcDbLine
 10
40.976284
 20
14.142533
 30
0.0
 11
40.973759
 21
12.329514
 31
0.0
210
0.0
220
0.0
230
1.0
  0
LINE
  5
1A4
100
AcDbEntity
  8
0
 62
     7
 48
0.027812
100
AcDbLine
 10
40.973759
 20
12.329514
 30
0.0
 11
39.861282
 21
12.333134
 31
0.0
210
0.0
220
0.0
230
1.0
  0
LINE
  5
1A5
100
AcDbEntity
  8
0
 62
     7
 48
0.020218
100
AcDbLine
 10
39.861282
 20
12.333134
 30
0.0
 11
39.05257
 21
12.336679
 31
0.0
210
0.0
220
0.0
230
1.0
  0
ARC
  5
1A6
100
AcDbEntity
  8
0
 62
     7
100
AcDbCircle
 10
39.089592
 20
19.043846
 30
0.0
 40
6.707268
210
0.0
220
0.0
230
1.0
100
AcDbArc
 50
267.431191
 51
269.68376
  0
ARC
  5
1A7
100
AcDbEntity
  8
0
 62
     7
100
AcDbCircle
 10
38.858994
 20
13.903812
 30
0.0
 40
1.562063
210
0.0
220
0.0
230
1.0
100
AcDbArc
 50
261.145784
 51
267.431163
  0
ARC
  5
1A8
100
AcDbEntity
  8
0
 62
     7
100
AcDbCircle
 10
39.007782
 20
14.858947
 30
0.0
 40
2.528717
210
0.0
220
0.0
230
1.0
100
AcDbArc
 50
256.764327
 51
261.14575
  0
ARC
  5
1A9
100
AcDbEntity
  8
0
 62
     7
100
AcDbCircle
 10
38.971508
 20
14.704741
 30
0.0
 40
2.370305
210
0.0
220
0.0
230
1.0
100
AcDbArc
 50
244.378981
 51
256.764327
  0
ARC
  5
1AA
100
AcDbEntity
  8
0
 62
     7
100
AcDbCircle
 10
38.997673
 20
14.759304
 30
0.0
 40
2.430815
210
0.0
220
0.0
230
1.0
100
AcDbArc
 50
232.225588
 51
244.379009
  0
ARC
  5
1AB
100
AcDbEntity
  8
0
 62
     7
100
AcDbCircle
 10
39.001457
 20
14.764189
 30
0.0
 40
2.436994
210
0.0
220
0.0
230
1.0
100
AcDbArc
 50
220.088233
 51
232.225643
  0
ARC
  5
1AC
100
AcDbEntity
  8
0
 62
     7
100
AcDbCircle
 10
38.971279
 20
14.738789
 30
0.0
 40
2.397548
210
0.0
220
0.0
230
1.0
100
AcDbArc
 50
207.801433
 51
220.088301
  0
ARC
  5
1AD
100
AcDbEntity
  8
0
 62
     7
100
AcDbCircle
 10
38.873554
 20
14.687265
 30
0.0
 40
2.287074
210
0.0
220
0.0
230
1.0
100
AcDbArc
 50
203.392765
 51
207.801474
  0
ARC
  5
1AE
100
AcDbEntity
  8
0
 62
     7
100
AcDbCircle
 10
39.110466
 20
14.78975
 30
0.0
 40
2.545203
210
0.0
220
0.0
230
1.0
100
AcDbArc
 50
199.32383
 51
203.392778
  0
ARC
  5
1AF
100
AcDbEntity
  8
0
 62
     7
100
AcDbCircle
 10
39.11187
 20
14.790241
 30
0.0
 40
2.546687
210
0.0
220
0.0
230
1.0
100
AcDbArc
 50
195.256028
 51
199.32383
  0
ARC
  5
1B0
100
AcDbEntity
  8
0
 62
     7
100
AcDbCircle
 10
38.868153
 20
14.723771
 30
0.0
 40
2.294072
210
0.0
220
0.0
230
1.0
100
AcDbArc
 50
190.856745
 51
195.256056
  0
ARC
  5
1B1
100
AcDbEntity
  8
0
 62
     7
100
AcDbCircle
 10
38.171917
 20
14.590243
 30
0.0
 40
1.585149
210
0.0
220
0.0
230
1.0
100
AcDbArc
 50
181.320694
 51
190.856758
  0
ARC
  5
1B2
100
AcDbEntity
  8
0
 62
     7
100
AcDbCircle
 10
52.499268
 20
14.920559
 30
0.0
 40
15.916303
210
0.0
220
0.0
230
1.0
100
AcDbArc
 50
179.567722
 51
181.320721
  0
ARC
  5
1B3
100
AcDbEntity
  8
0
 62
     7
100
AcDbCircle
 10
141.738098
 20
14.247246
 30
0.0
 40
105.157677
210
0.0
220
0.0
230
1.0
100
AcDbArc
 50
179.046319
 51
179.567709
  0
LINE
  5
1B4
100
AcDbEntity
  8
0
 62
     7
 48
0.089006
100
AcDbLine
 10
36.59499
 20
15.997499
 30
0.0
 11
36.654865
 21
19.557245
 31
0.0
210
0.0
220
0.0
230
1.0
  0
LINE
  5
1B5
100
AcDbEntity
  8
0
 62
     7
 48
0.047108
100
AcDbLine
 10
36.654865
 20
19.557245
 30
0.0
 11
36.686367
 21
21.441284
 31
0.0
210
0.0
220
0.0
230
1.0
  0
LINE
  5
1B6
100
AcDbEntity
  8
0
 62
     7
 48
0.039686
100
AcDbLine
 10
36.686367
 20
21.441284
 30
0.0
 11
36.711727
 21
23.028521
 31
0.0
210
0.0
220
0.0
230
1.0
  0
LINE
  5
1B7
100
AcDbEntity
  8
0
 62
     7
 48
0.036026
100
AcDbLine
 10
36.711727
 20
23.028521
 30
0.0
 11
36.734074
 21
24.469398
 31
0.0
210
0.0
220
0.0
230
1.0
  0
ARC
  5
1B8
100
AcDbEntity
  8
0
 62
     7
100
AcDbCircle
 10
36.724266
 20
24.469555
 30
0.0
 40
0.009814
210
0.0
220
0.0
230
1.0
100
AcDbArc
 50
359.111648
 51
45.000008
  0
ARC
  5
1B9
100
AcDbEntity
  8
0
 62
     7
100
AcDbCircle
 10
36.723789
 20
24.469076
 30
0.0
 40
0.010491
210
0.0
220
0.0
230
1.0
100
AcDbArc
 50
45.000011
 51
87.515166
  0
LINE
  5
1BA
100
AcDbEntity
  8
0
 62
     7
 48
0.00508
100
AcDbLine
 10
36.724243
 20
24.479555
 30
0.0
 11
36.521233
 21
24.48831
 31
0.0
210
0.0
220
0.0
230
1.0
  0
ARC
  5
1BB
100
AcDbEntity
  8
0
 62
     7
100
AcDbCircle
 10
34.923038
 20
-12.810396
 30
0.0
 40
37.332932
210
0.0
220
0.0
230
1.0
100
AcDbArc
 50
87.546469
 51
87.894822
  0
LINE
  5
1BC
100
AcDbEntity
  8
0
 62
     7
 48
0.006704
100
AcDbLine
 10
36.294426
 20
24.497337
 30
0.0
 11
36.02644
 21
24.506689
 31
0.0
210
0.0
220
0.0
230
1.0
  0
LINE
  5
1BD
100
AcDbEntity
  8
0
 62
     7
 48
0.015317
100
AcDbLine
 10
36.02644
 20
24.506689
 30
0.0
 11
35.414116
 21
24.527178
 31
0.0
210
0.0
220
0.0
230
1.0
  0
ARC
  5
1BE
100
AcDbEntity
  8
0
 62
     7
100
AcDbCircle
 10
35.496933
 20
26.97331
 30
0.0
 40
2.447537
210
0.0
220
0.0
230
1.0
100
AcDbArc
 50
265.413908
 51
268.060852
  0
ARC
  5
1BF
100
AcDbEntity
  8
0
 62
     7
100
AcDbCircle
 10
35.314201
 20
24.695297
 30
0.0
 40
0.162207
210
0.0
220
0.0
230
1.0
100
AcDbArc
 50
247.551925
 51
265.413935
  0
ARC
  5
1C0
100
AcDbEntity
  8
0
 62
     7
100
AcDbCircle
 10
35.26659
 20
24.580048
 30
0.0
 40
0.037507
210
0.0
220
0.0
230
1.0
100
AcDbArc
 50
194.664329
 51
247.551877
  0
ARC
  5
1C1
100
AcDbEntity
  8
0
 62
     7
100
AcDbCircle
 10
32.887295
 20
23.957436
 30
0.0
 40
2.421901
210
0.0
220
0.0
230
1.0
100
AcDbArc
 50
14.664237
 51
18.676594
  0
ARC
  5
1C2
100
AcDbEntity
  8
0
 62
     7
100
AcDbCircle
 10
27.183397
 20
22.029375
 30
0.0
 40
8.442854
210
0.0
220
0.0
230
1.0
100
AcDbArc
 50
18.676584
 51
20.260214
  0
ARC
  5
1C3
100
AcDbEntity
  8
0
 62
     7
100
AcDbCircle
 10
26.590237
 20
21.810425
 30
0.0
 40
9.075132
210
0.0
220
0.0
230
1.0
100
AcDbArc
 50
20.26023
 51
21.837214
  0
ARC
  5
1C4
100
AcDbEntity
  8
0
 62
     7
100
AcDbCircle
 10
29.301754
 20
22.896992
 30
0.0
 40
6.15401
210
0.0
220
0.0
230
1.0
100
AcDbArc
 50
21.837245
 51
23.947046
  0
LINE
  5
1C5
100
AcDbEntity
  8
0
 62
     7
 48
0.004084
100
AcDbLine
 10
34.926033
 20
25.394857
 30
0.0
 11
34.859726
 21
25.544159
 31
0.0
210
0.0
220
0.0
230
1.0
  0
LINE
  5
1C6
100
AcDbEntity
  8
0
 62
     7
 48
0.003499
100
AcDbLine
 10
34.859726
 20
25.544159
 30
0.0
 11
34.961864
 21
25.639858
 31
0.0
210
0.0
220
0.0
230
1.0
  0
LINE
  5
1C7
100
AcDbEntity
  8
0
 62
     7
 48
0.002153
100
AcDbLine
 10
34.961864
 20
25.639858
 30
0.0
 11
35.024738
 21
25.698706
 31
0.0
210
0.0
220
0.0
230
1.0
  0
LINE
  5
1C8
100
AcDbEntity
  8
0
 62
     7
 48
0.004782
100
AcDbLine
 10
35.024738
 20
25.698706
 30
0.0
 11
35.164452
 21
25.829346
 31
0.0
210
0.0
220
0.0
230
1.0
  0
LINE
  5
1C9
100
AcDbEntity
  8
0
 62
     7
 48
0.005685
100
AcDbLine
 10
35.164452
 20
25.829346
 30
0.0
 11
35.330566
 21
25.984638
 31
0.0
210
0.0
220
0.0
230
1.0
  0
LINE
  5
1CA
100
AcDbEntity
  8
0
 62
     7
 48
0.006074
100
AcDbLine
 10
35.330566
 20
25.984638
 30
0.0
 11
35.50808
 21
26.150551
 31
0.0
210
0.0
220
0.0
230
1.0
  0
LINE
  5
1CB
100
AcDbEntity
  8
0
 62
     7
 48
0.005833
100
AcDbLine
 10
35.50808
 20
26.150551
 30
0.0
 11
35.67823
 21
26.310181
 31
0.0
210
0.0
220
0.0
230
1.0
  0
ARC
  5
1CC
100
AcDbEntity
  8
0
 62
     7
100
AcDbCircle
 10
14.520643
 20
48.775345
 30
0.0
 40
30.8598
210
0.0
220
0.0
230
1.0
100
AcDbArc
 50
313.283101
 51
313.648871
  0
LINE
  5
1CD
100
AcDbEntity
  8
0
 62
     7
 48
0.004417
100
AcDbLine
 10
35.821213
 20
26.445707
 30
0.0
 11
35.949039
 21
26.567699
 31
0.0
210
0.0
220
0.0
230
1.0
  0
ARC
  5
1CE
100
AcDbEntity
  8
0
 62
     7
100
AcDbCircle
 10
35.945526
 20
26.571386
 30
0.0
 40
0.005094
210
0.0
220
0.0
230
1.0
100
AcDbArc
 50
313.675946
 51
13.387775
  0
ARC
  5
1CF
100
AcDbEntity
  8
0
 62
     7
100
AcDbCircle
 10
35.939602
 20
26.569975
 30
0.0
 40
0.01118
210
0.0
220
0.0
230
1.0
100
AcDbArc
 50
13.387797
 51
43.026715
  0
LINE
  5
1D0
100
AcDbEntity
  8
0
 62
     7
 48
0.013664
100
AcDbLine
 10
35.947777
 20
26.577606
 30
0.0
 11
35.574841
 21
26.977142
 31
0.0
210
0.0
220
0.0
230
1.0
  0
LINE
  5
1D1
100
AcDbEntity
  8
0
 62
     7
 48
0.01508
100
AcDbLine
 10
35.574841
 20
26.977142
 30
0.0
 11
35.162968
 21
27.417856
 31
0.0
210
0.0
220
0.0
230
1.0
  0
LINE
  5
1D2
100
AcDbEntity
  8
0
 62
     7
 48
0.017883
100
AcDbLine
 10
35.162968
 20
27.417856
 30
0.0
 11
34.674061
 21
27.939999
 31
0.0
210
0.0
220
0.0
230
1.0
  0
LINE
  5
1D3
100
AcDbEntity
  8
0
 62
     7
 48
0.046608
100
AcDbLine
 10
34.674061
 20
27.939999
 30
0.0
 11
33.399303
 21
29.300419
 31
0.0
210
0.0
220
0.0
230
1.0
  0
LINE
  5
1D4
100
AcDbEntity
  8
0
 62
     7
 48
0.001748
100
AcDbLine
 10
33.399303
 20
29.300419
 30
0.0
 11
33.34906
 21
29.251791
 31
0.0
210
0.0
220
0.0
230
1.0
  0
ARC
  5
1D5
100
AcDbEntity
  8
0
 62
     7
100
AcDbCircle
 10
31.021576
 20
31.656948
 30
0.0
 40
3.346929
210
0.0
220
0.0
230
1.0
100
AcDbArc
 50
313.207013
 51
314.059803
  0
LINE
  5
1D6
100
AcDbEntity
  8
0
 62
     7
 48
0.004998
100
AcDbLine
 10
33.313007
 20
29.217421
 30
0.0
 11
33.167255
 21
29.080585
 31
0.0
210
0.0
220
0.0
230
1.0
  0
LINE
  5
1D7
100
AcDbEntity
  8
0
 62
     7
 48
0.005896
100
AcDbLine
 10
33.167255
 20
29.080585
 30
0.0
 11
32.995197
 21
28.919281
 31
0.0
210
0.0
220
0.0
230
1.0
  0
LINE
  5
1D8
100
AcDbEntity
  8
0
 62
     7
 48
0.00666
100
AcDbLine
 10
32.995197
 20
28.919281
 30
0.0
 11
32.800705
 21
28.73723
 31
0.0
210
0.0
220
0.0
230
1.0
  0
LINE
  5
1D9
100
AcDbEntity
  8
0
 62
     7
 48
0.017051
100
AcDbLine
 10
32.800705
 20
28.73723
 30
0.0
 11
32.302605
 21
28.271297
 31
0.0
210
0.0
220
0.0
230
1.0
  0
LINE
  5
1DA
100
AcDbEntity
  8
0
 62
     7
 48
0.003457
100
AcDbLine
 10
32.302605
 20
28.271297
 30
0.0
 11
32.180706
 21
28.336548
 31
0.0
210
0.0
220
0.0
230
1.0
  0
ARC
  5
1DB
100
AcDbEntity
  8
0
 62
     7
100
AcDbCircle
 10
29.240124
 20
22.843403
 30
0.0
 40
6.230707
210
0.0
220
0.0
230
1.0
100
AcDbArc
 50
61.839023
 51
63.621805
  0
ARC
  5
1DC
100
AcDbEntity
  8
0
 62
     7
100
AcDbCircle
 10
29.353079
 20
23.07118
 30
0.0
 40
5.976458
210
0.0
220
0.0
230
1.0
100
AcDbArc
 50
63.621737
 51
65.46112
  0
ARC
  5
1DD
100
AcDbEntity
  8
0
 62
     7
100
AcDbCircle
 10
29.2798
 20
22.910698
 30
0.0
 40
6.152881
210
0.0
220
0.0
230
1.0
100
AcDbArc
 50
65.461038
 51
67.272924
  0
ARC
  5
1DE
100
AcDbEntity
  8
0
 62
     7
100
AcDbCircle
 10
28.895237
 20
21.992588
 30
0.0
 40
7.148276
210
0.0
220
0.0
230
1.0
100
AcDbArc
 50
67.272931
 51
68.892082
  0
ARC
  5
1DF
100
AcDbEntity
  8
0
 62
     7
100
AcDbCircle
 10
34.472771
 20
36.441181
 30
0.0
 40
8.339482
210
0.0
220
0.0
230
1.0
100
AcDbArc
 50
248.21306
 51
248.892124
  0
ARC
  5
1E0
100
AcDbEntity
  8
0
 62
     7
100
AcDbCircle
 10
31.492493
 20
28.98502
 30
0.0
 40
0.309765
210
0.0
220
0.0
230
1.0
100
AcDbArc
 50
240.839113
 51
248.21306
  0
ARC
  5
1E1
100
AcDbEntity
  8
0
 62
     7
100
AcDbCircle
 10
31.369127
 20
28.763929
 30
0.0
 40
0.056584
210
0.0
220
0.0
230
1.0
100
AcDbArc
 50
218.780033
 51
240.839058
  0
ARC
  5
1E2
100
AcDbEntity
  8
0
 62
     7
100
AcDbCircle
 10
31.344776
 20
28.744364
 30
0.0
 40
0.025348
210
0.0
220
0.0
230
1.0
100
AcDbArc
 50
178.599584
 51
218.780061
  0
LINE
  5
1E3
100
AcDbEntity
  8
0
 62
     7
 48
0.000384
100
AcDbLine
 10
31.319437
 20
28.744986
 30
0.0
 11
31.319784
 21
28.760323
 31
0.0
210
0.0
220
0.0
230
1.0
  0
LINE
  5
1E4
100
AcDbEntity
  8
0
 62
     7
 48
0.000795
100
AcDbLine
 10
31.319784
 20
28.760323
 30
0.0
 11
31.320429
 21
28.792118
 31
0.0
210
0.0
220
0.0
230
1.0
  0
LINE
  5
1E5
100
AcDbEntity
  8
0
 62
     7
 48
0.000941
100
AcDbLine
 10
31.320429
 20
28.792118
 30
0.0
 11
31.321173
 21
28.829769
 31
0.0
210
0.0
220
0.0
230
1.0
  0
LINE
  5
1E6
100
AcDbEntity
  8
0
 62
     7
 48
0.000995
100
AcDbLine
 10
31.321173
 20
28.829769
 30
0.0
 11
31.321938
 21
28.869545
 31
0.0
210
0.0
220
0.0
230
1.0
  0
LINE
  5
1E7
100
AcDbEntity
  8
0
 62
     7
 48
0.002475
100
AcDbLine
 10
31.321938
 20
28.869545
 30
0.0
 11
31.323812
 21
28.96854
 31
0.0
210
0.0
220
0.0
230
1.0
  0
LINE
  5
1E8
100
AcDbEntity
  8
0
 62
     7
 48
0.003261
100
AcDbLine
 10
31.323812
 20
28.96854
 30
0.0
 11
31.446312
 21
29.013412
 31
0.0
210
0.0
220
0.0
230
1.0
  0
ARC
  5
1E9
100
AcDbEntity
  8
0
 62
     7
100
AcDbCircle
 10
33.936081
 20
22.216318
 30
0.0
 40
7.238746
210
0.0
220
0.0
230
1.0
100
AcDbArc
 50
106.008709
 51
110.117751
  0
ARC
  5
1EA
100
AcDbEntity
  8
0
 62
     7
100
AcDbCircle
 10
34.087345
 20
21.689131
 30
0.0
 40
7.787203
210
0.0
220
0.0
230
1.0
100
AcDbArc
 50
102.118759
 51
106.008771
  0
ARC
  5
1EB
100
AcDbEntity
  8
0
 62
     7
100
AcDbCircle
 10
34.110928
 20
21.579306
 30
0.0
 40
7.899534
210
0.0
220
0.0
230
1.0
100
AcDbArc
 50
98.256219
 51
102.118732
  0
ARC
  5
1EC
100
AcDbEntity
  8
0
 62
     7
100
AcDbCircle
 10
34.094208
 20
21.69453
 30
0.0
 40
7.7831
210
0.0
220
0.0
230
1.0
100
AcDbArc
 50
94.350403
 51
98.256226
  0
ARC
  5
1ED
100
AcDbEntity
  8
0
 62
     7
100
AcDbCircle
 10
34.128464
 20
21.244228
 30
0.0
 40
8.234705
210
0.0
220
0.0
230
1.0
100
AcDbArc
 50
92.577053
 51
94.350437
  0
ARC
  5
1EE
100
AcDbEntity
  8
0
 62
     7
100
AcDbCircle
 10
34.150692
 20
20.75037
 30
0.0
 40
8.729065
210
0.0
220
0.0
230
1.0
100
AcDbArc
 50
90.879505
 51
92.577033
  0
ARC
  5
1EF
100
AcDbEntity
  8
0
 62
     7
100
AcDbCircle
 10
34.143349
 20
21.228638
 30
0.0
 40
8.250739
210
0.0
220
0.0
230
1.0
100
AcDbArc
 50
89.1375
 51
90.879492
  0
ARC
  5
1F0
100
AcDbEntity
  8
0
 62
     7
100
AcDbCircle
 10
34.177532
 20
23.499765
 30
0.0
 40
5.979356
210
0.0
220
0.0
230
1.0
100
AcDbArc
 50
86.919922
 51
89.137432
  0
ARC
  5
1F1
100
AcDbEntity
  8
0
 62
     7
100
AcDbCircle
 10
27.192736
 20
23.409853
 30
0.0
 40
1.270942
210
0.0
220
0.0
230
1.0
100
AcDbArc
 50
97.44217
 51
116.304325
  0
ARC
  5
1F2
100
AcDbEntity
  8
0
 62
     7
100
AcDbCircle
 10
27.15711
 20
23.481924
 30
0.0
 40
1.190547
210
0.0
220
0.0
230
1.0
100
AcDbArc
 50
116.304311
 51
136.113786
  0
ARC
  5
1F3
100
AcDbEntity
  8
0
 62
     7
100
AcDbCircle
 10
27.294298
 20
23.34996
 30
0.0
 40
1.380899
210
0.0
220
0.0
230
1.0
100
AcDbArc
 50
136.11369
 51
154.319423
  0
ARC
  5
1F4
100
AcDbEntity
  8
0
 62
     7
100
AcDbCircle
 10
27.992781
 20
23.014091
 30
0.0
 40
2.155938
210
0.0
220
0.0
230
1.0
100
AcDbArc
 50
154.319341
 51
167.358827
  0
ARC
  5
1F5
100
AcDbEntity
  8
0
 62
     7
100
AcDbCircle
 10
30.312201
 20
22.493891
 30
0.0
 40
4.532978
210
0.0
220
0.0
230
1.0
100
AcDbArc
 50
167.358841
 51
169.330444
  0
ARC
  5
1F6
100
AcDbEntity
  8
0
 62
     7
100
AcDbCircle
 10
27.310728
 20
23.059374
 30
0.0
 40
1.478702
210
0.0
220
0.0
230
1.0
100
AcDbArc
 50
169.330471
 51
173.875033
  0
ARC
  5
1F7
100
AcDbEntity
  8
0
 62
     7
100
AcDbCircle
 10
27.411011
 20
23.048613
 30
0.0
 40
1.579561
210
0.0
220
0.0
230
1.0
100
AcDbArc
 50
173.875047
 51
178.234046
  0
ARC
  5
1F8
100
AcDbEntity
  8
0
 62
     7
100
AcDbCircle
 10
31.515881
 20
22.92206
 30
0.0
 40
5.686378
210
0.0
220
0.0
230
1.0
100
AcDbArc
 50
178.234114
 51
179.914464
  0
ARC
  5
1F9
100
AcDbEntity
  8
0
 62
     7
100
AcDbCircle
 10
34.830276
 20
22.917124
 30
0.0
 40
9.000779
210
0.0
220
0.0
230
1.0
100
AcDbArc
 50
179.914518
 51
180.701537
  0
ARC
  5
1FA
100
AcDbEntity
  8
0
 62
     7
100
AcDbCircle
 10
27.849327
 20
22.831644
 30
0.0
 40
2.019307
210
0.0
220
0.0
230
1.0
100
AcDbArc
 50
180.701537
 51
183.088388
  0
ARC
  5
1FB
100
AcDbEntity
  8
0
 62
     7
100
AcDbCircle
 10
26.954689
 20
22.783373
 30
0.0
 40
1.123367
210
0.0
220
0.0
230
1.0
100
AcDbArc
 50
183.088333
 51
186.451355
  0
ARC
  5
1FC
100
AcDbEntity
  8
0
 62
     7
100
AcDbCircle
 10
26.727547
 20
22.75769
 30
0.0
 40
0.894778
210
0.0
220
0.0
230
1.0
100
AcDbArc
 50
186.451341
 51
190.439871
  0
ARC
  5
1FD
100
AcDbEntity
  8
0
 62
     7
100
AcDbCircle
 10
27.774654
 20
22.950619
 30
0.0
 40
1.95951
210
0.0
220
0.0
230
1.0
100
AcDbArc
 50
190.43983
 51
196.605442
  0
ARC
  5
1FE
100
AcDbEntity
  8
0
 62
     7
100
AcDbCircle
 10
27.552366
 20
22.884325
 30
0.0
 40
1.727549
210
0.0
220
0.0
230
1.0
100
AcDbArc
 50
196.605346
 51
203.381918
  0
ARC
  5
1FF
100
AcDbEntity
  8
0
 62
     7
100
AcDbCircle
 10
27.552546
 20
22.884403
 30
0.0
 40
1.727741
210
0.0
220
0.0
230
1.0
100
AcDbArc
 50
203.381877
 51
210.157985
  0
ARC
  5
200
100
AcDbEntity
  8
0
 62
     7
100
AcDbCircle
 10
27.753656
 20
23.001255
 30
0.0
 40
1.960337
210
0.0
220
0.0
230
1.0
100
AcDbArc
 50
210.157985
 51
216.321753
  0
ARC
  5
201
100
AcDbEntity
  8
0
 62
     7
100
AcDbCircle
 10
27.069735
 20
22.498466
 30
0.0
 40
1.111486
210
0.0
220
0.0
230
1.0
100
AcDbArc
 50
216.321725
 51
222.543208
  0
ARC
  5
202
100
AcDbEntity
  8
0
 62
     7
100
AcDbCircle
 10
28.629881
 20
23.930239
 30
0.0
 40
3.229039
210
0.0
220
0.0
230
1.0
100
AcDbArc
 50
222.543194
 51
225.351468
  0
ARC
  5
203
100
AcDbEntity
  8
0
 62
     7
100
AcDbCircle
 10
28.673944
 20
23.974848
 30
0.0
 40
3.291741
210
0.0
220
0.0
230
1.0
100
AcDbArc
 50
225.351481
 51
228.166844
  0
ARC
  5
204
100
AcDbEntity
  8
0
 62
     7
100
AcDbCircle
 10
27.494036
 20
22.656729
 30
0.0
 40
1.522668
210
0.0
220
0.0
230
1.0
100
AcDbArc
 50
228.166858
 51
233.177608
  0
ARC
  5
205
100
AcDbEntity
  8
0
 62
     7
100
AcDbCircle
 10
28.028786
 20
23.370962
 30
0.0
 40
2.414902
210
0.0
220
0.0
230
1.0
100
AcDbArc
 50
233.17758
 51
241.73955
  0
ARC
  5
206
100
AcDbEntity
  8
0
 62
     7
100
AcDbCircle
 10
28.552574
 20
24.34535
 30
0.0
 40
3.521155
210
0.0
220
0.0
230
1.0
100
AcDbArc
 50
241.73955
 51
248.193478
  0
ARC
  5
207
100
AcDbEntity
  8
0
 62
     7
100
AcDbCircle
 10
28.72958
 20
24.787758
 30
0.0
 40
3.99766
210
0.0
220
0.0
230
1.0
100
AcDbArc
 50
248.193505
 51
254.261555
  0
ARC
  5
208
100
AcDbEntity
  8
0
 62
     7
100
AcDbCircle
 10
28.911011
 20
25.431553
 30
0.0
 40
4.666527
210
0.0
220
0.0
230
1.0
100
AcDbArc
 50
254.26152
 51
259.664883
  0
LINE
  5
209
100
AcDbEntity
  8
0
 62
     7
 48
0.001161
100
AcDbLine
 10
28.073812
 20
20.840736
 30
0.0
 11
28.119495
 21
20.832354
 31
0.0
210
0.0
220
0.0
230
1.0
  0
LINE
  5
20A
100
AcDbEntity
  8
0
 62
     7
 48
0.001072
100
AcDbLine
 10
28.119495
 20
20.832354
 30
0.0
 11
28.161638
 21
20.824516
 31
0.0
210
0.0
220
0.0
230
1.0
  0
LINE
  5
20B
100
AcDbEntity
  8
0
 62
     7
 48
0.000899
100
AcDbLine
 10
28.161638
 20
20.824516
 30
0.0
 11
28.196968
 21
20.817856
 31
0.0
210
0.0
220
0.0
230
1.0
  0
ARC
  5
20C
100
AcDbEntity
  8
0
 62
     7
100
AcDbCircle
 10
28.076769
 20
20.183964
 30
0.0
 40
0.645189
210
0.0
220
0.0
230
1.0
100
AcDbArc
 50
77.963515
 51
79.262972
  0
LINE
  5
20D
100
AcDbEntity
  8
0
 62
     7
 48
0.000575
100
AcDbLine
 10
28.211311
 20
20.814964
 30
0.0
 11
28.233812
 21
20.810171
 31
0.0
210
0.0
220
0.0
230
1.0
  0
LINE
  5
20E
100
AcDbEntity
  8
0
 62
     7
 48
0.05837
100
AcDbLine
 10
28.233812
 20
20.810171
 30
0.0
 11
28.233812
 21
18.475361
 31
0.0
210
0.0
220
0.0
230
1.0
  0
LINE
  5
20F
100
AcDbEntity
  8
0
 62
     7
 48
0.05837
100
AcDbLine
 10
28.233812
 20
18.475361
 30
0.0
 11
28.233812
 21
16.140551
 31
0.0
210
0.0
220
0.0
230
1.0
  0
LINE
  5
210
100
AcDbEntity
  8
0
 62
     7
 48
0.014
100
AcDbLine
 10
28.233812
 20
16.140551
 30
0.0
 11
27.673811
 21
16.140551
 31
0.0
210
0.0
220
0.0
230
1.0
  0
LINE
  5
211
100
AcDbEntity
  8
0
 62
     7
 48
0.014
100
AcDbLine
 10
27.673811
 20
16.140551
 30
0.0
 11
27.113811
 21
16.140551
 31
0.0
210
0.0
220
0.0
230
1.0
  0
LINE
  5
212
100
AcDbEntity
  8
0
 62
     7
 48
0.0085
100
AcDbLine
 10
27.113811
 20
16.140551
 30
0.0
 11
27.113811
 21
15.800551
 31
0.0
210
0.0
220
0.0
230
1.0
  0
LINE
  5
213
100
AcDbEntity
  8
0
 62
     7
 48
0.0085
100
AcDbLine
 10
27.113811
 20
15.800551
 30
0.0
 11
27.113811
 21
15.460551
 31
0.0
210
0.0
220
0.0
230
1.0
  0
LINE
  5
214
100
AcDbEntity
  8
0
 62
     7
 48
0.050625
100
AcDbLine
 10
27.113811
 20
15.460551
 30
0.0
 11
29.138811
 21
15.460551
 31
0.0
210
0.0
220
0.0
230
1.0
  0
LINE
  5
215
100
AcDbEntity
  8
0
 62
     7
 48
0.050625
100
AcDbLine
 10
29.138811
 20
15.460551
 30
0.0
 11
31.163813
 21
15.460551
 31
0.0
210
0.0
220
0.0
230
1.0
  0
LINE
  5
216
100
AcDbEntity
  8
0
 62
     7
 48
0.0085
100
AcDbLine
 10
31.163813
 20
15.460551
 30
0.0
 11
31.163813
 21
15.800551
 31
0.0
210
0.0
220
0.0
230
1.0
  0
LINE
  5
217
100
AcDbEntity
  8
0
 62
     7
 48
0.0085
100
AcDbLine
 10
31.163813
 20
15.800551
 30
0.0
 11
31.163813
 21
16.140551
 31
0.0
210
0.0
220
0.0
230
1.0
  0
LINE
  5
218
100
AcDbEntity
  8
0
 62
     7
 48
0.014163
100
AcDbLine
 10
31.163813
 20
16.140551
 30
0.0
 11
30.597288
 21
16.140551
 31
0.0
210
0.0
220
0.0
230
1.0
  0
LINE
  5
219
100
AcDbEntity
  8
0
 62
     7
 48
0.014163
100
AcDbLine
 10
30.597288
 20
16.140551
 30
0.0
 11
30.030766
 21
16.140551
 31
0.0
210
0.0
220
0.0
230
1.0
  0
LINE
  5
21A
100
AcDbEntity
  8
0
 62
     7
 48
0.058437
100
AcDbLine
 10
30.030766
 20
16.140551
 30
0.0
 11
30.038103
 21
18.478031
 31
0.0
210
0.0
220
0.0
230
1.0
  0
LINE
  5
21B
100
AcDbEntity
  8
0
 62
     7
 48
0.022413
100
AcDbLine
 10
30.038103
 20
18.478031
 30
0.0
 11
30.041149
 21
19.374559
 31
0.0
210
0.0
220
0.0
230
1.0
  0
LINE
  5
21C
100
AcDbEntity
  8
0
 62
     7
 48
0.018882
100
AcDbLine
 10
30.041149
 20
19.374559
 30
0.0
 11
30.044237
 21
20.129829
 31
0.0
210
0.0
220
0.0
230
1.0
  0
LINE
  5
21D
100
AcDbEntity
  8
0
 62
     7
 48
0.017143
100
AcDbLine
 10
30.044237
 20
20.129829
 30
0.0
 11
30.047337
 21
20.815536
 31
0.0
210
0.0
220
0.0
230
1.0
  0
ARC
  5
21E
100
AcDbEntity
  8
0
 62
     7
100
AcDbCircle
 10
30.051907
 20
20.815517
 30
0.0
 40
0.004572
210
0.0
220
0.0
230
1.0
100
AcDbArc
 50
135.0
 51
179.740608
  0
ARC
  5
21F
100
AcDbEntity
  8
0
 62
     7
100
AcDbCircle
 10
30.053026
 20
20.8144
 30
0.0
 40
0.006151
210
0.0
220
0.0
230
1.0
100
AcDbArc
 50
102.321916
 51
134.999946
  0
LINE
  5
220
100
AcDbEntity
  8
0
 62
     7
 48
0.001059
100
AcDbLine
 10
30.051712
 20
20.82041
 30
0.0
 11
30.0931
 21
20.829403
 31
0.0
210
0.0
220
0.0
230
1.0
  0
ARC
  5
221
100
AcDbEntity
  8
0
 62
     7
100
AcDbCircle
 10
31.067621
 20
16.325558
 30
0.0
 40
4.608072
210
0.0
220
0.0
230
1.0
100
AcDbArc
 50
101.611488
 51
102.209198
  0
ARC
  5
222
100
AcDbEntity
  8
0
 62
     7
100
AcDbCircle
 10
31.883728
 20
12.353813
 30
0.0
 40
8.662797
210
0.0
220
0.0
230
1.0
100
AcDbArc
 50
101.238806
 51
101.611454
  0
ARC
  5
223
100
AcDbEntity
  8
0
 62
     7
100
AcDbCircle
 10
29.084854
 20
26.43911
 30
0.0
 40
5.697889
210
0.0
220
0.0
230
1.0
100
AcDbArc
 50
281.238746
 51
286.151701
  0
ARC
  5
224
100
AcDbEntity
  8
0
 62
     7
100
AcDbCircle
 10
29.60198
 20
24.653534
 30
0.0
 40
3.838936
210
0.0
220
0.0
230
1.0
100
AcDbArc
 50
286.151701
 51
292.756521
  0
ARC
  5
225
100
AcDbEntity
  8
0
 62
     7
100
AcDbCircle
 10
29.850445
 20
24.061186
 30
0.0
 40
3.196588
210
0.0
220
0.0
230
1.0
100
AcDbArc
 50
292.75661
 51
300.017702
  0
ARC
  5
226
100
AcDbEntity
  8
0
 62
     7
100
AcDbCircle
 10
30.240795
 20
23.385561
 30
0.0
 40
2.416303
210
0.0
220
0.0
230
1.0
100
AcDbArc
 50
300.01773
 51
308.973771
  0
ARC
  5
227
100
AcDbEntity
  8
0
 62
     7
100
AcDbCircle
 10
30.752689
 20
22.752831
 30
0.0
 40
1.602435
210
0.0
220
0.0
230
1.0
100
AcDbArc
 50
308.973795
 51
313.470245
  0
ARC
  5
228
100
AcDbEntity
  8
0
 62
     7
100
AcDbCircle
 10
29.936199
 20
23.614126
 30
0.0
 40
2.789232
210
0.0
220
0.0
230
1.0
100
AcDbArc
 50
313.470245
 51
316.439386
  0
ARC
  5
229
100
AcDbEntity
  8
0
 62
     7
100
AcDbCircle
 10
29.976963
 20
23.575365
 30
0.0
 40
2.732981
210
0.0
220
0.0
230
1.0
100
AcDbArc
 50
316.439331
 51
319.424725
  0
ARC
  5
22A
100
AcDbEntity
  8
0
 62
     7
100
AcDbCircle
 10
31.040798
 20
22.664345
 30
0.0
 40
1.332372
210
0.0
220
0.0
230
1.0
100
AcDbArc
 50
319.424698
 51
324.53439
  0
ARC
  5
22B
100
AcDbEntity
  8
0
 62
     7
100
AcDbCircle
 10
30.836447
 20
22.809921
 30
0.0
 40
1.583276
210
0.0
220
0.0
230
1.0
100
AcDbArc
 50
324.534417
 51
331.469436
  0
ARC
  5
22C
100
AcDbEntity
  8
0
 62
     7
100
AcDbCircle
 10
30.588844
 20
22.94453
 30
0.0
 40
1.865102
210
0.0
220
0.0
230
1.0
100
AcDbArc
 50
331.469436
 51
337.602754
  0
ARC
  5
22D
100
AcDbEntity
  8
0
 62
     7
100
AcDbCircle
 10
30.558958
 20
22.956844
 30
0.0
 40
1.897426
210
0.0
220
0.0
230
1.0
100
AcDbArc
 50
337.602809
 51
343.685502
  0
ARC
  5
22E
100
AcDbEntity
  8
0
 62
     7
100
AcDbCircle
 10
30.717272
 20
22.910501
 30
0.0
 40
1.732471
210
0.0
220
0.0
230
1.0
100
AcDbArc
 50
343.685557
 51
350.197651
  0
ARC
  5
22F
100
AcDbEntity
  8
0
 62
     7
100
AcDbCircle
 10
30.819441
 20
22.892851
 30
0.0
 40
1.628786
210
0.0
220
0.0
230
1.0
100
AcDbArc
 50
350.197651
 51
357.714929
  0
ARC
  5
230
100
AcDbEntity
  8
0
 62
     7
100
AcDbCircle
 10
30.091158
 20
22.921909
 30
0.0
 40
2.357648
210
0.0
220
0.0
230
1.0
100
AcDbArc
 50
357.714957
 51
3.412433
  0
ARC
  5
231
100
AcDbEntity
  8
0
 62
     7
100
AcDbCircle
 10
29.888985
 20
22.909847
 30
0.0
 40
2.560183
210
0.0
220
0.0
230
1.0
100
AcDbArc
 50
3.412538
 51
8.894471
  0
ARC
  5
232
100
AcDbEntity
  8
0
 62
     7
100
AcDbCircle
 10
29.888256
 20
22.909737
 30
0.0
 40
2.56092
210
0.0
220
0.0
230
1.0
100
AcDbArc
 50
8.894505
 51
14.375291
  0
ARC
  5
233
100
AcDbEntity
  8
0
 62
     7
100
AcDbCircle
 10
29.884861
 20
22.908867
 30
0.0
 40
2.564425
210
0.0
220
0.0
230
1.0
100
AcDbArc
 50
14.375298
 51
19.846462
  0
ARC
  5
234
100
AcDbEntity
  8
0
 62
     7
100
AcDbCircle
 10
30.763863
 20
23.226131
 30
0.0
 40
1.629918
210
0.0
220
0.0
230
1.0
100
AcDbArc
 50
19.846438
 51
27.529675
  0
ARC
  5
235
100
AcDbEntity
  8
0
 62
     7
100
AcDbCircle
 10
30.956049
 20
23.326303
 30
0.0
 40
1.413193
210
0.0
220
0.0
230
1.0
100
AcDbArc
 50
27.529588
 51
35.82995
  0
ARC
  5
236
100
AcDbEntity
  8
0
 62
     7
100
AcDbCircle
 10
30.976044
 20
23.340742
 30
0.0
 40
1.38853
210
0.0
220
0.0
230
1.0
100
AcDbArc
 50
35.829895
 51
44.240573
  0
ARC
  5
237
100
AcDbEntity
  8
0
 62
     7
100
AcDbCircle
 10
31.064234
 20
23.42663
 30
0.0
 40
1.265428
210
0.0
220
0.0
230
1.0
100
AcDbArc
 50
44.240542
 51
52.633598
  0
ARC
  5
238
100
AcDbEntity
  8
0
 62
     7
100
AcDbCircle
 10
31.14295
 20
23.529707
 30
0.0
 40
1.135731
210
0.0
220
0.0
230
1.0
100
AcDbArc
 50
52.633622
 51
61.735655
  0
ARC
  5
239
100
AcDbEntity
  8
0
 62
     7
100
AcDbCircle
 10
31.118912
 20
23.484999
 30
0.0
 40
1.186493
210
0.0
220
0.0
230
1.0
100
AcDbArc
 50
61.735642
 51
70.626
  0
ARC
  5
23A
100
AcDbEntity
  8
0
 62
     7
100
AcDbCircle
 10
31.005533
 20
23.162582
 30
0.0
 40
1.528261
210
0.0
220
0.0
230
1.0
100
AcDbArc
 50
70.625925
 51
77.979491
  0
ARC
  5
23B
100
AcDbEntity
  8
0
 62
     7
100
AcDbCircle
 10
31.165718
 20
23.914873
 30
0.0
 40
0.759108
210
0.0
220
0.0
230
1.0
100
AcDbArc
 50
77.979518
 51
86.954319
  0
ARC
  5
23C
100
AcDbEntity
  8
0
 62
     7
100
AcDbCircle
 10
31.066021
 20
22.041094
 30
0.0
 40
2.635537
210
0.0
220
0.0
230
1.0
100
AcDbArc
 50
86.954319
 51
90.507287
  0
ARC
  5
23D
100
AcDbEntity
  8
0
 62
     7
100
AcDbCircle
 10
31.066263
 20
22.013056
 30
0.0
 40
2.663575
210
0.0
220
0.0
230
1.0
100
AcDbArc
 50
90.507178
 51
94.094981
  0
ARC
  5
23E
100
AcDbEntity
  8
0
 62
     7
100
AcDbCircle
 10
30.951231
 20
23.619808
 30
0.0
 40
1.052707
210
0.0
220
0.0
230
1.0
100
AcDbArc
 50
94.094933
 51
101.27129
  0
ARC
  5
23F
100
AcDbEntity
  8
0
 62
     7
100
AcDbCircle
 10
31.109156
 20
22.827396
 30
0.0
 40
1.860705
210
0.0
220
0.0
230
1.0
100
AcDbArc
 50
101.271276
 51
109.342285
  0
ARC
  5
240
100
AcDbEntity
  8
0
 62
     7
100
AcDbCircle
 10
31.046797
 20
23.005043
 30
0.0
 40
1.67243
210
0.0
220
0.0
230
1.0
100
AcDbArc
 50
109.342279
 51
118.085501
  0
ARC
  5
241
100
AcDbEntity
  8
0
 62
     7
100
AcDbCircle
 10
31.044184
 20
23.009951
 30
0.0
 40
1.666872
210
0.0
220
0.0
230
1.0
100
AcDbArc
 50
118.085583
 51
126.84414
  0
ARC
  5
242
100
AcDbEntity
  8
0
 62
     7
100
AcDbCircle
 10
31.143894
 20
22.876884
 30
0.0
 40
1.833153
210
0.0
220
0.0
230
1.0
100
AcDbArc
 50
126.844249
 51
134.999946
  0
ARC
  5
243
100
AcDbEntity
  8
0
 62
     7
100
AcDbCircle
 10
31.206509
 20
22.814272
 30
0.0
 40
1.9217
210
0.0
220
0.0
230
1.0
100
AcDbArc
 50
135.000014
 51
143.469066
  0
ARC
  5
244
100
AcDbEntity
  8
0
 62
     7
100
AcDbCircle
 10
31.056824
 20
22.925156
 30
0.0
 40
1.735418
210
0.0
220
0.0
230
1.0
100
AcDbArc
 50
143.469039
 51
152.611124
  0
ARC
  5
245
100
AcDbEntity
  8
0
 62
     7
100
AcDbCircle
 10
31.108326
 20
22.898472
 30
0.0
 40
1.793422
210
0.0
220
0.0
230
1.0
100
AcDbArc
 50
152.611028
 51
161.593615
  0
ARC
  5
246
100
AcDbEntity
  8
0
 62
     7
100
AcDbCircle
 10
31.510675
 20
22.764574
 30
0.0
 40
2.217465
210
0.0
220
0.0
230
1.0
100
AcDbArc
 50
161.593519
 51
169.254547
  0
ARC
  5
247
100
AcDbEntity
  8
0
 62
     7
100
AcDbCircle
 10
30.197247
 20
23.013828
 30
0.0
 40
0.880596
210
0.0
220
0.0
230
1.0
100
AcDbArc
 50
169.254451
 51
175.302338
  0
ARC
  5
248
100
AcDbEntity
  8
0
 62
     7
100
AcDbCircle
 10
31.479591
 20
22.908451
 30
0.0
 40
2.167264
210
0.0
220
0.0
230
1.0
100
AcDbArc
 50
175.302338
 51
178.388558
  0
ARC
  5
249
100
AcDbEntity
  8
0
 62
     7
100
AcDbCircle
 10
38.748379
 20
22.703974
 30
0.0
 40
9.438927
210
0.0
220
0.0
230
1.0
100
AcDbArc
 50
178.388627
 51
179.594114
  0
LINE
  5
24A
100
AcDbEntity
  8
0
 62
     7
 48
0.012445
100
AcDbLine
 10
29.309689
 20
22.77084
 30
0.0
 11
29.306635
 21
22.27305
 31
0.0
210
0.0
220
0.0
230
1.0
  0
LINE
  5
24B
100
AcDbEntity
  8
0
 62
     7
 48
0.019813
100
AcDbLine
 10
29.306635
 20
22.27305
 30
0.0
 11
29.302517
 21
21.480551
 31
0.0
210
0.0
220
0.0
230
1.0
  0
LINE
  5
24C
100
AcDbEntity
  8
0
 62
     7
 48
0.004234
100
AcDbLine
 10
29.302517
 20
21.480551
 30
0.0
 11
29.133165
 21
21.480551
 31
0.0
210
0.0
220
0.0
230
1.0
  0
LINE
  5
24D
100
AcDbEntity
  8
0
 62
     7
 48
0.004234
100
AcDbLine
 10
29.133165
 20
21.480551
 30
0.0
 11
28.963812
 21
21.480551
 31
0.0
210
0.0
220
0.0
230
1.0
  0
LINE
  5
24E
100
AcDbEntity
  8
0
 62
     7
 48
0.019155
100
AcDbLine
 10
28.963812
 20
21.480551
 30
0.0
 11
28.963812
 21
22.246767
 31
0.0
210
0.0
220
0.0
230
1.0
  0
ARC
  5
24F
100
AcDbEntity
  8
0
 62
     7
100
AcDbCircle
 10
-87.582954
 20
22.246861
 30
0.0
 40
116.546768
210
0.0
220
0.0
230
1.0
100
AcDbArc
 50
359.999955
 51
0.267182
  0
ARC
  5
250
100
AcDbEntity
  8
0
 62
     7
100
AcDbCircle
 10
24.226786
 20
22.768261
 30
0.0
 40
4.73581
210
0.0
220
0.0
230
1.0
100
AcDbArc
 50
0.267108
 51
2.993571
  0
ARC
  5
251
100
AcDbEntity
  8
0
 62
     7
100
AcDbCircle
 10
27.538748
 20
22.941463
 30
0.0
 40
1.419321
210
0.0
220
0.0
230
1.0
100
AcDbArc
 50
2.99353
 51
9.122258
  0
ARC
  5
252
100
AcDbEntity
  8
0
 62
     7
100
AcDbCircle
 10
27.103638
 20
22.871595
 30
0.0
 40
1.860005
210
0.0
220
0.0
230
1.0
100
AcDbArc
 50
9.122286
 51
14.126392
  0
ARC
  5
253
100
AcDbEntity
  8
0
 62
     7
100
AcDbCircle
 10
27.132336
 20
22.878813
 30
0.0
 40
1.830415
210
0.0
220
0.0
230
1.0
100
AcDbArc
 50
14.12646
 51
32.714741
  0
ARC
  5
254
100
AcDbEntity
  8
0
 62
     7
100
AcDbCircle
 10
27.156378
 20
22.894257
 30
0.0
 40
1.801841
210
0.0
220
0.0
230
1.0
100
AcDbArc
 50
32.714813
 51
51.523699
  0
ARC
  5
255
100
AcDbEntity
  8
0
 62
     7
100
AcDbCircle
 10
27.187099
 20
22.932909
 30
0.0
 40
1.752466
210
0.0
220
0.0
230
1.0
100
AcDbArc
 50
51.523778
 51
70.62083
  0
ARC
  5
256
100
AcDbEntity
  8
0
 62
     7
100
AcDbCircle
 10
27.222189
 20
23.032661
 30
0.0
 40
1.646724
210
0.0
220
0.0
230
1.0
100
AcDbArc
 50
70.620884
 51
90.630286
  0
ARC
  5
257
100
AcDbEntity
  8
0
 62
     7
100
AcDbCircle
 10
27.228458
 20
22.462582
 30
0.0
 40
2.216836
210
0.0
220
0.0
230
1.0
100
AcDbArc
 50
90.630251
 51
91.886166
  0
ARC
  5
258
100
AcDbEntity
  8
0
 62
     7
100
AcDbCircle
 10
27.241955
 20
22.052675
 30
0.0
 40
2.626966
210
0.0
220
0.0
230
1.0
100
AcDbArc
 50
91.88607
 51
92.991871
  0
ARC
  5
259
100
AcDbEntity
  8
0
 62
     7
100
AcDbCircle
 10
27.227844
 20
22.322554
 30
0.0
 40
2.356717
210
0.0
220
0.0
230
1.0
100
AcDbArc
 50
92.991796
 51
94.103785
  0
ARC
  5
25A
100
AcDbEntity
  8
0
 62
     7
100
AcDbCircle
 10
27.097557
 20
24.138481
 30
0.0
 40
0.536123
210
0.0
220
0.0
230
1.0
100
AcDbArc
 50
94.103799
 51
97.442074
  0
ARC
  5
25B
100
AcDbEntity
  8
0
 62
     7
100
AcDbCircle
 10
27.190369
 20
22.857807
 30
0.0
 40
1.08837
210
0.0
220
0.0
230
1.0
100
AcDbArc
 50
74.580728
 51
84.01705
  0
ARC
  5
25C
100
AcDbEntity
  8
0
 62
     7
100
AcDbCircle
 10
27.236116
 20
23.023672
 30
0.0
 40
0.916312
210
0.0
220
0.0
230
1.0
100
AcDbArc
 50
63.84479
 51
74.580803
  0
ARC
  5
25D
100
AcDbEntity
  8
0
 62
     7
100
AcDbCircle
 10
27.23481
 20
23.021009
 30
0.0
 40
0.919278
210
0.0
220
0.0
230
1.0
100
AcDbArc
 50
53.127612
 51
63.844872
  0
ARC
  5
25E
100
AcDbEntity
  8
0
 62
     7
100
AcDbCircle
 10
27.124361
 20
22.873755
 30
0.0
 40
1.103353
210
0.0
220
0.0
230
1.0
100
AcDbArc
 50
43.781304
 51
53.127708
  0
ARC
  5
25F
100
AcDbEntity
  8
0
 62
     7
100
AcDbCircle
 10
27.068272
 20
22.82
 30
0.0
 40
1.181039
210
0.0
220
0.0
230
1.0
100
AcDbArc
 50
36.121742
 51
43.7814
  0
ARC
  5
260
100
AcDbEntity
  8
0
 62
     7
100
AcDbCircle
 10
27.172501
 20
22.896059
 30
0.0
 40
1.052009
210
0.0
220
0.0
230
1.0
100
AcDbArc
 50
27.767907
 51
36.121821
  0
ARC
  5
261
100
AcDbEntity
  8
0
 62
     7
100
AcDbCircle
 10
27.141964
 20
22.879984
 30
0.0
 40
1.086519
210
0.0
220
0.0
230
1.0
100
AcDbArc
 50
19.557272
 51
27.767905
  0
ARC
  5
262
100
AcDbEntity
  8
0
 62
     7
100
AcDbCircle
 10
26.884516
 20
22.78853
 30
0.0
 40
1.359731
210
0.0
220
0.0
230
1.0
100
AcDbArc
 50
12.617583
 51
19.557188
  0
ARC
  5
263
100
AcDbEntity
  8
0
 62
     7
100
AcDbCircle
 10
27.839432
 20
23.002285
 30
0.0
 40
0.381182
210
0.0
220
0.0
230
1.0
100
AcDbArc
 50
2.92707
 51
12.61757
  0
ARC
  5
264
100
AcDbEntity
  8
0
 62
     7
100
AcDbCircle
 10
23.44223
 20
22.777445
 30
0.0
 40
4.784129
210
0.0
220
0.0
230
1.0
100
AcDbArc
 50
1.406066
 51
2.927132
  0
ARC
  5
265
100
AcDbEntity
  8
0
 62
     7
100
AcDbCircle
 10
15.648753
 20
22.586142
 30
0.0
 40
12.579952
210
0.0
220
0.0
230
1.0
100
AcDbArc
 50
0.463027
 51
1.406111
  0
LINE
  5
266
100
AcDbEntity
  8
0
 62
     7
 48
0.009994
100
AcDbLine
 10
28.228294
 20
22.687801
 30
0.0
 11
28.230982
 21
22.288052
 31
0.0
210
0.0
220
0.0
230
1.0
  0
LINE
  5
267
100
AcDbEntity
  8
0
 62
     7
 48
0.008759
100
AcDbLine
 10
28.230982
 20
22.288052
 30
0.0
 11
28.232325
 21
21.937685
 31
0.0
210
0.0
220
0.0
230
1.0
  0
ARC
  5
268
100
AcDbEntity
  8
0
 62
     7
100
AcDbCircle
 10
10.974085
 20
21.898169
 30
0.0
 40
17.258284
210
0.0
220
0.0
230
1.0
100
AcDbArc
 50
359.420728
 51
0.131196
  0
LINE
  5
269
100
AcDbEntity
  8
0
 62
     7
 48
0.003929
100
AcDbLine
 10
28.231487
 20
21.723686
 30
0.0
 11
28.229671
 21
21.566519
 31
0.0
210
0.0
220
0.0
230
1.0
  0
ARC
  5
26A
100
AcDbEntity
  8
0
 62
     7
100
AcDbCircle
 10
28.223627
 20
21.566597
 30
0.0
 40
0.006045
210
0.0
220
0.0
230
1.0
100
AcDbArc
 50
269.999997
 51
359.255137
  0
ARC
  5
26B
100
AcDbEntity
  8
0
 62
     7
100
AcDbCircle
 10
28.223629
 20
21.602715
 30
0.0
 40
0.042161
210
0.0
220
0.0
230
1.0
100
AcDbArc
 50
258.765928
 51
269.99997
  0
LINE
  5
26C
100
AcDbEntity
  8
0
 62
     7
 48
0.001043
100
AcDbLine
 10
28.215414
 20
21.561357
 30
0.0
 11
28.1745
 21
21.569571
 31
0.0
210
0.0
220
0.0
230
1.0
  0
ARC
  5
26D
100
AcDbEntity
  8
0
 62
     7
100
AcDbCircle
 10
29.212948
 20
26.691504
 30
0.0
 40
5.226142
210
0.0
220
0.0
230
1.0
100
AcDbArc
 50
258.003972
 51
258.538885
  0
ARC
  5
26E
100
AcDbEntity
  8
0
 62
     7
100
AcDbCircle
 10
29.978838
 20
30.295967
 30
0.0
 40
8.911077
210
0.0
220
0.0
230
1.0
100
AcDbArc
 50
257.645305
 51
258.003972
  0
ARC
  5
26F
100
AcDbEntity
  8
0
 62
     7
100
AcDbCircle
 10
28.947371
 20
25.586811
 30
0.0
 40
4.090283
210
0.0
220
0.0
230
1.0
100
AcDbArc
 50
252.31519
 51
257.645278
  0
ARC
  5
270
100
AcDbEntity
  8
0
 62
     7
100
AcDbCircle
 10
28.542463
 20
24.316895
 30
0.0
 40
2.757375
210
0.0
220
0.0
230
1.0
100
AcDbArc
 50
245.152514
 51
252.315142
  0
ARC
  5
271
100
AcDbEntity
  8
0
 62
     7
100
AcDbCircle
 10
28.319408
 20
23.835196
 30
0.0
 40
2.226537
210
0.0
220
0.0
230
1.0
100
AcDbArc
 50
237.169744
 51
245.152405
  0
ARC
  5
272
100
AcDbEntity
  8
0
 62
     7
100
AcDbCircle
 10
27.899628
 20
23.184574
 30
0.0
 40
1.452251
210
0.0
220
0.0
230
1.0
100
AcDbArc
 50
226.174382
 51
237.169717
  0
ARC
  5
273
100
AcDbEntity
  8
0
 62
     7
100
AcDbCircle
 10
27.821346
 20
23.103018
 30
0.0
 40
1.339203
210
0.0
220
0.0
230
1.0
100
AcDbArc
 50
217.562265
 51
226.174355
  0
ARC
  5
274
100
AcDbEntity
  8
0
 62
     7
100
AcDbCircle
 10
27.491392
 20
22.849262
 30
0.0
 40
0.922959
210
0.0
220
0.0
230
1.0
100
AcDbArc
 50
206.178908
 51
217.562224
  0
ARC
  5
275
100
AcDbEntity
  8
0
 62
     7
100
AcDbCircle
 10
27.491573
 20
22.84935
 30
0.0
 40
0.923159
210
0.0
220
0.0
230
1.0
100
AcDbArc
 50
194.796971
 51
206.178922
  0
ARC
  5
276
100
AcDbEntity
  8
0
 62
     7
100
AcDbCircle
 10
27.894947
 20
22.955902
 30
0.0
 40
1.340369
210
0.0
220
0.0
230
1.0
100
AcDbArc
 50
186.190127
 51
194.796944
  0
ARC
  5
277
100
AcDbEntity
  8
0
 62
     7
100
AcDbCircle
 10
27.548365
 20
22.91831
 30
0.0
 40
0.991755
210
0.0
220
0.0
230
1.0
100
AcDbArc
 50
178.014619
 51
186.190018
  0
ARC
  5
278
100
AcDbEntity
  8
0
 62
     7
100
AcDbCircle
 10
28.520468
 20
22.884609
 30
0.0
 40
1.964441
210
0.0
220
0.0
230
1.0
100
AcDbArc
 50
173.112128
 51
178.014524
  0
ARC
  5
279
100
AcDbEntity
  8
0
 62
     7
100
AcDbCircle
 10
28.654989
 20
22.868359
 30
0.0
 40
2.09994
210
0.0
220
0.0
230
1.0
100
AcDbArc
 50
168.329657
 51
173.112019
  0
ARC
  5
27A
100
AcDbEntity
  8
0
 62
     7
100
AcDbCircle
 10
28.16637
 20
22.969282
 30
0.0
 40
1.60101
210
0.0
220
0.0
230
1.0
100
AcDbArc
 50
162.468644
 51
168.329643
  0
ARC
  5
27B
100
AcDbEntity
  8
0
 62
     7
100
AcDbCircle
 10
27.880558
 20
23.05957
 30
0.0
 40
1.301272
210
0.0
220
0.0
230
1.0
100
AcDbArc
 50
152.688783
 51
162.468726
  0
ARC
  5
27C
100
AcDbEntity
  8
0
 62
     7
100
AcDbCircle
 10
27.240177
 20
23.390253
 30
0.0
 40
0.580551
210
0.0
220
0.0
230
1.0
100
AcDbArc
 50
134.808987
 51
152.688797
  0
ARC
  5
27D
100
AcDbEntity
  8
0
 62
     7
100
AcDbCircle
 10
27.150934
 20
23.480097
 30
0.0
 40
0.453919
210
0.0
220
0.0
230
1.0
100
AcDbArc
 50
114.141299
 51
134.808974
  0
ARC
  5
27E
100
AcDbEntity
  8
0
 62
     7
100
AcDbCircle
 10
27.197124
 20
23.377031
 30
0.0
 40
0.566861
210
0.0
220
0.0
230
1.0
100
AcDbArc
 50
96.644957
 51
114.141333
  0
LINE
  5
27F
100
AcDbEntity
  8
0
 62
     7
 48
0.000658
100
AcDbLine
 10
27.131529
 20
23.940083
 30
0.0
 11
27.157675
 21
23.943169
 31
0.0
210
0.0
220
0.0
230
1.0
  0
ARC
  5
280
100
AcDbEntity
  8
0
 62
     7
100
AcDbCircle
 10
26.558971
 20
28.949263
 30
0.0
 40
5.041764
210
0.0
220
0.0
230
1.0
100
AcDbArc
 50
276.819887
 51
277.081401
  0
LINE
  5
281
100
AcDbEntity
  8
0
 62
     7
 48
0.000493
100
AcDbLine
 10
27.180515
 20
23.945957
 30
0.0
 11
27.200081
 21
23.948402
 31
0.0
210
0.0
220
0.0
230
1.0
  0
ARC
  5
282
100
AcDbEntity
  8
0
 62
     7
100
AcDbCircle
 10
27.195286
 20
23.986425
 30
0.0
 40
0.038321
210
0.0
220
0.0
230
1.0
100
AcDbArc
 50
277.189017
 51
282.854414
  0
ARC
  5
283
100
AcDbEntity
  8
0
 62
     7
100
AcDbCircle
 10
27.206604
 20
23.936821
 30
0.0
 40
0.012557
210
0.0
220
0.0
230
1.0
100
AcDbArc
 50
85.138977
 51
102.854296
  0
LINE
  5
284
100
AcDbEntity
  8
0
 62
     7
 48
0.000692
100
AcDbLine
 10
27.207668
 20
23.949335
 30
0.0
 11
27.23525
 21
23.946943
 31
0.0
210
0.0
220
0.0
230
1.0
  0
ARC
  5
285
100
AcDbEntity
  8
0
 62
     7
100
AcDbCircle
 10
26.955442
 20
20.772861
 30
0.0
 40
3.186393
210
0.0
220
0.0
230
1.0
100
AcDbArc
 50
84.388094
 51
84.962192
  0
ARC
  5
286
100
AcDbEntity
  8
0
 62
     7
100
AcDbCircle
 10
26.708902
 20
18.263803
 30
0.0
 40
5.707532
210
0.0
220
0.0
230
1.0
100
AcDbArc
 50
84.01705
 51
84.388094
  0
ARC
  5
287
100
AcDbEntity
  8
0
 62
     7
100
AcDbCircle
 10
31.123768
 20
23.498276
 30
0.0
 40
0.43819
210
0.0
220
0.0
230
1.0
100
AcDbArc
 50
55.835758
 51
76.129883
  0
ARC
  5
288
100
AcDbEntity
  8
0
 62
     7
100
AcDbCircle
 10
31.08308
 20
23.43833
 30
0.0
 40
0.510643
210
0.0
220
0.0
230
1.0
100
AcDbArc
 50
37.741385
 51
55.835745
  0
ARC
  5
289
100
AcDbEntity
  8
0
 62
     7
100
AcDbCircle
 10
30.91712
 20
23.309868
 30
0.0
 40
0.720512
210
0.0
220
0.0
230
1.0
100
AcDbArc
 50
22.865207
 51
37.741412
  0
ARC
  5
28A
100
AcDbEntity
  8
0
 62
     7
100
AcDbCircle
 10
30.138025
 20
22.981323
 30
0.0
 40
1.566047
210
0.0
220
0.0
230
1.0
100
AcDbArc
 50
14.540103
 51
22.865184
  0
ARC
  5
28B
100
AcDbEntity
  8
0
 62
     7
100
AcDbCircle
 10
29.7626
 20
22.883955
 30
0.0
 40
1.953894
210
0.0
220
0.0
230
1.0
100
AcDbArc
 50
7.067202
 51
14.540047
  0
ARC
  5
28C
100
AcDbEntity
  8
0
 62
     7
100
AcDbCircle
 10
30.232496
 20
22.942211
 30
0.0
 40
1.4804
210
0.0
220
0.0
230
1.0
100
AcDbArc
 50
357.86604
 51
7.067137
  0
ARC
  5
28D
100
AcDbEntity
  8
0
 62
     7
100
AcDbCircle
 10
30.452015
 20
22.934029
 30
0.0
 40
1.260728
210
0.0
220
0.0
230
1.0
100
AcDbArc
 50
347.876534
 51
357.86604
  0
ARC
  5
28E
100
AcDbEntity
  8
0
 62
     7
100
AcDbCircle
 10
30.787439
 20
22.861977
 30
0.0
 40
0.917653
210
0.0
220
0.0
230
1.0
100
AcDbArc
 50
335.201724
 51
347.876588
  0
ARC
  5
28F
100
AcDbEntity
  8
0
 62
     7
100
AcDbCircle
 10
30.747765
 20
22.880306
 30
0.0
 40
0.961358
210
0.0
220
0.0
230
1.0
100
AcDbArc
 50
318.255042
 51
335.201724
  0
ARC
  5
290
100
AcDbEntity
  8
0
 62
     7
100
AcDbCircle
 10
30.361141
 20
23.225321
 30
0.0
 40
1.479542
210
0.0
220
0.0
230
1.0
100
AcDbArc
 50
305.986406
 51
318.255014
  0
ARC
  5
291
100
AcDbEntity
  8
0
 62
     7
100
AcDbCircle
 10
30.098925
 20
23.586416
 30
0.0
 40
1.925798
210
0.0
220
0.0
230
1.0
100
AcDbArc
 50
295.303417
 51
305.986383
  0
ARC
  5
292
100
AcDbEntity
  8
0
 62
     7
100
AcDbCircle
 10
29.588028
 20
24.667055
 30
0.0
 40
3.121121
210
0.0
220
0.0
230
1.0
100
AcDbArc
 50
287.862882
 51
295.303451
  0
ARC
  5
293
100
AcDbEntity
  8
0
 62
     7
100
AcDbCircle
 10
29.828547
 20
23.920742
 30
0.0
 40
2.33701
210
0.0
220
0.0
230
1.0
100
AcDbArc
 50
285.363996
 51
287.862882
  0
ARC
  5
294
100
AcDbEntity
  8
0
 62
     7
100
AcDbCircle
 10
27.897617
 20
30.948143
 30
0.0
 40
9.624866
210
0.0
220
0.0
230
1.0
100
AcDbArc
 50
284.491091
 51
285.364044
  0
ARC
  5
295
100
AcDbEntity
  8
0
 62
     7
100
AcDbCircle
 10
27.795286
 20
31.344051
 30
0.0
 40
10.033784
210
0.0
220
0.0
230
1.0
100
AcDbArc
 50
283.666987
 51
284.491145
  0
ARC
  5
296
100
AcDbEntity
  8
0
 62
     7
100
AcDbCircle
 10
29.821972
 20
23.009403
 30
0.0
 40
1.456267
210
0.0
220
0.0
230
1.0
100
AcDbArc
 50
280.241374
 51
283.66696
  0
LINE
  5
297
100
AcDbEntity
  8
0
 62
     7
 48
0.000963
100
AcDbLine
 10
30.080887
 20
21.576338
 30
0.0
 11
30.042965
 21
21.569487
 31
0.0
210
0.0
220
0.0
230
1.0
  0
LINE
  5
298
100
AcDbEntity
  8
0
 62
     7
 48
0.018451
100
AcDbLine
 10
30.042965
 20
21.569487
 30
0.0
 11
30.046112
 21
22.307518
 31
0.0
210
0.0
220
0.0
230
1.0
  0
LINE
  5
299
100
AcDbEntity
  8
0
 62
     7
 48
0.018451
100
AcDbLine
 10
30.046112
 20
22.307518
 30
0.0
 11
30.049261
 21
23.045551
 31
0.0
210
0.0
220
0.0
230
1.0
  0
LINE
  5
29A
100
AcDbEntity
  8
0
 62
     7
 48
0.002506
100
AcDbLine
 10
30.049261
 20
23.045551
 30
0.0
 11
30.075756
 21
23.142246
 31
0.0
210
0.0
220
0.0
230
1.0
  0
ARC
  5
29B
100
AcDbEntity
  8
0
 62
     7
100
AcDbCircle
 10
31.306915
 20
22.804901
 30
0.0
 40
1.27654
210
0.0
220
0.0
230
1.0
100
AcDbArc
 50
153.905609
 51
164.676612
  0
ARC
  5
29C
100
AcDbEntity
  8
0
 62
     7
100
AcDbCircle
 10
31.132845
 20
22.890156
 30
0.0
 40
1.082713
210
0.0
220
0.0
230
1.0
100
AcDbArc
 50
141.718885
 51
153.90565
  0
ARC
  5
29D
100
AcDbEntity
  8
0
 62
     7
100
AcDbCircle
 10
31.091202
 20
22.923021
 30
0.0
 40
1.029664
210
0.0
220
0.0
230
1.0
100
AcDbArc
 50
129.201033
 51
141.718926
  0
ARC
  5
29E
100
AcDbEntity
  8
0
 62
     7
100
AcDbCircle
 10
31.090963
 20
22.923315
 30
0.0
 40
1.029285
210
0.0
220
0.0
230
1.0
100
AcDbArc
 50
116.679671
 51
129.200992
  0
ARC
  5
29F
100
AcDbEntity
  8
0
 62
     7
100
AcDbCircle
 10
31.058985
 20
22.986948
 30
0.0
 40
0.958071
210
0.0
220
0.0
230
1.0
100
AcDbArc
 50
107.168667
 51
116.679575
  0
ARC
  5
2A0
100
AcDbEntity
  8
0
 62
     7
100
AcDbCircle
 10
31.059011
 20
22.986855
 30
0.0
 40
0.958163
210
0.0
220
0.0
230
1.0
100
AcDbArc
 50
97.658332
 51
107.168557
  0
ARC
  5
2A1
100
AcDbEntity
  8
0
 62
     7
100
AcDbCircle
 10
31.051508
 20
23.042675
 30
0.0
 40
0.901843
210
0.0
220
0.0
230
1.0
100
AcDbArc
 50
87.858485
 51
97.658338
  0
ARC
  5
2A2
100
AcDbEntity
  8
0
 62
     7
100
AcDbCircle
 10
31.058687
 20
23.234716
 30
0.0
 40
0.709669
210
0.0
220
0.0
230
1.0
100
AcDbArc
 50
76.129855
 51
87.858588
  0
LINE
  5
2A3
100
AcDbEntity
  8
0
 62
     7
 48
0.015953
100
AcDbLine
 10
29.307156
 20
19.22389
 30
0.0
 11
29.309706
 21
18.585781
 31
0.0
210
0.0
220
0.0
230
1.0
  0
LINE
  5
2A4
100
AcDbEntity
  8
0
 62
     7
 48
0.016578
100
AcDbLine
 10
29.309706
 20
18.585781
 30
0.0
 11
29.311855
 21
17.922646
 31
0.0
210
0.0
220
0.0
230
1.0
  0
LINE
  5
2A5
100
AcDbEntity
  8
0
 62
     7
 48
0.014906
100
AcDbLine
 10
29.311855
 20
17.922646
 30
0.0
 11
29.313372
 21
17.326391
 31
0.0
210
0.0
220
0.0
230
1.0
  0
LINE
  5
2A6
100
AcDbEntity
  8
0
 62
     7
 48
0.010063
100
AcDbLine
 10
29.313372
 20
17.326391
 30
0.0
 11
29.313812
 21
16.923891
 31
0.0
210
0.0
220
0.0
230
1.0
  0
LINE
  5
2A7
100
AcDbEntity
  8
0
 62
     7
 48
0.019584
100
AcDbLine
 10
29.313812
 20
16.923891
 30
0.0
 11
29.313812
 21
16.140551
 31
0.0
210
0.0
220
0.0
230
1.0
  0
LINE
  5
2A8
100
AcDbEntity
  8
0
 62
     7
 48
0.004375
100
AcDbLine
 10
29.313812
 20
16.140551
 30
0.0
 11
29.138811
 21
16.140551
 31
0.0
210
0.0
220
0.0
230
1.0
  0
LINE
  5
2A9
100
AcDbEntity
  8
0
 62
     7
 48
0.004375
100
AcDbLine
 10
29.138811
 20
16.140551
 30
0.0
 11
28.963812
 21
16.140551
 31
0.0
210
0.0
220
0.0
230
1.0
  0
LINE
  5
2AA
100
AcDbEntity
  8
0
 62
     7
 48
0.0575
100
AcDbLine
 10
28.963812
 20
16.140551
 30
0.0
 11
28.963812
 21
18.440552
 31
0.0
210
0.0
220
0.0
230
1.0
  0
LINE
  5
2AB
100
AcDbEntity
  8
0
 62
     7
 48
0.0575
100
AcDbLine
 10
28.963812
 20
18.440552
 30
0.0
 11
28.963812
 21
20.740551
 31
0.0
210
0.0
220
0.0
230
1.0
  0
LINE
  5
2AC
100
AcDbEntity
  8
0
 62
     7
 48
0.004209
100
AcDbLine
 10
28.963812
 20
20.740551
 30
0.0
 11
29.132156
 21
20.740551
 31
0.0
210
0.0
220
0.0
230
1.0
  0
LINE
  5
2AD
100
AcDbEntity
  8
0
 62
     7
 48
0.004209
100
AcDbLine
 10
29.132156
 20
20.740551
 30
0.0
 11
29.300501
 21
20.740551
 31
0.0
210
0.0
220
0.0
230
1.0
  0
LINE
  5
2AE
100
AcDbEntity
  8
0
 62
     7
 48
0.037917
100
AcDbLine
 10
29.300501
 20
20.740551
 30
0.0
 11
29.307156
 21
19.22389
 31
0.0
210
0.0
220
0.0
230
1.0
  0
LINE
  5
2AF
100
AcDbEntity
  8
0
 62
     7
 48
0.013521
100
AcDbLine
 10
34.030544
 20
17.984322
 30
0.0
 11
33.636066
 21
17.614315
 31
0.0
210
0.0
220
0.0
230
1.0
  0
LINE
  5
2B0
100
AcDbEntity
  8
0
 62
     7
 48
0.011381
100
AcDbLine
 10
33.636066
 20
17.614315
 30
0.0
 11
33.303562
 21
17.303383
 31
0.0
210
0.0
220
0.0
230
1.0
  0
LINE
  5
2B1
100
AcDbEntity
  8
0
 62
     7
 48
0.010312
100
AcDbLine
 10
33.303562
 20
17.303383
 30
0.0
 11
33.002026
 21
17.021957
 31
0.0
210
0.0
220
0.0
230
1.0
  0
ARC
  5
2B2
100
AcDbEntity
  8
0
 62
     7
100
AcDbCircle
 10
33.000931
 20
17.023129
 30
0.0
 40
0.001607
210
0.0
220
0.0
230
1.0
100
AcDbArc
 50
217.663065
 51
313.023308
  0
ARC
  5
2B3
100
AcDbEntity
  8
0
 62
     7
100
AcDbCircle
 10
32.969734
 20
16.999052
 30
0.0
 40
0.037801
210
0.0
220
0.0
230
1.0
100
AcDbArc
 50
37.663026
 51
42.983473
  0
LINE
  5
2B4
100
AcDbEntity
  8
0
 62
     7
 48
0.004809
100
AcDbLine
 10
32.997387
 20
17.024824
 30
0.0
 11
32.86623
 21
17.16555
 31
0.0
210
0.0
220
0.0
230
1.0
  0
LINE
  5
2B5
100
AcDbEntity
  8
0
 62
     7
 48
0.005322
100
AcDbLine
 10
32.86623
 20
17.16555
 30
0.0
 11
32.721054
 21
17.321264
 31
0.0
210
0.0
220
0.0
230
1.0
  0
LINE
  5
2B6
100
AcDbEntity
  8
0
 62
     7
 48
0.006301
100
AcDbLine
 10
32.721054
 20
17.321264
 30
0.0
 11
32.549126
 21
17.50555
 31
0.0
210
0.0
220
0.0
230
1.0
  0
LINE
  5
2B7
100
AcDbEntity
  8
0
 62
     7
 48
0.006325
100
AcDbLine
 10
32.549126
 20
17.50555
 30
0.0
 11
32.376526
 21
17.690517
 31
0.0
210
0.0
220
0.0
230
1.0
  0
LINE
  5
2B8
100
AcDbEntity
  8
0
 62
     7
 48
0.0054
100
AcDbLine
 10
32.376526
 20
17.690517
 30
0.0
 11
32.229168
 21
17.848446
 31
0.0
210
0.0
220
0.0
230
1.0
  0
LINE
  5
2B9
100
AcDbEntity
  8
0
 62
     7
 48
0.004782
100
AcDbLine
 10
32.229168
 20
17.848446
 30
0.0
 11
32.098675
 21
17.988304
 31
0.0
210
0.0
220
0.0
230
1.0
  0
LINE
  5
2BA
100
AcDbEntity
  8
0
 62
     7
 48
0.000359
100
AcDbLine
 10
32.098675
 20
17.988304
 30
0.0
 11
32.088894
 21
17.998814
 31
0.0
210
0.0
220
0.0
230
1.0
  0
ARC
  5
2BB
100
AcDbEntity
  8
0
 62
     7
100
AcDbCircle
 10
32.079372
 20
17.989969
 30
0.0
 40
0.012994
210
0.0
220
0.0
230
1.0
100
AcDbArc
 50
42.894203
 51
106.570192
  0
ARC
  5
2BC
100
AcDbEntity
  8
0
 62
     7
100
AcDbCircle
 10
32.160652
 20
17.71681
 30
0.0
 40
0.29799
210
0.0
220
0.0
230
1.0
100
AcDbArc
 50
106.570233
 51
113.143463
  0
ARC
  5
2BD
100
AcDbEntity
  8
0
 62
     7
100
AcDbCircle
 10
32.367397
 20
17.23312
 30
0.0
 40
0.824012
210
0.0
220
0.0
230
1.0
100
AcDbArc
 50
113.143415
 51
117.168835
  0
ARC
  5
2BE
100
AcDbEntity
  8
0
 62
     7
100
AcDbCircle
 10
36.296535
 20
9.577587
 30
0.0
 40
9.428969
210
0.0
220
0.0
230
1.0
100
AcDbArc
 50
117.168794
 51
117.843275
  0
ARC
  5
2BF
100
AcDbEntity
  8
0
 62
     7
100
AcDbCircle
 10
28.934509
 20
23.51539
 30
0.0
 40
6.333701
210
0.0
220
0.0
230
1.0
100
AcDbArc
 50
294.782717
 51
297.843264
  0
ARC
  5
2C0
100
AcDbEntity
  8
0
 62
     7
100
AcDbCircle
 10
29.074034
 20
23.213182
 30
0.0
 40
6.000839
210
0.0
220
0.0
230
1.0
100
AcDbArc
 50
291.595696
 51
294.782738
  0
ARC
  5
2C1
100
AcDbEntity
  8
0
 62
     7
100
AcDbCircle
 10
29.197344
 20
22.901665
 30
0.0
 40
5.665804
210
0.0
220
0.0
230
1.0
100
AcDbArc
 50
288.317916
 51
291.595696
  0
ARC
  5
2C2
100
AcDbEntity
  8
0
 62
     7
100
AcDbCircle
 10
29.498959
 20
21.990639
 30
0.0
 40
4.706146
210
0.0
220
0.0
230
1.0
100
AcDbArc
 50
284.550677
 51
288.317882
  0
ARC
  5
2C3
100
AcDbEntity
  8
0
 62
     7
100
AcDbCircle
 10
31.261471
 20
15.200277
 30
0.0
 40
2.309224
210
0.0
220
0.0
230
1.0
100
AcDbArc
 50
104.550655
 51
105.965836
  0
ARC
  5
2C4
100
AcDbEntity
  8
0
 62
     7
100
AcDbCircle
 10
30.700445
 20
17.161221
 30
0.0
 40
0.269604
210
0.0
220
0.0
230
1.0
100
AcDbArc
 50
105.965816
 51
112.840387
  0
ARC
  5
2C5
100
AcDbEntity
  8
0
 62
     7
100
AcDbCircle
 10
30.628757
 20
17.331425
 30
0.0
 40
0.08492
210
0.0
220
0.0
230
1.0
100
AcDbArc
 50
112.840353
 51
125.924619
  0
ARC
  5
2C6
100
AcDbEntity
  8
0
 62
     7
100
AcDbCircle
 10
30.586203
 20
17.39016
 30
0.0
 40
0.012391
210
0.0
220
0.0
230
1.0
100
AcDbArc
 50
125.92455
 51
180.000009
  0
ARC
  5
2C7
100
AcDbEntity
  8
0
 62
     7
100
AcDbCircle
 10
30.668594
 20
17.39016
 30
0.0
 40
0.094782
210
0.0
220
0.0
230
1.0
100
AcDbArc
 50
179.999964
 51
193.321569
  0
LINE
  5
2C8
100
AcDbEntity
  8
0
 62
     7
 48
0.006578
100
AcDbLine
 10
30.576363
 20
17.36832
 30
0.0
 11
30.637091
 21
17.112318
 31
0.0
210
0.0
220
0.0
230
1.0
  0
LINE
  5
2C9
100
AcDbEntity
  8
0
 62
     7
 48
0.006354
100
AcDbLine
 10
30.637091
 20
17.112318
 30
0.0
 11
30.69606
 21
16.865088
 31
0.0
210
0.0
220
0.0
230
1.0
  0
ARC
  5
2CA
100
AcDbEntity
  8
0
 62
     7
100
AcDbCircle
 10
31.076317
 20
16.956118
 30
0.0
 40
0.391
210
0.0
220
0.0
230
1.0
100
AcDbArc
 50
193.462667
 51
199.809183
  0
ARC
  5
2CB
100
AcDbEntity
  8
0
 62
     7
100
AcDbCircle
 10
30.714945
 20
16.825951
 30
0.0
 40
0.0069
210
0.0
220
0.0
230
1.0
100
AcDbArc
 50
199.809224
 51
272.433102
  0
ARC
  5
2CC
100
AcDbEntity
  8
0
 62
     7
100
AcDbCircle
 10
30.706482
 20
17.025087
 30
0.0
 40
0.20622
210
0.0
220
0.0
230
1.0
100
AcDbArc
 50
272.433157
 51
278.686468
  0
ARC
  5
2CD
100
AcDbEntity
  8
0
 62
     7
100
AcDbCircle
 10
30.674713
 20
17.233042
 30
0.0
 40
0.416585
210
0.0
220
0.0
230
1.0
100
AcDbArc
 50
278.68655
 51
283.501451
  0
ARC
  5
2CE
100
AcDbEntity
  8
0
 62
     7
100
AcDbCircle
 10
30.200783
 20
19.206875
 30
0.0
 40
2.446518
210
0.0
220
0.0
230
1.0
100
AcDbArc
 50
283.501478
 51
284.801181
  0
ARC
  5
2CF
100
AcDbEntity
  8
0
 62
     7
100
AcDbCircle
 10
29.345108
 20
22.445169
 30
0.0
 40
5.795958
210
0.0
220
0.0
230
1.0
100
AcDbArc
 50
284.801263
 51
287.34486
  0
ARC
  5
2D0
100
AcDbEntity
  8
0
 62
     7
100
AcDbCircle
 10
29.051022
 20
23.386776
 30
0.0
 40
6.782419
210
0.0
220
0.0
230
1.0
100
AcDbArc
 50
287.34486
 51
289.605673
  0
ARC
  5
2D1
100
AcDbEntity
  8
0
 62
     7
100
AcDbCircle
 10
29.057398
 20
23.368906
 30
0.0
 40
6.763443
210
0.0
220
0.0
230
1.0
100
AcDbArc
 50
289.605591
 51
291.869389
  0
ARC
  5
2D2
100
AcDbEntity
  8
0
 62
     7
100
AcDbCircle
 10
29.450983
 20
22.38835
 30
0.0
 40
5.706844
210
0.0
220
0.0
230
1.0
100
AcDbArc
 50
291.869287
 51
294.440607
  0
LINE
  5
2D3
100
AcDbEntity
  8
0
 62
     7
 48
0.003663
100
AcDbLine
 10
31.812185
 20
17.19289
 30
0.0
 11
31.945564
 21
17.253506
 31
0.0
210
0.0
220
0.0
230
1.0
  0
LINE
  5
2D4
100
AcDbEntity
  8
0
 62
     7
 48
0.001364
100
AcDbLine
 10
31.945564
 20
17.253506
 30
0.0
 11
31.983719
 21
17.214525
 31
0.0
210
0.0
220
0.0
230
1.0
  0
ARC
  5
2D5
100
AcDbEntity
  8
0
 62
     7
100
AcDbCircle
 10
30.632669
 20
15.891916
 30
0.0
 40
1.890673
210
0.0
220
0.0
230
1.0
100
AcDbArc
 50
43.173885
 51
44.390608
  0
LINE
  5
2D6
100
AcDbEntity
  8
0
 62
     7
 48
0.005034
100
AcDbLine
 10
32.011501
 20
17.185541
 30
0.0
 11
32.149246
 21
17.038656
 31
0.0
210
0.0
220
0.0
230
1.0
  0
LINE
  5
2D7
100
AcDbEntity
  8
0
 62
     7
 48
0.005883
100
AcDbLine
 10
32.149246
 20
17.038656
 30
0.0
 11
32.310097
 21
16.86689
 31
0.0
210
0.0
220
0.0
230
1.0
  0
LINE
  5
2D8
100
AcDbEntity
  8
0
 62
     7
 48
0.006719
100
AcDbLine
 10
32.310097
 20
16.86689
 30
0.0
 11
32.493637
 21
16.670551
 31
0.0
210
0.0
220
0.0
230
1.0
  0
LINE
  5
2D9
100
AcDbEntity
  8
0
 62
     7
 48
0.006637
100
AcDbLine
 10
32.493637
 20
16.670551
 30
0.0
 11
32.675056
 21
16.476728
 31
0.0
210
0.0
220
0.0
230
1.0
  0
LINE
  5
2DA
100
AcDbEntity
  8
0
 62
     7
 48
0.005617
100
AcDbLine
 10
32.675056
 20
16.476728
 30
0.0
 11
32.829021
 21
16.313084
 31
0.0
210
0.0
220
0.0
230
1.0
  0
LINE
  5
2DB
100
AcDbEntity
  8
0
 62
     7
 48
0.005048
100
AcDbLine
 10
32.829021
 20
16.313084
 30
0.0
 11
32.967625
 21
16.166267
 31
0.0
210
0.0
220
0.0
230
1.0
  0
ARC
  5
2DC
100
AcDbEntity
  8
0
 62
     7
100
AcDbCircle
 10
32.977665
 20
16.175743
 30
0.0
 40
0.013806
210
0.0
220
0.0
230
1.0
100
AcDbArc
 50
223.358541
 51
249.7624
  0
ARC
  5
2DD
100
AcDbEntity
  8
0
 62
     7
100
AcDbCircle
 10
32.976147
 20
16.171631
 30
0.0
 40
0.009422
210
0.0
220
0.0
230
1.0
100
AcDbArc
 50
249.762529
 51
313.106254
  0
LINE
  5
2DE
100
AcDbEntity
  8
0
 62
     7
 48
0.042468
100
AcDbLine
 10
32.982586
 20
16.164753
 30
0.0
 11
34.222797
 21
17.3256
 31
0.0
210
0.0
220
0.0
230
1.0
  0
LINE
  5
2DF
100
AcDbEntity
  8
0
 62
     7
 48
0.042303
100
AcDbLine
 10
34.222797
 20
17.3256
 30
0.0
 11
35.458153
 21
18.481981
 31
0.0
210
0.0
220
0.0
230
1.0
  0
ARC
  5
2E0
100
AcDbEntity
  8
0
 62
     7
100
AcDbCircle
 10
35.4188
 20
18.524017
 30
0.0
 40
0.05758
210
0.0
220
0.0
230
1.0
100
AcDbArc
 50
313.110051
 51
337.58434
  0
ARC
  5
2E1
100
AcDbEntity
  8
0
 62
     7
100
AcDbCircle
 10
35.465511
 20
18.504751
 30
0.0
 40
0.007051
210
0.0
220
0.0
230
1.0
100
AcDbArc
 50
337.584202
 51
42.601229
  0
LINE
  5
2E2
100
AcDbEntity
  8
0
 62
     7
 48
0.00746
100
AcDbLine
 10
35.470703
 20
18.509521
 30
0.0
 11
35.268677
 21
18.729126
 31
0.0
210
0.0
220
0.0
230
1.0
  0
LINE
  5
2E3
100
AcDbEntity
  8
0
 62
     7
 48
0.007464
100
AcDbLine
 10
35.268677
 20
18.729126
 30
0.0
 11
35.066441
 21
18.948774
 31
0.0
210
0.0
220
0.0
230
1.0
  0
ARC
  5
2E4
100
AcDbEntity
  8
0
 62
     7
100
AcDbCircle
 10
35.061985
 20
18.944668
 30
0.0
 40
0.006059
210
0.0
220
0.0
230
1.0
100
AcDbArc
 50
42.647384
 51
113.54124
  0
LINE
  5
2E5
100
AcDbEntity
  8
0
 62
     7
 48
0.010356
100
AcDbLine
 10
35.059006
 20
18.949858
 30
0.0
 11
34.756981
 21
18.666357
 31
0.0
210
0.0
220
0.0
230
1.0
  0
LINE
  5
2E6
100
AcDbEntity
  8
0
 62
     7
 48
0.011388
100
AcDbLine
 10
34.756981
 20
18.666357
 30
0.0
 11
34.424885
 21
18.354593
 31
0.0
210
0.0
220
0.0
230
1.0
  0
LINE
  5
2E7
100
AcDbEntity
  8
0
 62
     7
 48
0.013523
100
AcDbLine
 10
34.424885
 20
18.354593
 30
0.0
 11
34.030544
 21
17.984322
 31
0.0
210
0.0
220
0.0
230
1.0
  0
POLYLINE
  5
2E8
100
AcDbEntity
  8
0
 62
     7
100
AcDb2dPolyline
 66
     1
 10
0.0
 20
0.0
 30
0.0
 70
     1
 71
     8
  0
VERTEX
  5
2E9
100
AcDbEntity
  8
0
100
AcDbVertex
100
AcDb2dVertex
 10
27.893812
 20
14.81059
 30
0.0
  0
VERTEX
  5
2EA
100
AcDbEntity
  8
0
100
AcDbVertex
100
AcDb2dVertex
 10
27.893812
 20
14.470551
 30
0.0
  0
VERTEX
  5
2EB
100
AcDbEntity
  8
0
100
AcDbVertex
100
AcDb2dVertex
 10
29.138943
 20
14.470551
 30
0.0
  0
VERTEX
  5
2EC
100
AcDbEntity
  8
0
100
AcDbVertex
100
AcDb2dVertex
 10
30.384077
 20
14.470551
 30
0.0
  0
VERTEX
  5
2ED
100
AcDbEntity
  8
0
100
AcDbVertex
100
AcDb2dVertex
 10
30.381443
 20
14.808051
 30
0.0
  0
VERTEX
  5
2EE
100
AcDbEntity
  8
0
100
AcDbVertex
100
AcDb2dVertex
 10
30.378811
 20
15.145551
 30
0.0
  0
VERTEX
  5
2EF
100
AcDbEntity
  8
0
100
AcDbVertex
100
AcDb2dVertex
 10
29.136312
 20
15.14809
 30
0.0
  0
VERTEX
  5
2F0
100
AcDbEntity
  8
0
100
AcDbVertex
100
AcDb2dVertex
 10
27.893812
 20
15.150629
 30
0.0
  0
SEQEND
  5
2F1
100
AcDbEntity
  8
0
  0
ARC
  5
2F2
100
AcDbEntity
  8
0
 62
     7
100
AcDbCircle
 10
11.788197
 20
8.739179
 30
0.0
 40
0.184132
210
0.0
220
0.0
230
1.0
100
AcDbArc
 50
108.815261
 51
117.496684
  0
ARC
  5
2F3
100
AcDbEntity
  8
0
 62
     7
100
AcDbCircle
 10
11.817974
 20
8.68197
 30
0.0
 40
0.248628
210
0.0
220
0.0
230
1.0
100
AcDbArc
 50
117.496712
 51
124.42807
  0
ARC
  5
2F4
100
AcDbEntity
  8
0
 62
     7
100
AcDbCircle
 10
11.852842
 20
8.631103
 30
0.0
 40
0.310297
210
0.0
220
0.0
230
1.0
100
AcDbArc
 50
124.428165
 51
130.600867
  0
ARC
  5
2F5
100
AcDbEntity
  8
0
 62
     7
100
AcDbCircle
 10
11.983775
 20
8.478347
 30
0.0
 40
0.511488
210
0.0
220
0.0
230
1.0
100
AcDbArc
 50
130.600935
 51
134.846062
  0
ARC
  5
2F6
100
AcDbEntity
  8
0
 62
     7
100
AcDbCircle
 10
11.871634
 20
8.591091
 30
0.0
 40
0.35247
210
0.0
220
0.0
230
1.0
100
AcDbArc
 50
134.846075
 51
148.972655
  0
ARC
  5
2F7
100
AcDbEntity
  8
0
 62
     7
100
AcDbCircle
 10
11.732889
 20
8.674548
 30
0.0
 40
0.190559
210
0.0
220
0.0
230
1.0
100
AcDbArc
 50
148.972682
 51
171.357056
  0
ARC
  5
2F8
100
AcDbEntity
  8
0
 62
     7
100
AcDbCircle
 10
12.344867
 20
8.581525
 30
0.0
 40
0.809564
210
0.0
220
0.0
230
1.0
100
AcDbArc
 50
171.357084
 51
179.479367
  0
ARC
  5
2F9
100
AcDbEntity
  8
0
 62
     7
100
AcDbCircle
 10
48.408577
 20
8.253783
 30
0.0
 40
36.874767
210
0.0
220
0.0
230
1.0
100
AcDbArc
 50
179.479312
 51
180.000022
  0
ARC
  5
2FA
100
AcDbEntity
  8
0
 62
     7
100
AcDbCircle
 10
-23.840656
 20
8.253788
 30
0.0
 40
35.37447
210
0.0
220
0.0
230
1.0
100
AcDbArc
 50
359.730901
 51
359.999983
  0
ARC
  5
2FB
100
AcDbEntity
  8
0
 62
     7
100
AcDbCircle
 10
-6.313312
 20
8.171464
 30
0.0
 40
17.84693
210
0.0
220
0.0
230
1.0
100
AcDbArc
 50
359.281966
 51
359.730928
  0
LINE
  5
2FC
100
AcDbEntity
  8
0
 62
     7
 48
0.003127
100
AcDbLine
 10
11.532218
 20
7.947809
 30
0.0
 11
11.530611
 21
7.822751
 31
0.0
210
0.0
220
0.0
230
1.0
  0
ARC
  5
2FD
100
AcDbEntity
  8
0
 62
     7
100
AcDbCircle
 10
11.528382
 20
7.82278
 30
0.0
 40
0.002229
210
0.0
220
0.0
230
1.0
100
AcDbArc
 50
270.000052
 51
359.246558
  0
ARC
  5
2FE
100
AcDbEntity
  8
0
 62
     7
100
AcDbCircle
 10
11.528382
 20
7.827157
 30
0.0
 40
0.006608
210
0.0
220
0.0
230
1.0
100
AcDbArc
 50
236.624585
 51
269.999997
  0
ARC
  5
2FF
100
AcDbEntity
  8
0
 62
     7
100
AcDbCircle
 10
12.323131
 20
9.033588
 30
0.0
 40
1.451287
210
0.0
220
0.0
230
1.0
100
AcDbArc
 50
235.889001
 51
236.624695
  0
ARC
  5
300
100
AcDbEntity
  8
0
 62
     7
100
AcDbCircle
 10
11.946724
 20
8.477868
 30
0.0
 40
0.780089
210
0.0
220
0.0
230
1.0
100
AcDbArc
 50
234.274673
 51
235.889029
  0
ARC
  5
301
100
AcDbEntity
  8
0
 62
     7
100
AcDbCircle
 10
12.280721
 20
8.942238
 30
0.0
 40
1.352097
210
0.0
220
0.0
230
1.0
100
AcDbArc
 50
233.205311
 51
234.274673
  0
ARC
  5
302
100
AcDbEntity
  8
0
 62
     7
100
AcDbCircle
 10
10.709584
 20
6.841655
 30
0.0
 40
1.271056
210
0.0
220
0.0
230
1.0
100
AcDbArc
 50
53.205268
 51
64.392196
  0
ARC
  5
303
100
AcDbEntity
  8
0
 62
     7
100
AcDbCircle
 10
10.554355
 20
6.517783
 30
0.0
 40
1.630206
210
0.0
220
0.0
230
1.0
100
AcDbArc
 50
64.392148
 51
73.674942
  0
ARC
  5
304
100
AcDbEntity
  8
0
 62
     7
100
AcDbCircle
 10
10.538776
 20
6.464592
 30
0.0
 40
1.685631
210
0.0
220
0.0
230
1.0
100
AcDbArc
 50
73.674983
 51
82.809275
  0
ARC
  5
305
100
AcDbEntity
  8
0
 62
     7
100
AcDbCircle
 10
10.560626
 20
6.637763
 30
0.0
 40
1.511085
210
0.0
220
0.0
230
1.0
100
AcDbArc
 50
82.809316
 51
92.724005
  0
ARC
  5
306
100
AcDbEntity
  8
0
 62
     7
100
AcDbCircle
 10
10.564465
 20
6.557075
 30
0.0
 40
1.591866
210
0.0
220
0.0
230
1.0
100
AcDbArc
 50
92.723998
 51
109.486525
  0
ARC
  5
307
100
AcDbEntity
  8
0
 62
     7
100
AcDbCircle
 10
10.551804
 20
6.592851
 30
0.0
 40
1.553915
210
0.0
220
0.0
230
1.0
100
AcDbArc
 50
109.486484
 51
126.555127
  0
ARC
  5
308
100
AcDbEntity
  8
0
 62
     7
100
AcDbCircle
 10
10.550229
 20
6.594975
 30
0.0
 40
1.551271
210
0.0
220
0.0
230
1.0
100
AcDbArc
 50
126.5551
 51
143.639466
  0
ARC
  5
309
100
AcDbEntity
  8
0
 62
     7
100
AcDbCircle
 10
10.574254
 20
6.577287
 30
0.0
 40
1.581105
210
0.0
220
0.0
230
1.0
100
AcDbArc
 50
143.639438
 51
160.481524
  0
ARC
  5
30A
100
AcDbEntity
  8
0
 62
     7
100
AcDbCircle
 10
10.9974
 20
6.427287
 30
0.0
 40
2.030052
210
0.0
220
0.0
230
1.0
100
AcDbArc
 50
160.481496
 51
164.093806
  0
ARC
  5
30B
100
AcDbEntity
  8
0
 62
     7
100
AcDbCircle
 10
10.152604
 20
6.668034
 30
0.0
 40
1.151621
210
0.0
220
0.0
230
1.0
100
AcDbArc
 50
164.093792
 51
169.61626
  0
ARC
  5
30C
100
AcDbEntity
  8
0
 62
     7
100
AcDbCircle
 10
10.204531
 20
6.658515
 30
0.0
 40
1.204413
210
0.0
220
0.0
230
1.0
100
AcDbArc
 50
169.616178
 51
174.995949
  0
ARC
  5
30D
100
AcDbEntity
  8
0
 62
     7
100
AcDbCircle
 10
11.403004
 20
6.553574
 30
0.0
 40
2.407472
210
0.0
220
0.0
230
1.0
100
AcDbArc
 50
174.995853
 51
178.200086
  0
ARC
  5
30E
100
AcDbEntity
  8
0
 62
     7
100
AcDbCircle
 10
12.15714
 20
6.529872
 30
0.0
 40
3.161979
210
0.0
220
0.0
230
1.0
100
AcDbArc
 50
178.200045
 51
180.588511
  0
ARC
  5
30F
100
AcDbEntity
  8
0
 62
     7
100
AcDbCircle
 10
10.171662
 20
6.50948
 30
0.0
 40
1.176398
210
0.0
220
0.0
230
1.0
100
AcDbArc
 50
180.588484
 51
185.584563
  0
ARC
  5
310
100
AcDbEntity
  8
0
 62
     7
100
AcDbCircle
 10
10.007148
 20
6.493393
 30
0.0
 40
1.011099
210
0.0
220
0.0
230
1.0
100
AcDbArc
 50
185.584549
 51
191.054328
  0
ARC
  5
311
100
AcDbEntity
  8
0
 62
     7
100
AcDbCircle
 10
10.793763
 20
6.647067
 30
0.0
 40
1.812585
210
0.0
220
0.0
230
1.0
100
AcDbArc
 50
191.054328
 51
194.587585
  0
ARC
  5
312
100
AcDbEntity
  8
0
 62
     7
100
AcDbCircle
 10
10.756602
 20
6.637397
 30
0.0
 40
1.774186
210
0.0
220
0.0
230
1.0
100
AcDbArc
 50
194.587544
 51
201.563107
  0
ARC
  5
313
100
AcDbEntity
  8
0
 62
     7
100
AcDbCircle
 10
10.418685
 20
6.503857
 30
0.0
 40
1.41084
210
0.0
220
0.0
230
1.0
100
AcDbArc
 50
201.563148
 51
209.846351
  0
ARC
  5
314
100
AcDbEntity
  8
0
 62
     7
100
AcDbCircle
 10
10.424487
 20
6.507189
 30
0.0
 40
1.41753
210
0.0
220
0.0
230
1.0
100
AcDbArc
 50
209.846433
 51
218.108339
  0
ARC
  5
315
100
AcDbEntity
  8
0
 62
     7
100
AcDbCircle
 10
10.733454
 20
6.749523
 30
0.0
 40
1.810195
210
0.0
220
0.0
230
1.0
100
AcDbArc
 50
218.108339
 51
224.986339
  0
ARC
  5
316
100
AcDbEntity
  8
0
 62
     7
100
AcDbCircle
 10
10.914706
 20
6.930688
 30
0.0
 40
2.066463
210
0.0
220
0.0
230
1.0
100
AcDbArc
 50
224.986298
 51
228.991098
  0
ARC
  5
317
100
AcDbEntity
  8
0
 62
     7
100
AcDbCircle
 10
10.421572
 20
6.363576
 30
0.0
 40
1.314934
210
0.0
220
0.0
230
1.0
100
AcDbArc
 50
228.991057
 51
234.610199
  0
ARC
  5
318
100
AcDbEntity
  8
0
 62
     7
100
AcDbCircle
 10
10.411429
 20
6.349298
 30
0.0
 40
1.297421
210
0.0
220
0.0
230
1.0
100
AcDbArc
 50
234.610199
 51
240.271934
  0
ARC
  5
319
100
AcDbEntity
  8
0
 62
     7
100
AcDbCircle
 10
10.738746
 20
6.922494
 30
0.0
 40
1.957487
210
0.0
220
0.0
230
1.0
100
AcDbArc
 50
240.271906
 51
244.432038
  0
ARC
  5
31A
100
AcDbEntity
  8
0
 62
     7
100
AcDbCircle
 10
10.608164
 20
6.64955
 30
0.0
 40
1.654915
210
0.0
220
0.0
230
1.0
100
AcDbArc
 50
244.431983
 51
250.911559
  0
ARC
  5
31B
100
AcDbEntity
  8
0
 62
     7
100
AcDbCircle
 10
10.481293
 20
6.282931
 30
0.0
 40
1.266966
210
0.0
220
0.0
230
1.0
100
AcDbArc
 50
250.911586
 51
258.827857
  0
ARC
  5
31C
100
AcDbEntity
  8
0
 62
     7
100
AcDbCircle
 10
10.499514
 20
6.375205
 30
0.0
 40
1.361019
210
0.0
220
0.0
230
1.0
100
AcDbArc
 50
258.827939
 51
266.433109
  0
ARC
  5
31D
100
AcDbEntity
  8
0
 62
     7
100
AcDbCircle
 10
10.552463
 20
7.224646
 30
0.0
 40
2.212109
210
0.0
220
0.0
230
1.0
100
AcDbArc
 50
266.433136
 51
271.718774
  0
ARC
  5
31E
100
AcDbEntity
  8
0
 62
     7
100
AcDbCircle
 10
10.543619
 20
7.51936
 30
0.0
 40
2.506957
210
0.0
220
0.0
230
1.0
100
AcDbArc
 50
271.718774
 51
274.844623
  0
ARC
  5
31F
100
AcDbEntity
  8
0
 62
     7
100
AcDbCircle
 10
10.654613
 20
6.209814
 30
0.0
 40
1.192714
210
0.0
220
0.0
230
1.0
100
AcDbArc
 50
274.844623
 51
280.292874
  0
ARC
  5
320
100
AcDbEntity
  8
0
 62
     7
100
AcDbCircle
 10
10.665319
 20
6.150856
 30
0.0
 40
1.132792
210
0.0
220
0.0
230
1.0
100
AcDbArc
 50
280.292874
 51
285.908799
  0
ARC
  5
321
100
AcDbEntity
  8
0
 62
     7
100
AcDbCircle
 10
10.409865
 20
7.047119
 30
0.0
 40
2.064749
210
0.0
220
0.0
230
1.0
100
AcDbArc
 50
285.908744
 51
289.491745
  0
ARC
  5
322
100
AcDbEntity
  8
0
 62
     7
100
AcDbCircle
 10
10.603211
 20
6.500876
 30
0.0
 40
1.485299
210
0.0
220
0.0
230
1.0
100
AcDbArc
 50
289.491718
 51
304.316128
  0
ARC
  5
323
100
AcDbEntity
  8
0
 62
     7
100
AcDbCircle
 10
10.528449
 20
6.610404
 30
0.0
 40
1.617909
210
0.0
220
0.0
230
1.0
100
AcDbArc
 50
304.316179
 51
318.219688
  0
ARC
  5
324
100
AcDbEntity
  8
0
 62
     7
100
AcDbCircle
 10
10.515467
 20
6.622001
 30
0.0
 40
1.635318
210
0.0
220
0.0
230
1.0
100
AcDbArc
 50
318.219716
 51
332.04604
  0
ARC
  5
325
100
AcDbEntity
  8
0
 62
     7
100
AcDbCircle
 10
10.584373
 20
6.585436
 30
0.0
 40
1.557312
210
0.0
220
0.0
230
1.0
100
AcDbArc
 50
332.046013
 51
346.388563
  0
ARC
  5
326
100
AcDbEntity
  8
0
 62
     7
100
AcDbCircle
 10
10.897113
 20
6.509711
 30
0.0
 40
1.235533
210
0.0
220
0.0
230
1.0
100
AcDbArc
 50
346.388563
 51
353.678041
  0
ARC
  5
327
100
AcDbEntity
  8
0
 62
     7
100
AcDbCircle
 10
9.802765
 20
6.630951
 30
0.0
 40
2.336577
210
0.0
220
0.0
230
1.0
100
AcDbArc
 50
353.678041
 51
358.202687
  0
ARC
  5
328
100
AcDbEntity
  8
0
 62
     7
100
AcDbCircle
 10
2.369312
 20
6.864225
 30
0.0
 40
9.773688
210
0.0
220
0.0
230
1.0
100
AcDbArc
 50
358.202577
 51
359.997961
  0
LINE
  5
329
100
AcDbEntity
  8
0
 62
     7
 48
0.018917
100
AcDbLine
 10
12.143002
 20
6.863879
 30
0.0
 11
12.141927
 21
7.620551
 31
0.0
210
0.0
220
0.0
230
1.0
  0
LINE
  5
32A
100
AcDbEntity
  8
0
 62
     7
 48
0.016645
100
AcDbLine
 10
12.141927
 20
7.620551
 30
0.0
 11
12.139598
 21
8.286335
 31
0.0
210
0.0
220
0.0
230
1.0
  0
ARC
  5
32B
100
AcDbEntity
  8
0
 62
     7
100
AcDbCircle
 10
-6.096869
 20
8.210983
 30
0.0
 40
18.236622
210
0.0
220
0.0
230
1.0
100
AcDbArc
 50
0.236743
 51
1.061341
  0
ARC
  5
32C
100
AcDbEntity
  8
0
 62
     7
100
AcDbCircle
 10
5.383167
 20
8.423661
 30
0.0
 40
6.754615
210
0.0
220
0.0
230
1.0
100
AcDbArc
 50
1.061353
 51
2.325972
  0
ARC
  5
32D
100
AcDbEntity
  8
0
 62
     7
100
AcDbCircle
 10
12.005652
 20
8.692656
 30
0.0
 40
0.12667
210
0.0
220
0.0
230
1.0
100
AcDbArc
 50
2.325903
 51
24.299551
  0
ARC
  5
32E
100
AcDbEntity
  8
0
 62
     7
100
AcDbCircle
 10
11.84336
 20
8.619379
 30
0.0
 40
0.304738
210
0.0
220
0.0
230
1.0
100
AcDbArc
 50
24.299506
 51
33.948369
  0
ARC
  5
32F
100
AcDbEntity
  8
0
 62
     7
100
AcDbCircle
 10
11.803973
 20
8.592863
 30
0.0
 40
0.352218
210
0.0
220
0.0
230
1.0
100
AcDbArc
 50
33.948366
 51
42.604394
  0
ARC
  5
330
100
AcDbEntity
  8
0
 62
     7
100
AcDbCircle
 10
11.807391
 20
8.596007
 30
0.0
 40
0.347575
210
0.0
220
0.0
230
1.0
100
AcDbArc
 50
42.604429
 51
51.315836
  0
ARC
  5
331
100
AcDbEntity
  8
0
 62
     7
100
AcDbCircle
 10
11.84689
 20
8.645339
 30
0.0
 40
0.284377
210
0.0
220
0.0
230
1.0
100
AcDbArc
 50
51.315884
 51
61.441937
  0
ARC
  5
332
100
AcDbEntity
  8
0
 62
     7
100
AcDbCircle
 10
11.866968
 20
8.682228
 30
0.0
 40
0.242377
210
0.0
220
0.0
230
1.0
100
AcDbArc
 50
61.441957
 51
75.762589
  0
ARC
  5
333
100
AcDbEntity
  8
0
 62
     7
100
AcDbCircle
 10
11.831632
 20
8.542963
 30
0.0
 40
0.386056
210
0.0
220
0.0
230
1.0
100
AcDbArc
 50
75.762521
 51
85.867069
  0
ARC
  5
334
100
AcDbEntity
  8
0
 62
     7
100
AcDbCircle
 10
11.830946
 20
8.533476
 30
0.0
 40
0.395568
210
0.0
220
0.0
230
1.0
100
AcDbArc
 50
85.866994
 51
95.864943
  0
ARC
  5
335
100
AcDbEntity
  8
0
 62
     7
100
AcDbCircle
 10
11.819146
 20
8.648352
 30
0.0
 40
0.280089
210
0.0
220
0.0
230
1.0
100
AcDbArc
 50
95.864895
 51
108.815295
  0
ARC
  5
336
100
AcDbEntity
  8
0
 62
     7
100
AcDbCircle
 10
10.48814
 20
6.424196
 30
0.0
 40
1.140503
210
0.0
220
0.0
230
1.0
100
AcDbArc
 50
62.367147
 51
73.408203
  0
ARC
  5
337
100
AcDbEntity
  8
0
 62
     7
100
AcDbCircle
 10
10.565784
 20
6.572507
 30
0.0
 40
0.973097
210
0.0
220
0.0
230
1.0
100
AcDbArc
 50
49.930366
 51
62.36714
  0
ARC
  5
338
100
AcDbEntity
  8
0
 62
     7
100
AcDbCircle
 10
10.585965
 20
6.596498
 30
0.0
 40
0.941745
210
0.0
220
0.0
230
1.0
100
AcDbArc
 50
37.272919
 51
49.930421
  0
ARC
  5
339
100
AcDbEntity
  8
0
 62
     7
100
AcDbCircle
 10
10.54519
 20
6.565466
 30
0.0
 40
0.992987
210
0.0
220
0.0
230
1.0
100
AcDbArc
 50
25.108564
 51
37.27294
  0
ARC
  5
33A
100
AcDbEntity
  8
0
 62
     7
100
AcDbCircle
 10
10.198642
 20
6.403068
 30
0.0
 40
1.375698
210
0.0
220
0.0
230
1.0
100
AcDbArc
 50
20.519985
 51
25.108535
  0
ARC
  5
33B
100
AcDbEntity
  8
0
 62
     7
100
AcDbCircle
 10
10.949422
 20
6.684072
 30
0.0
 40
0.574054
210
0.0
220
0.0
230
1.0
100
AcDbArc
 50
11.703988
 51
20.519978
  0
ARC
  5
33C
100
AcDbEntity
  8
0
 62
     7
100
AcDbCircle
 10
10.882269
 20
6.67016
 30
0.0
 40
0.642633
210
0.0
220
0.0
230
1.0
100
AcDbArc
 50
3.481856
 51
11.703938
  0
ARC
  5
33D
100
AcDbEntity
  8
0
 62
     7
100
AcDbCircle
 10
9.491602
 20
6.585549
 30
0.0
 40
2.035872
210
0.0
220
0.0
230
1.0
100
AcDbArc
 50
0.00005
 51
3.481761
  0
ARC
  5
33E
100
AcDbEntity
  8
0
 62
     7
100
AcDbCircle
 10
7.276939
 20
6.585546
 30
0.0
 40
4.250535
210
0.0
220
0.0
230
1.0
100
AcDbArc
 50
358.824589
 51
0.00006
  0
ARC
  5
33F
100
AcDbEntity
  8
0
 62
     7
100
AcDbCircle
 10
10.698341
 20
6.515348
 30
0.0
 40
0.828412
210
0.0
220
0.0
230
1.0
100
AcDbArc
 50
354.875702
 51
358.824589
  0
ARC
  5
340
100
AcDbEntity
  8
0
 62
     7
100
AcDbCircle
 10
11.047111
 20
6.484072
 30
0.0
 40
0.478243
210
0.0
220
0.0
230
1.0
100
AcDbArc
 50
349.356444
 51
354.875702
  0
ARC
  5
341
100
AcDbEntity
  8
0
 62
     7
100
AcDbCircle
 10
10.953819
 20
6.501604
 30
0.0
 40
0.573168
210
0.0
220
0.0
230
1.0
100
AcDbArc
 50
344.537936
 51
349.356499
  0
ARC
  5
342
100
AcDbEntity
  8
0
 62
     7
100
AcDbCircle
 10
10.437874
 20
6.644318
 30
0.0
 40
1.108487
210
0.0
220
0.0
230
1.0
100
AcDbArc
 50
329.721099
 51
344.537965
  0
ARC
  5
343
100
AcDbEntity
  8
0
 62
     7
100
AcDbCircle
 10
10.562754
 20
6.571408
 30
0.0
 40
0.963881
210
0.0
220
0.0
230
1.0
100
AcDbArc
 50
313.266845
 51
329.721126
  0
ARC
  5
344
100
AcDbEntity
  8
0
 62
     7
100
AcDbCircle
 10
10.579365
 20
6.553759
 30
0.0
 40
0.939645
210
0.0
220
0.0
230
1.0
100
AcDbArc
 50
296.580963
 51
313.2669
  0
ARC
  5
345
100
AcDbEntity
  8
0
 62
     7
100
AcDbCircle
 10
10.550837
 20
6.610771
 30
0.0
 40
1.003397
210
0.0
220
0.0
230
1.0
100
AcDbArc
 50
280.69662
 51
296.581017
  0
ARC
  5
346
100
AcDbEntity
  8
0
 62
     7
100
AcDbCircle
 10
10.609659
 20
6.29936
 30
0.0
 40
0.686478
210
0.0
220
0.0
230
1.0
100
AcDbArc
 50
272.696119
 51
280.69662
  0
ARC
  5
347
100
AcDbEntity
  8
0
 62
     7
100
AcDbCircle
 10
10.577468
 20
6.982973
 30
0.0
 40
1.370848
210
0.0
220
0.0
230
1.0
100
AcDbArc
 50
267.927472
 51
272.696092
  0
ARC
  5
348
100
AcDbEntity
  8
0
 62
     7
100
AcDbCircle
 10
10.577646
 20
6.987861
 30
0.0
 40
1.375739
210
0.0
220
0.0
230
1.0
100
AcDbArc
 50
263.163197
 51
267.927472
  0
ARC
  5
349
100
AcDbEntity
  8
0
 62
     7
100
AcDbCircle
 10
10.498337
 20
6.326366
 30
0.0
 40
0.709507
210
0.0
220
0.0
230
1.0
100
AcDbArc
 50
255.343286
 51
263.163176
  0
ARC
  5
34A
100
AcDbEntity
  8
0
 62
     7
100
AcDbCircle
 10
10.542816
 20
6.496435
 30
0.0
 40
0.885297
210
0.0
220
0.0
230
1.0
100
AcDbArc
 50
244.175387
 51
255.343313
  0
ARC
  5
34B
100
AcDbEntity
  8
0
 62
     7
100
AcDbCircle
 10
10.580894
 20
6.575119
 30
0.0
 40
0.97271
210
0.0
220
0.0
230
1.0
100
AcDbArc
 50
233.768911
 51
244.175387
  0
ARC
  5
34C
100
AcDbEntity
  8
0
 62
     7
100
AcDbCircle
 10
10.60045
 20
6.601806
 30
0.0
 40
1.005796
210
0.0
220
0.0
230
1.0
100
AcDbArc
 50
223.538981
 51
233.768883
  0
ARC
  5
34D
100
AcDbEntity
  8
0
 62
     7
100
AcDbCircle
 10
10.621716
 20
6.622014
 30
0.0
 40
1.035132
210
0.0
220
0.0
230
1.0
100
AcDbArc
 50
213.52729
 51
223.538968
  0
ARC
  5
34E
100
AcDbEntity
  8
0
 62
     7
100
AcDbCircle
 10
10.951942
 20
6.840812
 30
0.0
 40
1.431267
210
0.0
220
0.0
230
1.0
100
AcDbArc
 50
209.915213
 51
213.52729
  0
ARC
  5
34F
100
AcDbEntity
  8
0
 62
     7
100
AcDbCircle
 10
10.428172
 20
6.539448
 30
0.0
 40
0.826985
210
0.0
220
0.0
230
1.0
100
AcDbArc
 50
204.468314
 51
209.915199
  0
ARC
  5
350
100
AcDbEntity
  8
0
 62
     7
100
AcDbCircle
 10
10.328519
 20
6.494099
 30
0.0
 40
0.717499
210
0.0
220
0.0
230
1.0
100
AcDbArc
 50
198.577549
 51
204.468328
  0
ARC
  5
351
100
AcDbEntity
  8
0
 62
     7
100
AcDbCircle
 10
10.395555
 20
6.51663
 30
0.0
 40
0.788219
210
0.0
220
0.0
230
1.0
100
AcDbArc
 50
193.08784
 51
198.577549
  0
ARC
  5
352
100
AcDbEntity
  8
0
 62
     7
100
AcDbCircle
 10
10.678005
 20
6.582294
 30
0.0
 40
1.078202
210
0.0
220
0.0
230
1.0
100
AcDbArc
 50
180.738325
 51
193.087812
  0
ARC
  5
353
100
AcDbEntity
  8
0
 62
     7
100
AcDbCircle
 10
10.57266
 20
6.580937
 30
0.0
 40
0.972849
210
0.0
220
0.0
230
1.0
100
AcDbArc
 50
167.398948
 51
180.738379
  0
ARC
  5
354
100
AcDbEntity
  8
0
 62
     7
100
AcDbCircle
 10
10.564611
 20
6.582739
 30
0.0
 40
0.9646
210
0.0
220
0.0
230
1.0
100
AcDbArc
 50
153.998404
 51
167.39903
  0
ARC
  5
355
100
AcDbEntity
  8
0
 62
     7
100
AcDbCircle
 10
10.632728
 20
6.549513
 30
0.0
 40
1.040388
210
0.0
220
0.0
230
1.0
100
AcDbArc
 50
141.33679
 51
153.998404
  0
ARC
  5
356
100
AcDbEntity
  8
0
 62
     7
100
AcDbCircle
 10
10.427862
 20
6.713425
 30
0.0
 40
0.778019
210
0.0
220
0.0
230
1.0
100
AcDbArc
 50
129.877481
 51
141.336695
  0
ARC
  5
357
100
AcDbEntity
  8
0
 62
     7
100
AcDbCircle
 10
10.60762
 20
6.498261
 30
0.0
 40
1.058391
210
0.0
220
0.0
230
1.0
100
AcDbArc
 50
120.779027
 51
129.877399
  0
ARC
  5
358
100
AcDbEntity
  8
0
 62
     7
100
AcDbCircle
 10
10.642384
 20
6.439897
 30
0.0
 40
1.126324
210
0.0
220
0.0
230
1.0
100
AcDbArc
 50
111.949102
 51
120.779055
  0
ARC
  5
359
100
AcDbEntity
  8
0
 62
     7
100
AcDbCircle
 10
10.623153
 20
6.487619
 30
0.0
 40
1.074873
210
0.0
220
0.0
230
1.0
100
AcDbArc
 50
102.804101
 51
111.949157
  0
ARC
  5
35A
100
AcDbEntity
  8
0
 62
     7
100
AcDbCircle
 10
10.493372
 20
7.058661
 30
0.0
 40
0.489269
210
0.0
220
0.0
230
1.0
100
AcDbArc
 50
92.117969
 51
102.804135
  0
ARC
  5
35B
100
AcDbEntity
  8
0
 62
     7
100
AcDbCircle
 10
10.531396
 20
6.030505
 30
0.0
 40
1.518129
210
0.0
220
0.0
230
1.0
100
AcDbArc
 50
87.523007
 51
92.117976
  0
ARC
  5
35C
100
AcDbEntity
  8
0
 62
     7
100
AcDbCircle
 10
10.530914
 20
6.019399
 30
0.0
 40
1.529246
210
0.0
220
0.0
230
1.0
100
AcDbArc
 50
82.910567
 51
87.522939
  0
ARC
  5
35D
100
AcDbEntity
  8
0
 62
     7
100
AcDbCircle
 10
10.647973
 20
6.960622
 30
0.0
 40
0.58077
210
0.0
220
0.0
230
1.0
100
AcDbArc
 50
73.408264
 51
82.910478
  0
ARC
  5
35E
100
AcDbEntity
  8
0
 62
     7
100
AcDbCircle
 10
13.503448
 20
8.597627
 30
0.0
 40
0.33231
210
0.0
220
0.0
230
1.0
100
AcDbArc
 50
105.737332
 51
123.287933
  0
ARC
  5
35F
100
AcDbEntity
  8
0
 62
     7
100
AcDbCircle
 10
13.477388
 20
8.637321
 30
0.0
 40
0.284826
210
0.0
220
0.0
230
1.0
100
AcDbArc
 50
123.287988
 51
142.989628
  0
ARC
  5
360
100
AcDbEntity
  8
0
 62
     7
100
AcDbCircle
 10
13.479564
 20
8.63568
 30
0.0
 40
0.287552
210
0.0
220
0.0
230
1.0
100
AcDbArc
 50
142.989614
 51
162.5857
  0
ARC
  5
361
100
AcDbEntity
  8
0
 62
     7
100
AcDbCircle
 10
13.533265
 20
8.618834
 30
0.0
 40
0.343833
210
0.0
220
0.0
230
1.0
100
AcDbArc
 50
162.585645
 51
179.723792
  0
ARC
  5
362
100
AcDbEntity
  8
0
 62
     7
100
AcDbCircle
 10
13.887958
 20
8.617126
 30
0.0
 40
0.698529
210
0.0
220
0.0
230
1.0
100
AcDbArc
 50
179.723792
 51
183.142961
  0
ARC
  5
363
100
AcDbEntity
  8
0
 62
     7
100
AcDbCircle
 10
13.390884
 20
8.589833
 30
0.0
 40
0.200708
210
0.0
220
0.0
230
1.0
100
AcDbArc
 50
183.143057
 51
191.795431
  0
ARC
  5
364
100
AcDbEntity
  8
0
 62
     7
100
AcDbCircle
 10
13.364861
 20
8.584399
 30
0.0
 40
0.174124
210
0.0
220
0.0
230
1.0
100
AcDbArc
 50
191.795445
 51
201.248468
  0
ARC
  5
365
100
AcDbEntity
  8
0
 62
     7
100
AcDbCircle
 10
13.602198
 20
8.676684
 30
0.0
 40
0.428771
210
0.0
220
0.0
230
1.0
100
AcDbArc
 50
201.248399
 51
206.07039
  0
ARC
  5
366
100
AcDbEntity
  8
0
 62
     7
100
AcDbCircle
 10
13.511116
 20
8.632123
 30
0.0
 40
0.327372
210
0.0
220
0.0
230
1.0
100
AcDbArc
 50
206.070349
 51
220.285748
  0
ARC
  5
367
100
AcDbEntity
  8
0
 62
     7
100
AcDbCircle
 10
13.465734
 20
8.593655
 30
0.0
 40
0.267877
210
0.0
220
0.0
230
1.0
100
AcDbArc
 50
220.285721
 51
236.807962
  0
ARC
  5
368
100
AcDbEntity
  8
0
 62
     7
100
AcDbCircle
 10
13.468023
 20
8.597156
 30
0.0
 40
0.272063
210
0.0
220
0.0
230
1.0
100
AcDbArc
 50
236.808044
 51
253.187514
  0
ARC
  5
369
100
AcDbEntity
  8
0
 62
     7
100
AcDbCircle
 10
13.489749
 20
8.669057
 30
0.0
 40
0.347174
210
0.0
220
0.0
230
1.0
100
AcDbArc
 50
253.187548
 51
266.830926
  0
ARC
  5
36A
100
AcDbEntity
  8
0
 62
     7
100
AcDbCircle
 10
13.496322
 20
8.787787
 30
0.0
 40
0.466087
210
0.0
220
0.0
230
1.0
100
AcDbArc
 50
266.830844
 51
275.602911
  0
ARC
  5
36B
100
AcDbEntity
  8
0
 62
     7
100
AcDbCircle
 10
13.519334
 20
8.55322
 30
0.0
 40
0.230392
210
0.0
220
0.0
230
1.0
100
AcDbArc
 50
275.602911
 51
290.462889
  0
ARC
  5
36C
100
AcDbEntity
  8
0
 62
     7
100
AcDbCircle
 10
13.521637
 20
8.54705
 30
0.0
 40
0.223808
210
0.0
220
0.0
230
1.0
100
AcDbArc
 50
290.462944
 51
305.58127
  0
ARC
  5
36D
100
AcDbEntity
  8
0
 62
     7
100
AcDbCircle
 10
13.406797
 20
8.707565
 30
0.0
 40
0.421171
210
0.0
220
0.0
230
1.0
100
AcDbArc
 50
305.581298
 51
315.000019
  0
ARC
  5
36E
100
AcDbEntity
  8
0
 62
     7
100
AcDbCircle
 10
13.405753
 20
8.708611
 30
0.0
 40
0.422651
210
0.0
220
0.0
230
1.0
100
AcDbArc
 50
315.000019
 51
324.450542
  0
ARC
  5
36F
100
AcDbEntity
  8
0
 62
     7
100
AcDbCircle
 10
13.567369
 20
8.59312
 30
0.0
 40
0.224011
210
0.0
220
0.0
230
1.0
100
AcDbArc
 50
324.450542
 51
339.649434
  0
ARC
  5
370
100
AcDbEntity
  8
0
 62
     7
100
AcDbCircle
 10
13.563609
 20
8.594514
 30
0.0
 40
0.22802
210
0.0
220
0.0
230
1.0
100
AcDbArc
 50
339.649462
 51
354.689073
  0
ARC
  5
371
100
AcDbEntity
  8
0
 62
     7
100
AcDbCircle
 10
13.342894
 20
8.615031
 30
0.0
 40
0.449688
210
0.0
220
0.0
230
1.0
100
AcDbArc
 50
354.689156
 51
3.737194
  0
ARC
  5
372
100
AcDbEntity
  8
0
 62
     7
100
AcDbCircle
 10
13.379314
 20
8.617409
 30
0.0
 40
0.413189
210
0.0
220
0.0
230
1.0
100
AcDbArc
 50
3.737203
 51
11.907098
  0
ARC
  5
373
100
AcDbEntity
  8
0
 62
     7
100
AcDbCircle
 10
13.564944
 20
8.656552
 30
0.0
 40
0.223477
210
0.0
220
0.0
230
1.0
100
AcDbArc
 50
11.907064
 51
24.84947
  0
ARC
  5
374
100
AcDbEntity
  8
0
 62
     7
100
AcDbCircle
 10
13.564322
 20
8.656264
 30
0.0
 40
0.224163
210
0.0
220
0.0
230
1.0
100
AcDbArc
 50
24.849466
 51
37.768569
  0
ARC
  5
375
100
AcDbEntity
  8
0
 62
     7
100
AcDbCircle
 10
13.411256
 20
8.537668
 30
0.0
 40
0.417797
210
0.0
220
0.0
230
1.0
100
AcDbArc
 50
37.768579
 51
45.875078
  0
ARC
  5
376
100
AcDbEntity
  8
0
 62
     7
100
AcDbCircle
 10
13.484938
 20
8.613635
 30
0.0
 40
0.311968
210
0.0
220
0.0
230
1.0
100
AcDbArc
 50
45.875085
 51
60.458458
  0
ARC
  5
377
100
AcDbEntity
  8
0
 62
     7
100
AcDbCircle
 10
13.477506
 20
8.600522
 30
0.0
 40
0.327041
210
0.0
220
0.0
230
1.0
100
AcDbArc
 50
60.458382
 51
74.534733
  0
ARC
  5
378
100
AcDbEntity
  8
0
 62
     7
100
AcDbCircle
 10
13.481346
 20
8.614408
 30
0.0
 40
0.312632
210
0.0
220
0.0
230
1.0
100
AcDbArc
 50
74.534672
 51
88.941139
  0
ARC
  5
379
100
AcDbEntity
  8
0
 62
     7
100
AcDbCircle
 10
13.482415
 20
8.67227
 30
0.0
 40
0.254762
210
0.0
220
0.0
230
1.0
100
AcDbArc
 50
88.941084
 51
105.737339
  0
ARC
  5
37A
100
AcDbEntity
  8
0
 62
     7
100
AcDbCircle
 10
41.562023
 20
8.634301
 30
0.0
 40
0.291267
210
0.0
220
0.0
230
1.0
100
AcDbArc
 50
105.46157
 51
124.471223
  0
ARC
  5
37B
100
AcDbEntity
  8
0
 62
     7
100
AcDbCircle
 10
41.573349
 20
8.617805
 30
0.0
 40
0.311277
210
0.0
220
0.0
230
1.0
100
AcDbArc
 50
124.471291
 51
142.55699
  0
ARC
  5
37C
100
AcDbEntity
  8
0
 62
     7
100
AcDbCircle
 10
41.57198
 20
8.618852
 30
0.0
 40
0.309554
210
0.0
220
0.0
230
1.0
100
AcDbArc
 50
142.557086
 51
160.696989
  0
ARC
  5
37D
100
AcDbEntity
  8
0
 62
     7
100
AcDbCircle
 10
41.548744
 20
8.626991
 30
0.0
 40
0.284934
210
0.0
220
0.0
230
1.0
100
AcDbArc
 50
160.697016
 51
180.000022
  0
ARC
  5
37E
100
AcDbEntity
  8
0
 62
     7
100
AcDbCircle
 10
41.638638
 20
8.626991
 30
0.0
 40
0.374826
210
0.0
220
0.0
230
1.0
100
AcDbArc
 50
179.999978
 51
189.060145
  0
ARC
  5
37F
100
AcDbEntity
  8
0
 62
     7
100
AcDbCircle
 10
41.543861
 20
8.611876
 30
0.0
 40
0.27885
210
0.0
220
0.0
230
1.0
100
AcDbArc
 50
189.060173
 51
200.369422
  0
ARC
  5
380
100
AcDbEntity
  8
0
 62
     7
100
AcDbCircle
 10
41.534554
 20
8.608422
 30
0.0
 40
0.268925
210
0.0
220
0.0
230
1.0
100
AcDbArc
 50
200.36945
 51
211.90639
  0
ARC
  5
381
100
AcDbEntity
  8
0
 62
     7
100
AcDbCircle
 10
41.580608
 20
8.637094
 30
0.0
 40
0.323173
210
0.0
220
0.0
230
1.0
100
AcDbArc
 50
211.906363
 51
221.958298
  0
ARC
  5
382
100
AcDbEntity
  8
0
 62
     7
100
AcDbCircle
 10
41.687687
 20
8.733369
 30
0.0
 40
0.46717
210
0.0
220
0.0
230
1.0
100
AcDbArc
 50
221.958257
 51
230.003865
  0
ARC
  5
383
100
AcDbEntity
  8
0
 62
     7
100
AcDbCircle
 10
41.517841
 20
8.530925
 30
0.0
 40
0.202913
210
0.0
220
0.0
230
1.0
100
AcDbArc
 50
230.003865
 51
245.008779
  0
ARC
  5
384
100
AcDbEntity
  8
0
 62
     7
100
AcDbCircle
 10
41.521713
 20
8.539227
 30
0.0
 40
0.212073
210
0.0
220
0.0
230
1.0
100
AcDbArc
 50
245.008807
 51
259.614319
  0
ARC
  5
385
100
AcDbEntity
  8
0
 62
     7
100
AcDbCircle
 10
41.581242
 20
8.864059
 30
0.0
 40
0.542315
210
0.0
220
0.0
230
1.0
100
AcDbArc
 50
259.614367
 51
266.859203
  0
ARC
  5
386
100
AcDbEntity
  8
0
 62
     7
100
AcDbCircle
 10
41.614613
 20
9.47217
 30
0.0
 40
1.15134
210
0.0
220
0.0
230
1.0
100
AcDbArc
 50
266.859203
 51
269.376237
  0
ARC
  5
387
100
AcDbEntity
  8
0
 62
     7
100
AcDbCircle
 10
41.603733
 20
8.473247
 30
0.0
 40
0.152358
210
0.0
220
0.0
230
1.0
100
AcDbArc
 50
269.376183
 51
280.555345
  0
ARC
  5
388
100
AcDbEntity
  8
0
 62
     7
100
AcDbCircle
 10
41.607231
 20
8.454494
 30
0.0
 40
0.133282
210
0.0
220
0.0
230
1.0
100
AcDbArc
 50
280.555345
 51
292.799258
  0
ARC
  5
389
100
AcDbEntity
  8
0
 62
     7
100
AcDbCircle
 10
41.368584
 20
9.022231
 30
0.0
 40
0.749136
210
0.0
220
0.0
230
1.0
100
AcDbArc
 50
292.799306
 51
296.21091
  0
ARC
  5
38A
100
AcDbEntity
  8
0
 62
     7
100
AcDbCircle
 10
41.558681
 20
8.636088
 30
0.0
 40
0.318739
210
0.0
220
0.0
230
1.0
100
AcDbArc
 50
296.211012
 51
317.366188
  0
ARC
  5
38B
100
AcDbEntity
  8
0
 62
     7
100
AcDbCircle
 10
41.573769
 20
8.622194
 30
0.0
 40
0.298227
210
0.0
220
0.0
230
1.0
100
AcDbArc
 50
317.366243
 51
339.603288
  0
ARC
  5
38C
100
AcDbEntity
  8
0
 62
     7
100
AcDbCircle
 10
41.577576
 20
8.620781
 30
0.0
 40
0.294169
210
0.0
220
0.0
230
1.0
100
AcDbArc
 50
339.603261
 51
2.013511
  0
ARC
  5
38D
100
AcDbEntity
  8
0
 62
     7
100
AcDbCircle
 10
41.567448
 20
8.620424
 30
0.0
 40
0.304298
210
0.0
220
0.0
230
1.0
100
AcDbArc
 50
2.013525
 51
23.862043
  0
ARC
  5
38E
100
AcDbEntity
  8
0
 62
     7
100
AcDbCircle
 10
41.571503
 20
8.622216
 30
0.0
 40
0.299869
210
0.0
220
0.0
230
1.0
100
AcDbArc
 50
23.862091
 51
44.557497
  0
ARC
  5
38F
100
AcDbEntity
  8
0
 62
     7
100
AcDbCircle
 10
41.562332
 20
8.613188
 30
0.0
 40
0.312737
210
0.0
220
0.0
230
1.0
100
AcDbArc
 50
44.557552
 51
64.611076
  0
ARC
  5
390
100
AcDbEntity
  8
0
 62
     7
100
AcDbCircle
 10
41.562546
 20
8.613635
 30
0.0
 40
0.312243
210
0.0
220
0.0
230
1.0
100
AcDbArc
 50
64.61111
 51
84.682147
  0
ARC
  5
391
100
AcDbEntity
  8
0
 62
     7
100
AcDbCircle
 10
41.56385
 20
8.627689
 30
0.0
 40
0.298127
210
0.0
220
0.0
230
1.0
100
AcDbArc
 50
84.682086
 51
105.461597
  0
ARC
  5
392
100
AcDbEntity
  8
0
 62
     7
100
AcDbCircle
 10
36.408558
 20
6.619794
 30
0.0
 40
1.53898
210
0.0
220
0.0
230
1.0
100
AcDbArc
 50
96.013472
 51
101.049418
  0
ARC
  5
393
100
AcDbEntity
  8
0
 62
     7
100
AcDbCircle
 10
36.408573
 20
6.619704
 30
0.0
 40
1.539071
210
0.0
220
0.0
230
1.0
100
AcDbArc
 50
101.04937
 51
106.085084
  0
ARC
  5
394
100
AcDbEntity
  8
0
 62
     7
100
AcDbCircle
 10
36.414196
 20
6.600195
 30
0.0
 40
1.559376
210
0.0
220
0.0
230
1.0
100
AcDbArc
 50
106.08505
 51
111.087324
  0
ARC
  5
395
100
AcDbEntity
  8
0
 62
     7
100
AcDbCircle
 10
36.443085
 20
6.525285
 30
0.0
 40
1.639663
210
0.0
220
0.0
230
1.0
100
AcDbArc
 50
111.087324
 51
115.904731
  0
ARC
  5
396
100
AcDbEntity
  8
0
 62
     7
100
AcDbCircle
 10
36.424149
 20
6.564272
 30
0.0
 40
1.596319
210
0.0
220
0.0
230
1.0
100
AcDbArc
 50
115.904731
 51
128.869523
  0
ARC
  5
397
100
AcDbEntity
  8
0
 62
     7
100
AcDbCircle
 10
36.403782
 20
6.589543
 30
0.0
 40
1.563863
210
0.0
220
0.0
230
1.0
100
AcDbArc
 50
128.86955
 51
142.035601
  0
ARC
  5
398
100
AcDbEntity
  8
0
 62
     7
100
AcDbCircle
 10
36.430988
 20
6.568315
 30
0.0
 40
1.598369
210
0.0
220
0.0
230
1.0
100
AcDbArc
 50
142.035614
 51
155.049529
  0
ARC
  5
399
100
AcDbEntity
  8
0
 62
     7
100
AcDbCircle
 10
36.570633
 20
6.503344
 30
0.0
 40
1.752388
210
0.0
220
0.0
230
1.0
100
AcDbArc
 50
155.049502
 51
167.195832
  0
ARC
  5
39A
100
AcDbEntity
  8
0
 62
     7
100
AcDbCircle
 10
35.473522
 20
6.752685
 30
0.0
 40
0.627304
210
0.0
220
0.0
230
1.0
100
AcDbArc
 50
167.195777
 51
174.731812
  0
ARC
  5
39B
100
AcDbEntity
  8
0
 62
     7
100
AcDbCircle
 10
36.535145
 20
6.654792
 30
0.0
 40
1.693428
210
0.0
220
0.0
230
1.0
100
AcDbArc
 50
174.731703
 51
178.322934
  0
ARC
  5
39C
100
AcDbEntity
  8
0
 62
     7
100
AcDbCircle
 10
42.928303
 20
6.467604
 30
0.0
 40
8.089326
210
0.0
220
0.0
230
1.0
100
AcDbArc
 50
178.322893
 51
179.634945
  0
LINE
  5
39D
100
AcDbEntity
  8
0
 62
     7
 48
0.012363
100
AcDbLine
 10
34.839146
 20
6.519143
 30
0.0
 11
34.836433
 21
6.024645
 31
0.0
210
0.0
220
0.0
230
1.0
  0
LINE
  5
39E
100
AcDbEntity
  8
0
 62
     7
 48
0.01252
100
AcDbLine
 10
34.836433
 20
6.024645
 30
0.0
 11
34.834534
 21
5.523862
 31
0.0
210
0.0
220
0.0
230
1.0
  0
ARC
  5
39F
100
AcDbEntity
  8
0
 62
     7
100
AcDbCircle
 10
42.31469
 20
5.501408
 30
0.0
 40
7.480193
210
0.0
220
0.0
230
1.0
100
AcDbArc
 50
179.828021
 51
181.172165
  0
ARC
  5
3A0
100
AcDbEntity
  8
0
 62
     7
100
AcDbCircle
 10
36.320759
 20
5.378767
 30
0.0
 40
1.485003
210
0.0
220
0.0
230
1.0
100
AcDbArc
 50
181.172151
 51
184.822272
  0
ARC
  5
3A1
100
AcDbEntity
  8
0
 62
     7
100
AcDbCircle
 10
35.045944
 20
5.27122
 30
0.0
 40
0.205662
210
0.0
220
0.0
230
1.0
100
AcDbArc
 50
184.822231
 51
200.513211
  0
ARC
  5
3A2
100
AcDbEntity
  8
0
 62
     7
100
AcDbCircle
 10
35.12175
 20
5.299582
 30
0.0
 40
0.286598
210
0.0
220
0.0
230
1.0
100
AcDbArc
 50
200.513211
 51
218.159046
  0
ARC
  5
3A3
100
AcDbEntity
  8
0
 62
     7
100
AcDbCircle
 10
35.123756
 20
5.301161
 30
0.0
 40
0.289154
210
0.0
220
0.0
230
1.0
100
AcDbArc
 50
218.159005
 51
235.687729
  0
ARC
  5
3A4
100
AcDbEntity
  8
0
 62
     7
100
AcDbCircle
 10
35.126484
 20
5.305153
 30
0.0
 40
0.293989
210
0.0
220
0.0
230
1.0
100
AcDbArc
 50
235.687702
 51
253.059004
  0
ARC
  5
3A5
100
AcDbEntity
  8
0
 62
     7
100
AcDbCircle
 10
35.129955
 20
5.31654
 30
0.0
 40
0.305891
210
0.0
220
0.0
230
1.0
100
AcDbArc
 50
253.05897
 51
269.920877
  0
ARC
  5
3A6
100
AcDbEntity
  8
0
 62
     7
100
AcDbCircle
 10
35.130093
 20
5.417241
 30
0.0
 40
0.406591
210
0.0
220
0.0
230
1.0
100
AcDbArc
 50
269.920849
 51
284.785882
  0
ARC
  5
3A7
100
AcDbEntity
  8
0
 62
     7
100
AcDbCircle
 10
35.17152
 20
5.260278
 30
0.0
 40
0.244253
210
0.0
220
0.0
230
1.0
100
AcDbArc
 50
284.785861
 51
306.558534
  0
ARC
  5
3A8
100
AcDbEntity
  8
0
 62
     7
100
AcDbCircle
 10
35.159409
 20
5.276613
 30
0.0
 40
0.26459
210
0.0
220
0.0
230
1.0
100
AcDbArc
 50
306.558561
 51
327.315779
  0
ARC
  5
3A9
100
AcDbEntity
  8
0
 62
     7
100
AcDbCircle
 10
34.939274
 20
5.417851
 30
0.0
 40
0.526138
210
0.0
220
0.0
230
1.0
100
AcDbArc
 50
327.315861
 51
339.727517
  0
ARC
  5
3AA
100
AcDbEntity
  8
0
 62
     7
100
AcDbCircle
 10
36.590702
 20
4.80787
 30
0.0
 40
1.234342
210
0.0
220
0.0
230
1.0
100
AcDbArc
 50
147.705067
 51
159.727512
  0
ARC
  5
3AB
100
AcDbEntity
  8
0
 62
     7
100
AcDbCircle
 10
36.303772
 20
4.989223
 30
0.0
 40
0.894907
210
0.0
220
0.0
230
1.0
100
AcDbArc
 50
132.40558
 51
147.705067
  0
ARC
  5
3AC
100
AcDbEntity
  8
0
 62
     7
100
AcDbCircle
 10
36.291279
 20
5.002905
 30
0.0
 40
0.876378
210
0.0
220
0.0
230
1.0
100
AcDbArc
 50
116.924779
 51
132.405649
  0
ARC
  5
3AD
100
AcDbEntity
  8
0
 62
     7
100
AcDbCircle
 10
36.410767
 20
4.767643
 30
0.0
 40
1.140242
210
0.0
220
0.0
230
1.0
100
AcDbArc
 50
104.216112
 51
116.924793
  0
ARC
  5
3AE
100
AcDbEntity
  8
0
 62
     7
100
AcDbCircle
 10
36.266224
 20
5.338185
 30
0.0
 40
0.551676
210
0.0
220
0.0
230
1.0
100
AcDbArc
 50
96.766808
 51
104.216071
  0
ARC
  5
3AF
100
AcDbEntity
  8
0
 62
     7
100
AcDbCircle
 10
36.317234
 20
4.908242
 30
0.0
 40
0.984636
210
0.0
220
0.0
230
1.0
100
AcDbArc
 50
91.939025
 51
96.766739
  0
ARC
  5
3B0
100
AcDbEntity
  8
0
 62
     7
100
AcDbCircle
 10
36.435905
 20
1.402888
 30
0.0
 40
4.491999
210
0.0
220
0.0
230
1.0
100
AcDbArc
 50
90.155492
 51
91.938963
  0
LINE
  5
3B1
100
AcDbEntity
  8
0
 62
     7
 48
0.009252
100
AcDbLine
 10
36.423714
 20
5.894867
 30
0.0
 11
36.793812
 21
5.895414
 31
0.0
210
0.0
220
0.0
230
1.0
  0
LINE
  5
3B2
100
AcDbEntity
  8
0
 62
     7
 48
0.014375
100
AcDbLine
 10
36.793812
 20
5.895414
 30
0.0
 11
37.368813
 21
5.895551
 31
0.0
210
0.0
220
0.0
230
1.0
  0
LINE
  5
3B3
100
AcDbEntity
  8
0
 62
     7
 48
0.008501
100
AcDbLine
 10
37.368813
 20
5.895551
 30
0.0
 11
37.373814
 21
5.555551
 31
0.0
210
0.0
220
0.0
230
1.0
  0
LINE
  5
3B4
100
AcDbEntity
  8
0
 62
     7
 48
0.008501
100
AcDbLine
 10
37.373814
 20
5.555551
 30
0.0
 11
37.378811
 21
5.215551
 31
0.0
210
0.0
220
0.0
230
1.0
  0
LINE
  5
3B5
100
AcDbEntity
  8
0
 62
     7
 48
0.001521
100
AcDbLine
 10
37.378811
 20
5.215551
 30
0.0
 11
37.408298
 21
5.162316
 31
0.0
210
0.0
220
0.0
230
1.0
  0
ARC
  5
3B6
100
AcDbEntity
  8
0
 62
     7
100
AcDbCircle
 10
37.682312
 20
5.314101
 30
0.0
 40
0.313242
210
0.0
220
0.0
230
1.0
100
AcDbArc
 50
208.984067
 51
223.637964
  0
ARC
  5
3B7
100
AcDbEntity
  8
0
 62
     7
100
AcDbCircle
 10
37.653225
 20
5.286369
 30
0.0
 40
0.273053
210
0.0
220
0.0
230
1.0
100
AcDbArc
 50
223.63791
 51
239.881056
  0
ARC
  5
3B8
100
AcDbEntity
  8
0
 62
     7
100
AcDbCircle
 10
37.65601
 20
5.291166
 30
0.0
 40
0.278601
210
0.0
220
0.0
230
1.0
100
AcDbArc
 50
239.881056
 51
255.94426
  0
ARC
  5
3B9
100
AcDbEntity
  8
0
 62
     7
100
AcDbCircle
 10
37.670586
 20
5.349372
 30
0.0
 40
0.338603
210
0.0
220
0.0
230
1.0
100
AcDbArc
 50
255.944342
 51
269.82203
  0
ARC
  5
3BA
100
AcDbEntity
  8
0
 62
     7
100
AcDbCircle
 10
37.670994
 20
5.482036
 30
0.0
 40
0.471268
210
0.0
220
0.0
230
1.0
100
AcDbArc
 50
269.82203
 51
277.277701
  0
ARC
  5
3BB
100
AcDbEntity
  8
0
 62
     7
100
AcDbCircle
 10
37.694103
 20
5.301059
 30
0.0
 40
0.288821
210
0.0
220
0.0
230
1.0
100
AcDbArc
 50
277.277701
 51
288.036594
  0
ARC
  5
3BC
100
AcDbEntity
  8
0
 62
     7
100
AcDbCircle
 10
37.705399
 20
5.266386
 30
0.0
 40
0.252356
210
0.0
220
0.0
230
1.0
100
AcDbArc
 50
288.03656
 51
299.631578
  0
ARC
  5
3BD
100
AcDbEntity
  8
0
 62
     7
100
AcDbCircle
 10
37.69519
 20
5.284335
 30
0.0
 40
0.273005
210
0.0
220
0.0
230
1.0
100
AcDbArc
 50
299.631489
 51
310.562336
  0
ARC
  5
3BE
100
AcDbEntity
  8
0
 62
     7
100
AcDbCircle
 10
37.666855
 20
5.317436
 30
0.0
 40
0.316576
210
0.0
220
0.0
230
1.0
100
AcDbArc
 50
310.562309
 51
320.28828
  0
ARC
  5
3BF
100
AcDbEntity
  8
0
 62
     7
100
AcDbCircle
 10
37.704514
 20
5.286159
 30
0.0
 40
0.267622
210
0.0
220
0.0
230
1.0
100
AcDbArc
 50
320.288252
 51
331.319937
  0
ARC
  5
3C0
100
AcDbEntity
  8
0
 62
     7
100
AcDbCircle
 10
37.695324
 20
5.291186
 30
0.0
 40
0.278096
210
0.0
220
0.0
230
1.0
100
AcDbArc
 50
331.319964
 51
342.12207
  0
ARC
  5
3C1
100
AcDbEntity
  8
0
 62
     7
100
AcDbCircle
 10
37.606857
 20
5.319721
 30
0.0
 40
0.371052
210
0.0
220
0.0
230
1.0
100
AcDbArc
 50
342.122154
 51
350.824169
  0
ARC
  5
3C2
100
AcDbEntity
  8
0
 62
     7
100
AcDbCircle
 10
37.256546
 20
5.376308
 30
0.0
 40
0.725905
210
0.0
220
0.0
230
1.0
100
AcDbArc
 50
350.824198
 51
359.78893
  0
LINE
  5
3C3
100
AcDbEntity
  8
0
 62
     7
 48
0.013996
100
AcDbLine
 10
37.982445
 20
5.373632
 30
0.0
 11
37.983578
 21
5.933476
 31
0.0
210
0.0
220
0.0
230
1.0
  0
ARC
  5
3C4
100
AcDbEntity
  8
0
 62
     7
100
AcDbCircle
 10
-47.941772
 20
5.96478
 30
0.0
 40
85.925362
210
0.0
220
0.0
230
1.0
100
AcDbArc
 50
359.979137
 51
0.334818
  0
ARC
  5
3C5
100
AcDbEntity
  8
0
 62
     7
100
AcDbCircle
 10
34.701714
 20
6.447731
 30
0.0
 40
3.28046
210
0.0
220
0.0
230
1.0
100
AcDbArc
 50
0.334724
 51
4.124151
  0
ARC
  5
3C6
100
AcDbEntity
  8
0
 62
     7
100
AcDbCircle
 10
35.984962
 20
6.540261
 30
0.0
 40
1.993878
210
0.0
220
0.0
230
1.0
100
AcDbArc
 50
4.124115
 51
8.584601
  0
ARC
  5
3C7
100
AcDbEntity
  8
0
 62
     7
100
AcDbCircle
 10
36.561161
 20
6.627243
 30
0.0
 40
1.41115
210
0.0
220
0.0
230
1.0
100
AcDbArc
 50
8.584656
 51
14.364345
  0
ARC
  5
3C8
100
AcDbEntity
  8
0
 62
     7
100
AcDbCircle
 10
36.620789
 20
6.642511
 30
0.0
 40
1.349601
210
0.0
220
0.0
230
1.0
100
AcDbArc
 50
14.364371
 51
20.286519
  0
ARC
  5
3C9
100
AcDbEntity
  8
0
 62
     7
100
AcDbCircle
 10
36.340595
 20
6.53894
 30
0.0
 40
1.648325
210
0.0
220
0.0
230
1.0
100
AcDbArc
 50
20.286509
 51
25.384075
  0
ARC
  5
3CA
100
AcDbEntity
  8
0
 62
     7
100
AcDbCircle
 10
36.239124
 20
6.490793
 30
0.0
 40
1.760636
210
0.0
220
0.0
230
1.0
100
AcDbArc
 50
25.38415
 51
30.359392
  0
ARC
  5
3CB
100
AcDbEntity
  8
0
 62
     7
100
AcDbCircle
 10
36.468319
 20
6.625041
 30
0.0
 40
1.495019
210
0.0
220
0.0
230
1.0
100
AcDbArc
 50
30.359443
 51
35.983844
  0
ARC
  5
3CC
100
AcDbEntity
  8
0
 62
     7
100
AcDbCircle
 10
36.467937
 20
6.624763
 30
0.0
 40
1.495494
210
0.0
220
0.0
230
1.0
100
AcDbArc
 50
35.983817
 51
41.607299
  0
ARC
  5
3CD
100
AcDbEntity
  8
0
 62
     7
100
AcDbCircle
 10
36.267773
 20
6.447001
 30
0.0
 40
1.763198
210
0.0
220
0.0
230
1.0
100
AcDbArc
 50
41.607272
 51
46.577474
  0
ARC
  5
3CE
100
AcDbEntity
  8
0
 62
     7
100
AcDbCircle
 10
36.394218
 20
6.58061
 30
0.0
 40
1.579242
210
0.0
220
0.0
230
1.0
100
AcDbArc
 50
46.577495
 51
58.822771
  0
ARC
  5
3CF
100
AcDbEntity
  8
0
 62
     7
100
AcDbCircle
 10
36.394333
 20
6.580808
 30
0.0
 40
1.579011
210
0.0
220
0.0
230
1.0
100
AcDbArc
 50
58.822743
 51
71.069396
  0
ARC
  5
3D0
100
AcDbEntity
  8
0
 62
     7
100
AcDbCircle
 10
36.399422
 20
6.595636
 30
0.0
 40
1.563333
210
0.0
220
0.0
230
1.0
100
AcDbArc
 50
71.069341
 51
83.379746
  0
ARC
  5
3D1
100
AcDbEntity
  8
0
 62
     7
100
AcDbCircle
 10
36.405544
 20
6.648405
 30
0.0
 40
1.510211
210
0.0
220
0.0
230
1.0
100
AcDbArc
 50
83.379746
 51
96.013485
  0
ARC
  5
3D2
100
AcDbEntity
  8
0
 62
     7
100
AcDbCircle
 10
36.381618
 20
6.43822
 30
0.0
 40
1.110869
210
0.0
220
0.0
230
1.0
100
AcDbArc
 50
74.569587
 51
82.853009
  0
ARC
  5
3D3
100
AcDbEntity
  8
0
 62
     7
100
AcDbCircle
 10
36.442585
 20
6.659101
 30
0.0
 40
0.881729
210
0.0
220
0.0
230
1.0
100
AcDbArc
 50
64.719621
 51
74.569567
  0
ARC
  5
3D4
100
AcDbEntity
  8
0
 62
     7
100
AcDbCircle
 10
36.4533
 20
6.681784
 30
0.0
 40
0.856644
210
0.0
220
0.0
230
1.0
100
AcDbArc
 50
54.714798
 51
64.719615
  0
ARC
  5
3D5
100
AcDbEntity
  8
0
 62
     7
100
AcDbCircle
 10
36.380695
 20
6.579186
 30
0.0
 40
0.982331
210
0.0
220
0.0
230
1.0
100
AcDbArc
 50
45.686169
 51
54.71475
  0
ARC
  5
3D6
100
AcDbEntity
  8
0
 62
     7
100
AcDbCircle
 10
36.280979
 20
6.477057
 30
0.0
 40
1.125067
210
0.0
220
0.0
230
1.0
100
AcDbArc
 50
36.400779
 51
45.686094
  0
ARC
  5
3D7
100
AcDbEntity
  8
0
 62
     7
100
AcDbCircle
 10
36.468082
 20
6.615004
 30
0.0
 40
0.89261
210
0.0
220
0.0
230
1.0
100
AcDbArc
 50
25.355868
 51
36.40081
  0
ARC
  5
3D8
100
AcDbEntity
  8
0
 62
     7
100
AcDbCircle
 10
36.466507
 20
6.614255
 30
0.0
 40
0.894358
210
0.0
220
0.0
230
1.0
100
AcDbArc
 50
14.322855
 51
25.355908
  0
ARC
  5
3D9
100
AcDbEntity
  8
0
 62
     7
100
AcDbCircle
 10
36.234196
 20
6.554941
 30
0.0
 40
1.134115
210
0.0
220
0.0
230
1.0
100
AcDbArc
 50
5.089495
 51
14.322868
  0
ARC
  5
3DA
100
AcDbEntity
  8
0
 62
     7
100
AcDbCircle
 10
28.094952
 20
5.830031
 30
0.0
 40
9.30558
210
0.0
220
0.0
230
1.0
100
AcDbArc
 50
4.821615
 51
5.08953
  0
ARC
  5
3DB
100
AcDbEntity
  8
0
 62
     7
100
AcDbCircle
 10
31.148537
 20
6.087599
 30
0.0
 40
6.241154
210
0.0
220
0.0
230
1.0
100
AcDbArc
 50
4.460275
 51
4.821696
  0
ARC
  5
3DC
100
AcDbEntity
  8
0
 62
     7
100
AcDbCircle
 10
29.65373
 20
5.970988
 30
0.0
 40
7.7405
210
0.0
220
0.0
230
1.0
100
AcDbArc
 50
4.215823
 51
4.460362
  0
ARC
  5
3DD
100
AcDbEntity
  8
0
 62
     7
100
AcDbCircle
 10
37.210579
 20
6.528024
 30
0.0
 40
0.163151
210
0.0
220
0.0
230
1.0
100
AcDbArc
 50
0.293599
 51
4.215915
  0
ARC
  5
3DE
100
AcDbEntity
  8
0
 62
     7
100
AcDbCircle
 10
37.363125
 20
6.528806
 30
0.0
 40
0.010604
210
0.0
220
0.0
230
1.0
100
AcDbArc
 50
273.702261
 51
0.293576
  0
ARC
  5
3DF
100
AcDbEntity
  8
0
 62
     7
100
AcDbCircle
 10
37.180561
 20
9.350204
 30
0.0
 40
2.837901
210
0.0
220
0.0
230
1.0
100
AcDbArc
 50
272.015969
 51
273.702261
  0
ARC
  5
3E0
100
AcDbEntity
  8
0
 62
     7
100
AcDbCircle
 10
37.079632
 20
12.217419
 30
0.0
 40
5.706892
210
0.0
220
0.0
230
1.0
100
AcDbArc
 50
270.5598
 51
272.015996
  0
LINE
  5
3E1
100
AcDbEntity
  8
0
 62
     7
 48
0.009102
100
AcDbLine
 10
37.135384
 20
6.510798
 30
0.0
 11
36.771313
 21
6.507656
 31
0.0
210
0.0
220
0.0
230
1.0
  0
ARC
  5
3E2
100
AcDbEntity
  8
0
 62
     7
100
AcDbCircle
 10
37.361576
 20
-72.263817
 30
0.0
 40
78.773674
210
0.0
220
0.0
230
1.0
100
AcDbArc
 50
90.429328
 51
90.735061
  0
ARC
  5
3E3
100
AcDbEntity
  8
0
 62
     7
100
AcDbCircle
 10
36.390526
 20
3.422116
 30
0.0
 40
3.081521
210
0.0
220
0.0
230
1.0
100
AcDbArc
 50
90.735006
 51
93.937634
  0
ARC
  5
3E4
100
AcDbEntity
  8
0
 62
     7
100
AcDbCircle
 10
36.24762
 20
5.498271
 30
0.0
 40
1.000456
210
0.0
220
0.0
230
1.0
100
AcDbArc
 50
93.937586
 51
100.844676
  0
ARC
  5
3E5
100
AcDbEntity
  8
0
 62
     7
100
AcDbCircle
 10
36.392738
 20
4.74072
 30
0.0
 40
1.771781
210
0.0
220
0.0
230
1.0
100
AcDbArc
 50
100.844622
 51
105.347035
  0
ARC
  5
3E6
100
AcDbEntity
  8
0
 62
     7
100
AcDbCircle
 10
36.206867
 20
5.417968
 30
0.0
 40
1.069489
210
0.0
220
0.0
230
1.0
100
AcDbArc
 50
105.347014
 51
110.455347
  0
ARC
  5
3E7
100
AcDbEntity
  8
0
 62
     7
100
AcDbCircle
 10
36.514462
 20
4.593307
 30
0.0
 40
1.949649
210
0.0
220
0.0
230
1.0
100
AcDbArc
 50
110.455313
 51
113.714078
  0
ARC
  5
3E8
100
AcDbEntity
  8
0
 62
     7
100
AcDbCircle
 10
36.535854
 20
4.544601
 30
0.0
 40
2.002844
210
0.0
220
0.0
230
1.0
100
AcDbArc
 50
113.71405
 51
116.942565
  0
ARC
  5
3E9
100
AcDbEntity
  8
0
 62
     7
100
AcDbCircle
 10
36.223625
 20
5.158903
 30
0.0
 40
1.313749
210
0.0
220
0.0
230
1.0
100
AcDbArc
 50
116.942551
 51
121.37074
  0
LINE
  5
3EA
100
AcDbEntity
  8
0
 62
     7
 48
0.002865
100
AcDbLine
 10
35.539726
 20
6.280605
 30
0.0
 11
35.441872
 21
6.220944
 31
0.0
210
0.0
220
0.0
230
1.0
  0
LINE
  5
3EB
100
AcDbEntity
  8
0
 62
     7
 48
0.006558
100
AcDbLine
 10
35.441872
 20
6.220944
 30
0.0
 11
35.446274
 21
6.483246
 31
0.0
210
0.0
220
0.0
230
1.0
  0
ARC
  5
3EC
100
AcDbEntity
  8
0
 62
     7
100
AcDbCircle
 10
51.102474
 20
6.22072
 30
0.0
 40
15.658404
210
0.0
220
0.0
230
1.0
100
AcDbArc
 50
178.496858
 51
179.039339
  0
ARC
  5
3ED
100
AcDbEntity
  8
0
 62
     7
100
AcDbCircle
 10
37.12064
 20
6.587612
 30
0.0
 40
1.671753
210
0.0
220
0.0
230
1.0
100
AcDbArc
 50
175.688079
 51
178.496803
  0
ARC
  5
3EE
100
AcDbEntity
  8
0
 62
     7
100
AcDbCircle
 10
36.118839
 20
6.663146
 30
0.0
 40
0.667116
210
0.0
220
0.0
230
1.0
100
AcDbArc
 50
170.734567
 51
175.688052
  0
ARC
  5
3EF
100
AcDbEntity
  8
0
 62
     7
100
AcDbCircle
 10
35.969925
 20
6.687441
 30
0.0
 40
0.51623
210
0.0
220
0.0
230
1.0
100
AcDbArc
 50
164.731158
 51
170.734621
  0
ARC
  5
3F0
100
AcDbEntity
  8
0
 62
     7
100
AcDbCircle
 10
36.426071
 20
6.562919
 30
0.0
 40
0.98907
210
0.0
220
0.0
230
1.0
100
AcDbArc
 50
144.553058
 51
164.731213
  0
ARC
  5
3F1
100
AcDbEntity
  8
0
 62
     7
100
AcDbCircle
 10
36.426514
 20
6.562609
 30
0.0
 40
0.989605
210
0.0
220
0.0
230
1.0
100
AcDbArc
 50
124.383154
 51
144.553113
  0
ARC
  5
3F2
100
AcDbEntity
  8
0
 62
     7
100
AcDbCircle
 10
36.416252
 20
6.5776
 30
0.0
 40
0.971442
210
0.0
220
0.0
230
1.0
100
AcDbArc
 50
104.005572
 51
124.383141
  0
ARC
  5
3F3
100
AcDbEntity
  8
0
 62
     7
100
AcDbCircle
 10
36.404839
 20
6.623366
 30
0.0
 40
0.924274
210
0.0
220
0.0
230
1.0
100
AcDbArc
 50
82.853043
 51
104.00551
  0
ARC
  5
3F4
100
AcDbEntity
  8
0
 62
     7
100
AcDbCircle
 10
39.062283
 20
7.832858
 30
0.0
 40
0.327001
210
0.0
220
0.0
230
1.0
100
AcDbArc
 50
105.78735
 51
113.9854
  0
ARC
  5
3F5
100
AcDbEntity
  8
0
 62
     7
100
AcDbCircle
 10
39.050781
 20
7.858713
 30
0.0
 40
0.298702
210
0.0
220
0.0
230
1.0
100
AcDbArc
 50
113.985359
 51
122.759236
  0
ARC
  5
3F6
100
AcDbEntity
  8
0
 62
     7
100
AcDbCircle
 10
39.052372
 20
7.856237
 30
0.0
 40
0.301648
210
0.0
220
0.0
230
1.0
100
AcDbArc
 50
122.759168
 51
131.487739
  0
ARC
  5
3F7
100
AcDbEntity
  8
0
 62
     7
100
AcDbCircle
 10
39.078884
 20
7.826254
 30
0.0
 40
0.341671
210
0.0
220
0.0
230
1.0
100
AcDbArc
 50
131.487726
 51
139.437643
  0
ARC
  5
3F8
100
AcDbEntity
  8
0
 62
     7
100
AcDbCircle
 10
38.983009
 20
7.908325
 30
0.0
 40
0.215465
210
0.0
220
0.0
230
1.0
100
AcDbArc
 50
139.437725
 51
161.34098
  0
ARC
  5
3F9
100
AcDbEntity
  8
0
 62
     7
100
AcDbCircle
 10
39.125256
 20
7.860288
 30
0.0
 40
0.365607
210
0.0
220
0.0
230
1.0
100
AcDbArc
 50
161.340994
 51
176.082769
  0
ARC
  5
3FA
100
AcDbEntity
  8
0
 62
     7
100
AcDbCircle
 10
41.229916
 20
7.716174
 30
0.0
 40
2.47519
210
0.0
220
0.0
230
1.0
100
AcDbArc
 50
176.08281
 51
180.068597
  0
LINE
  5
3FB
100
AcDbEntity
  8
0
 62
     7
 48
0.014603
100
AcDbLine
 10
38.754726
 20
7.71321
 30
0.0
 11
38.756371
 21
7.129098
 31
0.0
210
0.0
220
0.0
230
1.0
  0
LINE
  5
3FC
100
AcDbEntity
  8
0
 62
     7
 48
0.019589
100
AcDbLine
 10
38.756371
 20
7.129098
 30
0.0
 11
38.759838
 21
6.345551
 31
0.0
210
0.0
220
0.0
230
1.0
  0
LINE
  5
3FD
100
AcDbEntity
  8
0
 62
     7
 48
0.002705
100
AcDbLine
 10
38.759838
 20
6.345551
 30
0.0
 11
38.785931
 21
6.240551
 31
0.0
210
0.0
220
0.0
230
1.0
  0
ARC
  5
3FE
100
AcDbEntity
  8
0
 62
     7
100
AcDbCircle
 10
40.498459
 20
6.666118
 30
0.0
 40
1.764614
210
0.0
220
0.0
230
1.0
100
AcDbArc
 50
193.955438
 51
202.436839
  0
ARC
  5
3FF
100
AcDbEntity
  8
0
 62
     7
100
AcDbCircle
 10
40.407753
 20
6.628664
 30
0.0
 40
1.666482
210
0.0
220
0.0
230
1.0
100
AcDbArc
 50
202.436839
 51
211.29013
  0
ARC
  5
400
100
AcDbEntity
  8
0
 62
     7
100
AcDbCircle
 10
40.3522
 20
6.594899
 30
0.0
 40
1.601471
210
0.0
220
0.0
230
1.0
100
AcDbArc
 50
211.290102
 51
220.324872
  0
ARC
  5
401
100
AcDbEntity
  8
0
 62
     7
100
AcDbCircle
 10
40.245434
 20
6.504274
 30
0.0
 40
1.461428
210
0.0
220
0.0
230
1.0
100
AcDbArc
 50
220.324899
 51
230.00146
  0
ARC
  5
402
100
AcDbEntity
  8
0
 62
     7
100
AcDbCircle
 10
40.426785
 20
6.720415
 30
0.0
 40
1.743572
210
0.0
220
0.0
230
1.0
100
AcDbArc
 50
230.001433
 51
238.58444
  0
ARC
  5
403
100
AcDbEntity
  8
0
 62
     7
100
AcDbCircle
 10
40.321068
 20
6.547321
 30
0.0
 40
1.540748
210
0.0
220
0.0
230
1.0
100
AcDbArc
 50
238.584358
 51
248.001461
  0
ARC
  5
404
100
AcDbEntity
  8
0
 62
     7
100
AcDbCircle
 10
40.296677
 20
6.48694
 30
0.0
 40
1.475628
210
0.0
220
0.0
230
1.0
100
AcDbArc
 50
248.001379
 51
257.632854
  0
ARC
  5
405
100
AcDbEntity
  8
0
 62
     7
100
AcDbCircle
 10
40.287449
 20
6.444858
 30
0.0
 40
1.432546
210
0.0
220
0.0
230
1.0
100
AcDbArc
 50
257.63282
 51
267.480696
  0
ARC
  5
406
100
AcDbEntity
  8
0
 62
     7
100
AcDbCircle
 10
40.296597
 20
6.652719
 30
0.0
 40
1.640606
210
0.0
220
0.0
230
1.0
100
AcDbArc
 50
267.480723
 51
271.277489
  0
ARC
  5
407
100
AcDbEntity
  8
0
 62
     7
100
AcDbCircle
 10
40.326351
 20
5.318405
 30
0.0
 40
0.305961
210
0.0
220
0.0
230
1.0
100
AcDbArc
 50
271.277461
 51
284.44694
  0
ARC
  5
408
100
AcDbEntity
  8
0
 62
     7
100
AcDbCircle
 10
40.353062
 20
5.214731
 30
0.0
 40
0.198903
210
0.0
220
0.0
230
1.0
100
AcDbArc
 50
284.446865
 51
301.747509
  0
ARC
  5
409
100
AcDbEntity
  8
0
 62
     7
100
AcDbCircle
 10
40.24593
 20
5.387863
 30
0.0
 40
0.402498
210
0.0
220
0.0
230
1.0
100
AcDbArc
 50
301.747536
 51
311.958212
  0
ARC
  5
40A
100
AcDbEntity
  8
0
 62
     7
100
AcDbCircle
 10
40.250683
 20
5.38258
 30
0.0
 40
0.395394
210
0.0
220
0.0
230
1.0
100
AcDbArc
 50
311.958235
 51
321.662459
  0
ARC
  5
40B
100
AcDbEntity
  8
0
 62
     7
100
AcDbCircle
 10
40.377621
 20
5.282197
 30
0.0
 40
0.233561
210
0.0
220
0.0
230
1.0
100
AcDbArc
 50
321.662377
 51
336.056509
  0
ARC
  5
40C
100
AcDbEntity
  8
0
 62
     7
100
AcDbCircle
 10
40.37661
 20
5.282646
 30
0.0
 40
0.234664
210
0.0
220
0.0
230
1.0
100
AcDbArc
 50
336.056454
 51
350.411108
  0
ARC
  5
40D
100
AcDbEntity
  8
0
 62
     7
100
AcDbCircle
 10
40.21143
 20
5.310551
 30
0.0
 40
0.402188
210
0.0
220
0.0
230
1.0
100
AcDbArc
 50
350.411079
 51
0.000008
  0
ARC
  5
40E
100
AcDbEntity
  8
0
 62
     7
100
AcDbCircle
 10
40.223103
 20
5.310551
 30
0.0
 40
0.390512
210
0.0
220
0.0
230
1.0
100
AcDbArc
 50
359.999983
 51
9.282785
  0
ARC
  5
40F
100
AcDbEntity
  8
0
 62
     7
100
AcDbCircle
 10
40.352665
 20
5.331728
 30
0.0
 40
0.259232
210
0.0
220
0.0
230
1.0
100
AcDbArc
 50
9.282728
 51
21.901615
  0
ARC
  5
410
100
AcDbEntity
  8
0
 62
     7
100
AcDbCircle
 10
40.360832
 20
5.335011
 30
0.0
 40
0.25043
210
0.0
220
0.0
230
1.0
100
AcDbArc
 50
21.901587
 51
34.769054
  0
ARC
  5
411
100
AcDbEntity
  8
0
 62
     7
100
AcDbCircle
 10
40.285873
 20
5.282973
 30
0.0
 40
0.341684
210
0.0
220
0.0
230
1.0
100
AcDbArc
 50
34.768989
 51
44.962971
  0
ARC
  5
412
100
AcDbEntity
  8
0
 62
     7
100
AcDbCircle
 10
40.297493
 20
5.294582
 30
0.0
 40
0.325257
210
0.0
220
0.0
230
1.0
100
AcDbArc
 50
44.962879
 51
56.198281
  0
ARC
  5
413
100
AcDbEntity
  8
0
 62
     7
100
AcDbCircle
 10
40.339203
 20
5.356884
 30
0.0
 40
0.250281
210
0.0
220
0.0
230
1.0
100
AcDbArc
 50
56.198284
 51
69.872521
  0
ARC
  5
414
100
AcDbEntity
  8
0
 62
     7
100
AcDbCircle
 10
40.303284
 20
5.258876
 30
0.0
 40
0.354664
210
0.0
220
0.0
230
1.0
100
AcDbArc
 50
69.872555
 51
80.980833
  0
ARC
  5
415
100
AcDbEntity
  8
0
 62
     7
100
AcDbCircle
 10
40.181438
 20
4.49122
 30
0.0
 40
1.131929
210
0.0
220
0.0
230
1.0
100
AcDbArc
 50
80.980854
 51
85.659206
  0
ARC
  5
416
100
AcDbEntity
  8
0
 62
     7
100
AcDbCircle
 10
40.397465
 20
7.337197
 30
0.0
 40
1.722235
210
0.0
220
0.0
230
1.0
100
AcDbArc
 50
262.360595
 51
265.659248
  0
ARC
  5
417
100
AcDbEntity
  8
0
 62
     7
100
AcDbCircle
 10
40.271008
 20
6.394411
 30
0.0
 40
0.771006
210
0.0
220
0.0
230
1.0
100
AcDbArc
 50
256.345247
 51
262.360595
  0
ARC
  5
418
100
AcDbEntity
  8
0
 62
     7
100
AcDbCircle
 10
40.246761
 20
6.294584
 30
0.0
 40
0.668277
210
0.0
220
0.0
230
1.0
100
AcDbArc
 50
249.807909
 51
256.345193
  0
ARC
  5
419
100
AcDbEntity
  8
0
 62
     7
100
AcDbCircle
 10
40.360184
 20
6.602988
 30
0.0
 40
0.996875
210
0.0
220
0.0
230
1.0
100
AcDbArc
 50
244.963427
 51
249.807861
  0
ARC
  5
41A
100
AcDbEntity
  8
0
 62
     7
100
AcDbCircle
 10
40.540649
 20
6.989352
 30
0.0
 40
1.423308
210
0.0
220
0.0
230
1.0
100
AcDbArc
 50
241.344738
 51
244.963481
  0
ARC
  5
41B
100
AcDbEntity
  8
0
 62
     7
100
AcDbCircle
 10
40.242016
 20
6.442878
 30
0.0
 40
0.800559
210
0.0
220
0.0
230
1.0
100
AcDbArc
 50
235.777232
 51
241.34482
  0
ARC
  5
41C
100
AcDbEntity
  8
0
 62
     7
100
AcDbCircle
 10
40.232582
 20
6.42901
 30
0.0
 40
0.783789
210
0.0
220
0.0
230
1.0
100
AcDbArc
 50
230.141397
 51
235.77726
  0
ARC
  5
41D
100
AcDbEntity
  8
0
 62
     7
100
AcDbCircle
 10
40.570251
 20
6.833457
 30
0.0
 40
1.310665
210
0.0
220
0.0
230
1.0
100
AcDbArc
 50
226.306806
 51
230.14137
  0
ARC
  5
41E
100
AcDbEntity
  8
0
 62
     7
100
AcDbCircle
 10
40.385754
 20
6.640341
 30
0.0
 40
1.043581
210
0.0
220
0.0
230
1.0
100
AcDbArc
 50
219.048692
 51
226.306792
  0
ARC
  5
41F
100
AcDbEntity
  8
0
 62
     7
100
AcDbCircle
 10
40.340405
 20
6.603554
 30
0.0
 40
0.985189
210
0.0
220
0.0
230
1.0
100
AcDbArc
 50
211.470296
 51
219.048678
  0
ARC
  5
420
100
AcDbEntity
  8
0
 62
     7
100
AcDbCircle
 10
40.351311
 20
6.610229
 30
0.0
 40
0.997973
210
0.0
220
0.0
230
1.0
100
AcDbArc
 50
203.94269
 51
211.470242
  0
ARC
  5
421
100
AcDbEntity
  8
0
 62
     7
100
AcDbCircle
 10
40.451069
 20
6.654523
 30
0.0
 40
1.107122
210
0.0
220
0.0
230
1.0
100
AcDbArc
 50
196.978821
 51
203.94269
  0
ARC
  5
422
100
AcDbEntity
  8
0
 62
     7
100
AcDbCircle
 10
39.740376
 20
6.437531
 30
0.0
 40
0.36404
210
0.0
220
0.0
230
1.0
100
AcDbArc
 50
186.127604
 51
196.978875
  0
ARC
  5
423
100
AcDbEntity
  8
0
 62
     7
100
AcDbCircle
 10
40.668362
 20
6.537158
 30
0.0
 40
1.297362
210
0.0
220
0.0
230
1.0
100
AcDbArc
 50
181.913459
 51
186.127672
  0
ARC
  5
424
100
AcDbEntity
  8
0
 62
     7
100
AcDbCircle
 10
46.361507
 20
6.72736
 30
0.0
 40
6.993683
210
0.0
220
0.0
230
1.0
100
AcDbArc
 50
180.492793
 51
181.913486
  0
LINE
  5
425
100
AcDbEntity
  8
0
 62
     7
 48
0.012584
100
AcDbLine
 10
39.368084
 20
6.667209
 30
0.0
 11
39.364159
 21
7.170551
 31
0.0
210
0.0
220
0.0
230
1.0
  0
LINE
  5
426
100
AcDbEntity
  8
0
 62
     7
 48
0.012469
100
AcDbLine
 10
39.364159
 20
7.170551
 30
0.0
 11
39.360283
 21
7.669284
 31
0.0
210
0.0
220
0.0
230
1.0
  0
ARC
  5
427
100
AcDbEntity
  8
0
 62
     7
100
AcDbCircle
 10
32.241779
 20
7.608366
 30
0.0
 40
7.118762
210
0.0
220
0.0
230
1.0
100
AcDbArc
 50
0.490317
 51
1.873191
  0
ARC
  5
428
100
AcDbEntity
  8
0
 62
     7
100
AcDbCircle
 10
37.917229
 20
7.793982
 30
0.0
 40
1.440279
210
0.0
220
0.0
230
1.0
100
AcDbArc
 50
1.873211
 51
5.524018
  0
ARC
  5
429
100
AcDbEntity
  8
0
 62
     7
100
AcDbCircle
 10
39.20583
 20
7.918603
 30
0.0
 40
0.145668
210
0.0
220
0.0
230
1.0
100
AcDbArc
 50
5.524024
 51
25.167423
  0
ARC
  5
42A
100
AcDbEntity
  8
0
 62
     7
100
AcDbCircle
 10
39.086185
 20
7.862387
 30
0.0
 40
0.277862
210
0.0
220
0.0
230
1.0
100
AcDbArc
 50
25.167447
 51
46.901273
  0
ARC
  5
42B
100
AcDbEntity
  8
0
 62
     7
100
AcDbCircle
 10
39.040295
 20
7.813346
 30
0.0
 40
0.345024
210
0.0
220
0.0
230
1.0
100
AcDbArc
 50
46.90126
 51
65.379117
  0
ARC
  5
42C
100
AcDbEntity
  8
0
 62
     7
100
AcDbCircle
 10
39.040691
 20
7.814206
 30
0.0
 40
0.344077
210
0.0
220
0.0
230
1.0
100
AcDbArc
 50
65.379158
 51
83.883882
  0
ARC
  5
42D
100
AcDbEntity
  8
0
 62
     7
100
AcDbCircle
 10
39.048073
 20
7.88312
 30
0.0
 40
0.27477
210
0.0
220
0.0
230
1.0
100
AcDbArc
 50
83.883903
 51
105.787377
  0
ARC
  5
42E
100
AcDbEntity
  8
0
 62
     7
100
AcDbCircle
 10
43.801102
 20
7.165119
 30
0.0
 40
0.99615
210
0.0
220
0.0
230
1.0
100
AcDbArc
 50
98.610959
 51
107.78141
  0
ARC
  5
42F
100
AcDbEntity
  8
0
 62
     7
100
AcDbCircle
 10
43.77396
 20
7.24975
 30
0.0
 40
0.907273
210
0.0
220
0.0
230
1.0
100
AcDbArc
 50
107.781341
 51
117.617565
  0
ARC
  5
430
100
AcDbEntity
  8
0
 62
     7
100
AcDbCircle
 10
43.778019
 20
7.241987
 30
0.0
 40
0.916035
210
0.0
220
0.0
230
1.0
100
AcDbArc
 50
117.617579
 51
127.40371
  0
ARC
  5
431
100
AcDbEntity
  8
0
 62
     7
100
AcDbCircle
 10
43.852818
 20
7.144174
 30
0.0
 40
1.039169
210
0.0
220
0.0
230
1.0
100
AcDbArc
 50
127.403792
 51
136.306738
  0
ARC
  5
432
100
AcDbEntity
  8
0
 62
     7
100
AcDbCircle
 10
43.825275
 20
7.170483
 30
0.0
 40
1.001083
210
0.0
220
0.0
230
1.0
100
AcDbArc
 50
136.30682
 51
144.000824
  0
ARC
  5
433
100
AcDbEntity
  8
0
 62
     7
100
AcDbCircle
 10
43.763134
 20
7.215634
 30
0.0
 40
0.924267
210
0.0
220
0.0
230
1.0
100
AcDbArc
 50
144.000892
 51
152.169648
  0
ARC
  5
434
100
AcDbEntity
  8
0
 62
     7
100
AcDbCircle
 10
43.748055
 20
7.223596
 30
0.0
 40
0.907217
210
0.0
220
0.0
230
1.0
100
AcDbArc
 50
152.169689
 51
160.417634
  0
ARC
  5
435
100
AcDbEntity
  8
0
 62
     7
100
AcDbCircle
 10
43.758602
 20
7.219843
 30
0.0
 40
0.918413
210
0.0
220
0.0
230
1.0
100
AcDbArc
 50
160.417634
 51
168.590051
  0
ARC
  5
436
100
AcDbEntity
  8
0
 62
     7
100
AcDbCircle
 10
43.443768
 20
7.283383
 30
0.0
 40
0.597228
210
0.0
220
0.0
230
1.0
100
AcDbArc
 50
168.590078
 51
177.509281
  0
ARC
  5
437
100
AcDbEntity
  8
0
 62
     7
100
AcDbCircle
 10
44.736004
 20
7.227175
 30
0.0
 40
1.890686
210
0.0
220
0.0
230
1.0
100
AcDbArc
 50
177.509322
 51
181.288223
  0
ARC
  5
438
100
AcDbEntity
  8
0
 62
     7
100
AcDbCircle
 10
44.736496
 20
7.227184
 30
0.0
 40
1.891179
210
0.0
220
0.0
230
1.0
100
AcDbArc
 50
181.28821
 51
185.018531
  0
ARC
  5
439
100
AcDbEntity
  8
0
 62
     7
100
AcDbCircle
 10
43.323055
 20
7.103064
 30
0.0
 40
0.472299
210
0.0
220
0.0
230
1.0
100
AcDbArc
 50
185.018504
 51
195.479622
  0
ARC
  5
43A
100
AcDbEntity
  8
0
 62
     7
100
AcDbCircle
 10
43.832367
 20
7.244116
 30
0.0
 40
1.000783
210
0.0
220
0.0
230
1.0
100
AcDbArc
 50
195.47969
 51
211.921895
  0
ARC
  5
43B
100
AcDbEntity
  8
0
 62
     7
100
AcDbCircle
 10
43.772308
 20
7.206701
 30
0.0
 40
0.930023
210
0.0
220
0.0
230
1.0
100
AcDbArc
 50
211.921895
 51
229.293634
  0
ARC
  5
43C
100
AcDbEntity
  8
0
 62
     7
100
AcDbCircle
 10
43.766468
 20
7.199909
 30
0.0
 40
0.921065
210
0.0
220
0.0
230
1.0
100
AcDbArc
 50
229.293634
 51
246.757656
  0
ARC
  5
43D
100
AcDbEntity
  8
0
 62
     7
100
AcDbCircle
 10
43.783337
 20
7.239201
 30
0.0
 40
0.963827
210
0.0
220
0.0
230
1.0
100
AcDbArc
 50
246.757711
 51
263.637403
  0
ARC
  5
43E
100
AcDbEntity
  8
0
 62
     7
100
AcDbCircle
 10
43.760422
 20
7.033683
 30
0.0
 40
0.757037
210
0.0
220
0.0
230
1.0
100
AcDbArc
 50
263.637458
 51
267.993944
  0
ARC
  5
43F
100
AcDbEntity
  8
0
 62
     7
100
AcDbCircle
 10
44.092442
 20
16.512697
 30
0.0
 40
10.241863
210
0.0
220
0.0
230
1.0
100
AcDbArc
 50
267.993944
 51
268.642538
  0
ARC
  5
440
100
AcDbEntity
  8
0
 62
     7
100
AcDbCircle
 10
44.10487
 20
17.036777
 30
0.0
 40
10.766091
210
0.0
220
0.0
230
1.0
100
AcDbArc
 50
268.642456
 51
269.371702
  0
ARC
  5
441
100
AcDbEntity
  8
0
 62
     7
100
AcDbCircle
 10
44.13121
 20
19.437807
 30
0.0
 40
13.167263
210
0.0
220
0.0
230
1.0
100
AcDbArc
 50
269.371675
 51
269.998713
  0
LINE
  5
442
100
AcDbEntity
  8
0
 62
     7
 48
0.008947
100
AcDbLine
 10
44.130917
 20
6.270544
 30
0.0
 11
44.488811
 21
6.270536
 31
0.0
210
0.0
220
0.0
230
1.0
  0
LINE
  5
443
100
AcDbEntity
  8
0
 62
     7
 48
0.001664
100
AcDbLine
 10
44.488811
 20
6.270536
 30
0.0
 11
44.548813
 21
6.24173
 31
0.0
210
0.0
220
0.0
230
1.0
  0
ARC
  5
444
100
AcDbEntity
  8
0
 62
     7
100
AcDbCircle
 10
44.394062
 20
5.919396
 30
0.0
 40
0.357556
210
0.0
220
0.0
230
1.0
100
AcDbArc
 50
49.373672
 51
64.354398
  0
ARC
  5
445
100
AcDbEntity
  8
0
 62
     7
100
AcDbCircle
 10
44.426262
 20
5.956933
 30
0.0
 40
0.308099
210
0.0
220
0.0
230
1.0
100
AcDbArc
 50
32.623623
 51
49.373607
  0
ARC
  5
446
100
AcDbEntity
  8
0
 62
     7
100
AcDbCircle
 10
44.429901
 20
5.959262
 30
0.0
 40
0.303782
210
0.0
220
0.0
230
1.0
100
AcDbArc
 50
15.742608
 51
32.623664
  0
ARC
  5
447
100
AcDbEntity
  8
0
 62
     7
100
AcDbCircle
 10
44.396381
 20
5.949811
 30
0.0
 40
0.338606
210
0.0
220
0.0
230
1.0
100
AcDbArc
 50
0.181051
 51
15.742693
  0
ARC
  5
448
100
AcDbEntity
  8
0
 62
     7
100
AcDbCircle
 10
44.243515
 20
5.949328
 30
0.0
 40
0.491476
210
0.0
220
0.0
230
1.0
100
AcDbArc
 50
356.700728
 51
0.181072
  0
ARC
  5
449
100
AcDbEntity
  8
0
 62
     7
100
AcDbCircle
 10
44.147148
 20
5.954885
 30
0.0
 40
0.587999
210
0.0
220
0.0
230
1.0
100
AcDbArc
 50
353.658234
 51
356.700701
  0
ARC
  5
44A
100
AcDbEntity
  8
0
 62
     7
100
AcDbCircle
 10
44.210033
 20
5.947895
 30
0.0
 40
0.524726
210
0.0
220
0.0
230
1.0
100
AcDbArc
 50
350.572518
 51
353.658289
  0
ARC
  5
44B
100
AcDbEntity
  8
0
 62
     7
100
AcDbCircle
 10
44.600266
 20
5.8831
 30
0.0
 40
0.12915
210
0.0
220
0.0
230
1.0
100
AcDbArc
 50
341.826325
 51
350.572518
  0
ARC
  5
44C
100
AcDbEntity
  8
0
 62
     7
100
AcDbCircle
 10
44.428856
 20
5.93937
 30
0.0
 40
0.309561
210
0.0
220
0.0
230
1.0
100
AcDbArc
 50
329.456169
 51
341.826216
  0
ARC
  5
44D
100
AcDbEntity
  8
0
 62
     7
100
AcDbCircle
 10
44.411701
 20
5.949494
 30
0.0
 40
0.329481
210
0.0
220
0.0
230
1.0
100
AcDbArc
 50
317.651307
 51
329.456169
  0
ARC
  5
44E
100
AcDbEntity
  8
0
 62
     7
100
AcDbCircle
 10
44.403622
 20
5.95686
 30
0.0
 40
0.340415
210
0.0
220
0.0
230
1.0
100
AcDbArc
 50
306.04531
 51
317.651307
  0
ARC
  5
44F
100
AcDbEntity
  8
0
 62
     7
100
AcDbCircle
 10
44.392956
 20
5.971513
 30
0.0
 40
0.35854
210
0.0
220
0.0
230
1.0
100
AcDbArc
 50
294.882131
 51
306.045286
  0
LINE
  5
450
100
AcDbEntity
  8
0
 62
     7
 48
0.001516
100
AcDbLine
 10
44.543812
 20
5.646257
 30
0.0
 11
44.488811
 21
5.620747
 31
0.0
210
0.0
220
0.0
230
1.0
  0
LINE
  5
451
100
AcDbEntity
  8
0
 62
     7
 48
0.017653
100
AcDbLine
 10
44.488811
 20
5.620747
 30
0.0
 11
43.782681
 21
5.620649
 31
0.0
210
0.0
220
0.0
230
1.0
  0
ARC
  5
452
100
AcDbEntity
  8
0
 62
     7
100
AcDbCircle
 10
43.791531
 20
-58.688786
 30
0.0
 40
64.309441
210
0.0
220
0.0
230
1.0
100
AcDbArc
 50
90.007891
 51
90.267097
  0
ARC
  5
453
100
AcDbEntity
  8
0
 62
     7
100
AcDbCircle
 10
43.620617
 20
-22.033491
 30
0.0
 40
27.653742
210
0.0
220
0.0
230
1.0
100
AcDbArc
 50
90.267022
 51
90.754035
  0
ARC
  5
454
100
AcDbEntity
  8
0
 62
     7
100
AcDbCircle
 10
43.848007
 20
-39.314682
 30
0.0
 40
44.936432
210
0.0
220
0.0
230
1.0
100
AcDbArc
 50
90.753967
 51
90.997128
  0
ARC
  5
455
100
AcDbEntity
  8
0
 62
     7
100
AcDbCircle
 10
43.07029
 20
5.368894
 30
0.0
 40
0.246085
210
0.0
220
0.0
230
1.0
100
AcDbArc
 50
90.997094
 51
100.738378
  0
ARC
  5
456
100
AcDbEntity
  8
0
 62
     7
100
AcDbCircle
 10
43.094093
 20
5.243373
 30
0.0
 40
0.373843
210
0.0
220
0.0
230
1.0
100
AcDbArc
 50
100.738392
 51
112.506678
  0
ARC
  5
457
100
AcDbEntity
  8
0
 62
     7
100
AcDbCircle
 10
43.06543
 20
5.312555
 30
0.0
 40
0.298958
210
0.0
220
0.0
230
1.0
100
AcDbArc
 50
112.506651
 51
126.422253
  0
ARC
  5
458
100
AcDbEntity
  8
0
 62
     7
100
AcDbCircle
 10
43.058376
 20
5.322116
 30
0.0
 40
0.287077
210
0.0
220
0.0
230
1.0
100
AcDbArc
 50
126.422253
 51
140.650192
  0
ARC
  5
459
100
AcDbEntity
  8
0
 62
     7
100
AcDbCircle
 10
43.081825
 20
5.30289
 30
0.0
 40
0.317398
210
0.0
220
0.0
230
1.0
100
AcDbArc
 50
140.65022
 51
153.8462
  0
ARC
  5
45A
100
AcDbEntity
  8
0
 62
     7
100
AcDbCircle
 10
43.179489
 20
5.254929
 30
0.0
 40
0.426208
210
0.0
220
0.0
230
1.0
100
AcDbArc
 50
153.846227
 51
158.613235
  0
ARC
  5
45B
100
AcDbEntity
  8
0
 62
     7
100
AcDbCircle
 10
42.950932
 20
5.34444
 30
0.0
 40
0.180744
210
0.0
220
0.0
230
1.0
100
AcDbArc
 50
158.613303
 51
167.663153
  0
ARC
  5
45C
100
AcDbEntity
  8
0
 62
     7
100
AcDbCircle
 10
42.965183
 20
5.341322
 30
0.0
 40
0.195334
210
0.0
220
0.0
230
1.0
100
AcDbArc
 50
167.663099
 51
176.292114
  0
ARC
  5
45D
100
AcDbEntity
  8
0
 62
     7
100
AcDbCircle
 10
43.328289
 20
5.31779
 30
0.0
 40
0.559204
210
0.0
220
0.0
230
1.0
100
AcDbArc
 50
176.292073
 51
180.229503
  0
ARC
  5
45E
100
AcDbEntity
  8
0
 62
     7
100
AcDbCircle
 10
43.231625
 20
5.317404
 30
0.0
 40
0.462533
210
0.0
220
0.0
230
1.0
100
AcDbArc
 50
180.229503
 51
183.894282
  0
ARC
  5
45F
100
AcDbEntity
  8
0
 62
     7
100
AcDbCircle
 10
43.33218
 20
5.32425
 30
0.0
 40
0.563327
210
0.0
220
0.0
230
1.0
100
AcDbArc
 50
183.894296
 51
187.055444
  0
ARC
  5
460
100
AcDbEntity
  8
0
 62
     7
100
AcDbCircle
 10
43.273289
 20
5.31696
 30
0.0
 40
0.503985
210
0.0
220
0.0
230
1.0
100
AcDbArc
 50
187.055403
 51
190.265592
  0
ARC
  5
461
100
AcDbEntity
  8
0
 62
     7
100
AcDbCircle
 10
42.904263
 20
5.250124
 30
0.0
 40
0.128952
210
0.0
220
0.0
230
1.0
100
AcDbArc
 50
190.265523
 51
199.109894
  0
ARC
  5
462
100
AcDbEntity
  8
0
 62
     7
100
AcDbCircle
 10
43.001797
 20
5.283918
 30
0.0
 40
0.232173
210
0.0
220
0.0
230
1.0
100
AcDbArc
 50
199.109867
 51
212.450415
  0
ARC
  5
463
100
AcDbEntity
  8
0
 62
     7
100
AcDbCircle
 10
43.085033
 20
5.336847
 30
0.0
 40
0.330816
210
0.0
220
0.0
230
1.0
100
AcDbArc
 50
212.450442
 51
222.681478
  0
ARC
  5
464
100
AcDbEntity
  8
0
 62
     7
100
AcDbCircle
 10
43.097347
 20
5.348197
 30
0.0
 40
0.347562
210
0.0
220
0.0
230
1.0
100
AcDbArc
 50
222.681465
 51
232.676436
  0
ARC
  5
465
100
AcDbEntity
  8
0
 62
     7
100
AcDbCircle
 10
43.069569
 20
5.311767
 30
0.0
 40
0.301748
210
0.0
220
0.0
230
1.0
100
AcDbArc
 50
232.676408
 51
243.789044
  0
LINE
  5
466
100
AcDbEntity
  8
0
 62
     7
 48
0.001765
100
AcDbLine
 10
42.936291
 20
5.041047
 30
0.0
 11
42.999634
 21
5.009863
 31
0.0
210
0.0
220
0.0
230
1.0
  0
LINE
  5
467
100
AcDbEntity
  8
0
 62
     7
 48
0.01999
100
AcDbLine
 10
42.999634
 20
5.009863
 30
0.0
 11
43.799221
 21
5.013132
 31
0.0
210
0.0
220
0.0
230
1.0
  0
LINE
  5
468
100
AcDbEntity
  8
0
 62
     7
 48
0.01519
100
AcDbLine
 10
43.799221
 20
5.013132
 30
0.0
 11
44.406811
 21
5.016633
 31
0.0
210
0.0
220
0.0
230
1.0
  0
ARC
  5
469
100
AcDbEntity
  8
0
 62
     7
100
AcDbCircle
 10
44.390358
 20
7.228864
 30
0.0
 40
2.212295
210
0.0
220
0.0
230
1.0
100
AcDbArc
 50
270.426092
 51
274.898042
  0
ARC
  5
46A
100
AcDbEntity
  8
0
 62
     7
100
AcDbCircle
 10
44.538731
 20
5.497499
 30
0.0
 40
0.474582
210
0.0
220
0.0
230
1.0
100
AcDbArc
 50
274.898063
 51
288.585325
  0
ARC
  5
46B
100
AcDbEntity
  8
0
 62
     7
100
AcDbCircle
 10
44.347691
 20
6.065649
 30
0.0
 40
1.073992
210
0.0
220
0.0
230
1.0
100
AcDbArc
 50
288.585297
 51
296.018756
  0
ARC
  5
46C
100
AcDbEntity
  8
0
 62
     7
100
AcDbCircle
 10
44.37746
 20
6.004667
 30
0.0
 40
1.006131
210
0.0
220
0.0
230
1.0
100
AcDbArc
 50
296.018674
 51
306.204648
  0
ARC
  5
46D
100
AcDbEntity
  8
0
 62
     7
100
AcDbCircle
 10
44.439289
 20
5.920199
 30
0.0
 40
0.901453
210
0.0
220
0.0
230
1.0
100
AcDbArc
 50
306.204621
 51
317.26532
  0
ARC
  5
46E
100
AcDbEntity
  8
0
 62
     7
100
AcDbCircle
 10
44.444023
 20
5.91583
 30
0.0
 40
0.895011
210
0.0
220
0.0
230
1.0
100
AcDbArc
 50
317.265292
 51
328.368308
  0
ARC
  5
46F
100
AcDbEntity
  8
0
 62
     7
100
AcDbCircle
 10
44.375698
 20
5.957917
 30
0.0
 40
0.975258
210
0.0
220
0.0
230
1.0
100
AcDbArc
 50
328.368229
 51
338.778802
  0
ARC
  5
470
100
AcDbEntity
  8
0
 62
     7
100
AcDbCircle
 10
44.448708
 20
5.929567
 30
0.0
 40
0.896932
210
0.0
220
0.0
230
1.0
100
AcDbArc
 50
338.778749
 51
350.208933
  0
ARC
  5
471
100
AcDbEntity
  8
0
 62
     7
100
AcDbCircle
 10
44.360588
 20
5.944775
 30
0.0
 40
0.986358
210
0.0
220
0.0
230
1.0
100
AcDbArc
 50
350.208933
 51
0.85279
  0
ARC
  5
472
100
AcDbEntity
  8
0
 62
     7
100
AcDbCircle
 10
44.363377
 20
5.944814
 30
0.0
 40
0.98357
210
0.0
220
0.0
230
1.0
100
AcDbArc
 50
0.852857
 51
11.511805
  0
ARC
  5
473
100
AcDbEntity
  8
0
 62
     7
100
AcDbCircle
 10
44.46019
 20
5.96453
 30
0.0
 40
0.884768
210
0.0
220
0.0
230
1.0
100
AcDbArc
 50
11.511889
 51
23.051581
  0
ARC
  5
474
100
AcDbEntity
  8
0
 62
     7
100
AcDbCircle
 10
44.443283
 20
5.957336
 30
0.0
 40
0.903144
210
0.0
220
0.0
230
1.0
100
AcDbArc
 50
23.051615
 51
33.703251
  0
ARC
  5
475
100
AcDbEntity
  8
0
 62
     7
100
AcDbCircle
 10
44.398708
 20
5.927604
 30
0.0
 40
0.956722
210
0.0
220
0.0
230
1.0
100
AcDbArc
 50
33.703247
 51
43.904323
  0
ARC
  5
476
100
AcDbEntity
  8
0
 62
     7
100
AcDbCircle
 10
44.392181
 20
5.921323
 30
0.0
 40
0.965783
210
0.0
220
0.0
230
1.0
100
AcDbArc
 50
43.904306
 51
54.056429
  0
ARC
  5
477
100
AcDbEntity
  8
0
 62
     7
100
AcDbCircle
 10
44.404934
 20
5.938913
 30
0.0
 40
0.944056
210
0.0
220
0.0
230
1.0
100
AcDbArc
 50
54.056415
 51
64.383289
  0
ARC
  5
478
100
AcDbEntity
  8
0
 62
     7
100
AcDbCircle
 10
44.209949
 20
5.532255
 30
0.0
 40
1.395042
210
0.0
220
0.0
230
1.0
100
AcDbArc
 50
64.383214
 51
69.704348
  0
ARC
  5
479
100
AcDbEntity
  8
0
 62
     7
100
AcDbCircle
 10
44.542606
 20
6.43176
 30
0.0
 40
0.435997
210
0.0
220
0.0
230
1.0
100
AcDbArc
 50
69.704355
 51
82.362314
  0
ARC
  5
47A
100
AcDbEntity
  8
0
 62
     7
100
AcDbCircle
 10
44.445801
 20
5.709836
 30
0.0
 40
1.164382
210
0.0
220
0.0
230
1.0
100
AcDbArc
 50
82.362348
 51
88.681619
  0
ARC
  5
47B
100
AcDbEntity
  8
0
 62
     7
100
AcDbCircle
 10
43.671776
 20
-27.921646
 30
0.0
 40
34.804768
210
0.0
220
0.0
230
1.0
100
AcDbArc
 50
88.681578
 51
89.222905
  0
LINE
  5
47C
100
AcDbEntity
  8
0
 62
     7
 48
0.00727
100
AcDbLine
 10
44.14381
 20
6.879921
 30
0.0
 11
43.853035
 21
6.884301
 31
0.0
210
0.0
220
0.0
230
1.0
  0
ARC
  5
47D
100
AcDbEntity
  8
0
 62
     7
100
AcDbCircle
 10
43.892967
 20
9.29675
 30
0.0
 40
2.41278
210
0.0
220
0.0
230
1.0
100
AcDbArc
 50
266.594711
 51
269.051694
  0
ARC
  5
47E
100
AcDbEntity
  8
0
 62
     7
100
AcDbCircle
 10
43.777397
 20
7.354465
 30
0.0
 40
0.467059
210
0.0
220
0.0
230
1.0
100
AcDbArc
 50
259.389988
 51
266.594738
  0
ARC
  5
47F
100
AcDbEntity
  8
0
 62
     7
100
AcDbCircle
 10
43.728416
 20
7.092983
 30
0.0
 40
0.201028
210
0.0
220
0.0
230
1.0
100
AcDbArc
 50
245.862164
 51
259.390009
  0
ARC
  5
480
100
AcDbEntity
  8
0
 62
     7
100
AcDbCircle
 10
43.747089
 20
7.134657
 30
0.0
 40
0.246697
210
0.0
220
0.0
230
1.0
100
AcDbArc
 50
231.694965
 51
245.862198
  0
ARC
  5
481
100
AcDbEntity
  8
0
 62
     7
100
AcDbCircle
 10
43.88261
 20
7.306227
 30
0.0
 40
0.465334
210
0.0
220
0.0
230
1.0
100
AcDbArc
 50
222.884294
 51
231.695019
  0
ARC
  5
482
100
AcDbEntity
  8
0
 62
     7
100
AcDbCircle
 10
43.881279
 20
7.30499
 30
0.0
 40
0.463515
210
0.0
220
0.0
230
1.0
100
AcDbArc
 50
214.062107
 51
222.884267
  0
ARC
  5
483
100
AcDbEntity
  8
0
 62
     7
100
AcDbCircle
 10
43.695499
 20
7.179387
 30
0.0
 40
0.239262
210
0.0
220
0.0
230
1.0
100
AcDbArc
 50
199.591477
 51
214.062094
  0
ARC
  5
484
100
AcDbEntity
  8
0
 62
     7
100
AcDbCircle
 10
43.74617
 20
7.197421
 30
0.0
 40
0.293047
210
0.0
220
0.0
230
1.0
100
AcDbArc
 50
193.481067
 51
199.591477
  0
ARC
  5
485
100
AcDbEntity
  8
0
 62
     7
100
AcDbCircle
 10
43.67992
 20
7.18154
 30
0.0
 40
0.22492
210
0.0
220
0.0
230
1.0
100
AcDbArc
 50
186.029891
 51
193.480985
  0
ARC
  5
486
100
AcDbEntity
  8
0
 62
     7
100
AcDbCircle
 10
43.753334
 20
7.189294
 30
0.0
 40
0.298738
210
0.0
220
0.0
230
1.0
100
AcDbArc
 50
179.723451
 51
186.029891
  0
ARC
  5
487
100
AcDbEntity
  8
0
 62
     7
100
AcDbCircle
 10
44.309147
 20
7.186613
 30
0.0
 40
0.854564
210
0.0
220
0.0
230
1.0
100
AcDbArc
 50
176.844212
 51
179.723519
  0
ARC
  5
488
100
AcDbEntity
  8
0
 62
     7
100
AcDbCircle
 10
43.923542
 20
7.207873
 30
0.0
 40
0.468373
210
0.0
220
0.0
230
1.0
100
AcDbArc
 50
168.170199
 51
176.844294
  0
ARC
  5
489
100
AcDbEntity
  8
0
 62
     7
100
AcDbCircle
 10
43.725437
 20
7.249367
 30
0.0
 40
0.265967
210
0.0
220
0.0
230
1.0
100
AcDbArc
 50
154.919441
 51
168.170227
  0
ARC
  5
48A
100
AcDbEntity
  8
0
 62
     7
100
AcDbCircle
 10
43.717548
 20
7.253061
 30
0.0
 40
0.257253
210
0.0
220
0.0
230
1.0
100
AcDbArc
 50
141.409873
 51
154.919441
  0
ARC
  5
48B
100
AcDbEntity
  8
0
 62
     7
100
AcDbCircle
 10
43.840397
 20
7.155024
 30
0.0
 40
0.41443
210
0.0
220
0.0
230
1.0
100
AcDbArc
 50
131.958258
 51
141.409914
  0
ARC
  5
48C
100
AcDbEntity
  8
0
 62
     7
100
AcDbCircle
 10
43.803387
 20
7.196188
 30
0.0
 40
0.359073
210
0.0
220
0.0
230
1.0
100
AcDbArc
 50
118.804119
 51
131.958299
  0
ARC
  5
48D
100
AcDbEntity
  8
0
 62
     7
100
AcDbCircle
 10
43.731972
 20
7.326074
 30
0.0
 40
0.210849
210
0.0
220
0.0
230
1.0
100
AcDbArc
 50
99.206462
 51
118.804133
  0
ARC
  5
48E
100
AcDbEntity
  8
0
 62
     7
100
AcDbCircle
 10
43.826702
 20
6.741613
 30
0.0
 40
0.802937
210
0.0
220
0.0
230
1.0
100
AcDbArc
 50
91.41991
 51
99.206387
  0
ARC
  5
48F
100
AcDbEntity
  8
0
 62
     7
100
AcDbCircle
 10
44.492905
 20
-20.136307
 30
0.0
 40
27.689112
210
0.0
220
0.0
230
1.0
100
AcDbArc
 50
90.815507
 51
91.419855
  0
LINE
  5
490
100
AcDbEntity
  8
0
 62
     7
 48
0.006311
100
AcDbLine
 10
44.098812
 20
7.549999
 30
0.0
 11
44.351219
 21
7.554033
 31
0.0
210
0.0
220
0.0
230
1.0
  0
ARC
  5
491
100
AcDbEntity
  8
0
 62
     7
100
AcDbCircle
 10
44.317322
 20
9.46593
 30
0.0
 40
1.912196
210
0.0
220
0.0
230
1.0
100
AcDbArc
 50
271.015647
 51
273.762038
  0
ARC
  5
492
100
AcDbEntity
  8
0
 62
     7
100
AcDbCircle
 10
44.418278
 20
7.9306
 30
0.0
 40
0.37355
210
0.0
220
0.0
230
1.0
100
AcDbArc
 50
273.762093
 51
281.684785
  0
ARC
  5
493
100
AcDbEntity
  8
0
 62
     7
100
AcDbCircle
 10
44.465424
 20
7.702641
 30
0.0
 40
0.140768
210
0.0
220
0.0
230
1.0
100
AcDbArc
 50
281.684785
 51
298.100543
  0
ARC
  5
494
100
AcDbEntity
  8
0
 62
     7
100
AcDbCircle
 10
44.39386
 20
7.836659
 30
0.0
 40
0.292697
210
0.0
220
0.0
230
1.0
100
AcDbArc
 50
298.100489
 51
308.213516
  0
ARC
  5
495
100
AcDbEntity
  8
0
 62
     7
100
AcDbCircle
 10
44.317566
 20
7.933566
 30
0.0
 40
0.416033
210
0.0
220
0.0
230
1.0
100
AcDbArc
 50
308.213543
 51
315.983539
  0
ARC
  5
496
100
AcDbEntity
  8
0
 62
     7
100
AcDbCircle
 10
44.325687
 20
7.925722
 30
0.0
 40
0.404741
210
0.0
220
0.0
230
1.0
100
AcDbArc
 50
315.983539
 51
323.842136
  0
ARC
  5
497
100
AcDbEntity
  8
0
 62
     7
100
AcDbCircle
 10
44.454372
 20
7.831682
 30
0.0
 40
0.245358
210
0.0
220
0.0
230
1.0
100
AcDbArc
 50
323.842109
 51
335.275272
  0
ARC
  5
498
100
AcDbEntity
  8
0
 62
     7
100
AcDbCircle
 10
44.474472
 20
7.822426
 30
0.0
 40
0.223228
210
0.0
220
0.0
230
1.0
100
AcDbArc
 50
335.275245
 51
351.027792
  0
ARC
  5
499
100
AcDbEntity
  8
0
 62
     7
100
AcDbCircle
 10
44.303017
 20
7.849499
 30
0.0
 40
0.39681
210
0.0
220
0.0
230
1.0
100
AcDbArc
 50
351.027764
 51
1.267709
  0
ARC
  5
49A
100
AcDbEntity
  8
0
 62
     7
100
AcDbCircle
 10
44.303425
 20
7.849509
 30
0.0
 40
0.396398
210
0.0
220
0.0
230
1.0
100
AcDbArc
 50
1.267618
 51
11.511693
  0
ARC
  5
49B
100
AcDbEntity
  8
0
 62
     7
100
AcDbCircle
 10
44.474655
 20
7.884382
 30
0.0
 40
0.221651
210
0.0
220
0.0
230
1.0
100
AcDbArc
 50
11.511676
 51
27.341799
  0
ARC
  5
49C
100
AcDbEntity
  8
0
 62
     7
100
AcDbCircle
 10
44.422031
 20
7.85717
 30
0.0
 40
0.280899
210
0.0
220
0.0
230
1.0
100
AcDbArc
 50
27.341845
 51
38.013828
  0
ARC
  5
49D
100
AcDbEntity
  8
0
 62
     7
100
AcDbCircle
 10
44.34766
 20
7.799035
 30
0.0
 40
0.375297
210
0.0
220
0.0
230
1.0
100
AcDbArc
 50
38.013903
 51
46.602415
  0
ARC
  5
49E
100
AcDbEntity
  8
0
 62
     7
100
AcDbCircle
 10
44.343632
 20
7.794777
 30
0.0
 40
0.381154
210
0.0
220
0.0
230
1.0
100
AcDbArc
 50
46.6025
 51
55.129674
  0
ARC
  5
49F
100
AcDbEntity
  8
0
 62
     7
100
AcDbCircle
 10
44.386639
 20
7.856489
 30
0.0
 40
0.305937
210
0.0
220
0.0
230
1.0
100
AcDbArc
 50
55.129725
 51
65.184867
  0
ARC
  5
4A0
100
AcDbEntity
  8
0
 62
     7
100
AcDbCircle
 10
44.446934
 20
7.986884
 30
0.0
 40
0.162277
210
0.0
220
0.0
230
1.0
100
AcDbArc
 50
65.184901
 51
79.893133
  0
ARC
  5
4A1
100
AcDbEntity
  8
0
 62
     7
100
AcDbCircle
 10
44.398815
 20
7.716969
 30
0.0
 40
0.436446
210
0.0
220
0.0
230
1.0
100
AcDbArc
 50
79.893057
 51
86.921506
  0
ARC
  5
4A2
100
AcDbEntity
  8
0
 62
     7
100
AcDbCircle
 10
44.313023
 20
6.121672
 30
0.0
 40
2.034049
210
0.0
220
0.0
230
1.0
100
AcDbArc
 50
86.92152
 51
89.545324
  0
LINE
  5
4A3
100
AcDbEntity
  8
0
 62
     7
 48
0.006009
100
AcDbLine
 10
44.329159
 20
8.155659
 30
0.0
 11
44.08881
 21
8.157102
 31
0.0
210
0.0
220
0.0
230
1.0
  0
ARC
  5
4A4
100
AcDbEntity
  8
0
 62
     7
100
AcDbCircle
 10
44.017899
 20
-9.22526
 30
0.0
 40
17.382505
210
0.0
220
0.0
230
1.0
100
AcDbArc
 50
89.766267
 51
90.259693
  0
ARC
  5
4A5
100
AcDbEntity
  8
0
 62
     7
100
AcDbCircle
 10
43.991882
 20
-3.486148
 30
0.0
 40
11.643335
210
0.0
220
0.0
230
1.0
100
AcDbArc
 50
90.259679
 51
90.925917
  0
ARC
  5
4A6
100
AcDbEntity
  8
0
 62
     7
100
AcDbCircle
 10
44.036346
 20
-6.23766
 30
0.0
 40
14.395206
210
0.0
220
0.0
230
1.0
100
AcDbArc
 50
90.925876
 51
91.377829
  0
ARC
  5
4A7
100
AcDbEntity
  8
0
 62
     7
100
AcDbCircle
 10
43.697529
 20
7.849072
 30
0.0
 40
0.304399
210
0.0
220
0.0
230
1.0
100
AcDbArc
 50
91.377836
 51
98.610972
  0
ARC
  5
4A8
100
AcDbEntity
  8
0
 62
     7
100
AcDbCircle
 10
46.274734
 20
7.847717
 30
0.0
 40
0.310195
210
0.0
220
0.0
230
1.0
100
AcDbArc
 50
105.216708
 51
121.360659
  0
ARC
  5
4A9
100
AcDbEntity
  8
0
 62
     7
100
AcDbCircle
 10
46.264439
 20
7.864614
 30
0.0
 40
0.290408
210
0.0
220
0.0
230
1.0
100
AcDbArc
 50
121.360645
 51
138.322628
  0
ARC
  5
4AA
100
AcDbEntity
  8
0
 62
     7
100
AcDbCircle
 10
46.266132
 20
7.863105
 30
0.0
 40
0.292675
210
0.0
220
0.0
230
1.0
100
AcDbArc
 50
138.322601
 51
155.212538
  0
ARC
  5
4AB
100
AcDbEntity
  8
0
 62
     7
100
AcDbCircle
 10
46.290737
 20
7.851743
 30
0.0
 40
0.319779
210
0.0
220
0.0
230
1.0
100
AcDbArc
 50
155.212511
 51
171.017077
  0
ARC
  5
4AC
100
AcDbEntity
  8
0
 62
     7
100
AcDbCircle
 10
46.307133
 20
7.84915
 30
0.0
 40
0.336378
210
0.0
220
0.0
230
1.0
100
AcDbArc
 50
171.017104
 51
187.355795
  0
ARC
  5
4AD
100
AcDbEntity
  8
0
 62
     7
100
AcDbCircle
 10
46.265404
 20
7.843764
 30
0.0
 40
0.294303
210
0.0
220
0.0
230
1.0
100
AcDbArc
 50
187.355808
 51
205.416468
  0
ARC
  5
4AE
100
AcDbEntity
  8
0
 62
     7
100
AcDbCircle
 10
46.259579
 20
7.840995
 30
0.0
 40
0.287855
210
0.0
220
0.0
230
1.0
100
AcDbArc
 50
205.416481
 51
223.700324
  0
ARC
  5
4AF
100
AcDbEntity
  8
0
 62
     7
100
AcDbCircle
 10
46.2752
 20
7.85592
 30
0.0
 40
0.309456
210
0.0
220
0.0
230
1.0
100
AcDbArc
 50
223.700283
 51
241.018473
  0
LINE
  5
4B0
100
AcDbEntity
  8
0
 62
     7
 48
0.001531
100
AcDbLine
 10
46.125256
 20
7.585214
 30
0.0
 11
46.17881
 21
7.555551
 31
0.0
210
0.0
220
0.0
230
1.0
  0
LINE
  5
4B1
100
AcDbEntity
  8
0
 62
     7
 48
0.010934
100
AcDbLine
 10
46.17881
 20
7.555551
 30
0.0
 11
46.61615
 21
7.552656
 31
0.0
210
0.0
220
0.0
230
1.0
  0
LINE
  5
4B2
100
AcDbEntity
  8
0
 62
     7
 48
0.010934
100
AcDbLine
 10
46.61615
 20
7.552656
 30
0.0
 11
47.053486
 21
7.549757
 31
0.0
210
0.0
220
0.0
230
1.0
  0
LINE
  5
4B3
100
AcDbEntity
  8
0
 62
     7
 48
0.028928
100
AcDbLine
 10
47.053486
 20
7.549757
 30
0.0
 11
47.056152
 21
6.392656
 31
0.0
210
0.0
220
0.0
230
1.0
  0
LINE
  5
4B4
100
AcDbEntity
  8
0
 62
     7
 48
0.028928
100
AcDbLine
 10
47.056152
 20
6.392656
 30
0.0
 11
47.058811
 21
5.235551
 31
0.0
210
0.0
220
0.0
230
1.0
  0
LINE
  5
4B5
100
AcDbEntity
  8
0
 62
     7
 48
0.001376
100
AcDbLine
 10
47.058811
 20
5.235551
 30
0.0
 11
47.081825
 21
5.185551
 31
0.0
210
0.0
220
0.0
230
1.0
  0
ARC
  5
4B6
100
AcDbEntity
  8
0
 62
     7
100
AcDbCircle
 10
47.37075
 20
5.31853
 30
0.0
 40
0.31806
210
0.0
220
0.0
230
1.0
100
AcDbArc
 50
204.714051
 51
213.522481
  0
ARC
  5
4B7
100
AcDbEntity
  8
0
 62
     7
100
AcDbCircle
 10
47.358959
 20
5.310717
 30
0.0
 40
0.303915
210
0.0
220
0.0
230
1.0
100
AcDbArc
 50
213.522536
 51
222.6367
  0
ARC
  5
4B8
100
AcDbEntity
  8
0
 62
     7
100
AcDbCircle
 10
47.367855
 20
5.318908
 30
0.0
 40
0.316007
210
0.0
220
0.0
230
1.0
100
AcDbArc
 50
222.6367
 51
231.56459
  0
ARC
  5
4B9
100
AcDbEntity
  8
0
 62
     7
100
AcDbCircle
 10
47.406555
 20
5.367678
 30
0.0
 40
0.378267
210
0.0
220
0.0
230
1.0
100
AcDbArc
 50
231.564535
 51
239.366114
  0
ARC
  5
4BA
100
AcDbEntity
  8
0
 62
     7
100
AcDbCircle
 10
47.346394
 20
5.266081
 30
0.0
 40
0.260192
210
0.0
220
0.0
230
1.0
100
AcDbArc
 50
239.366141
 51
246.482973
  0
ARC
  5
4BB
100
AcDbEntity
  8
0
 62
     7
100
AcDbCircle
 10
47.288456
 20
5.132939
 30
0.0
 40
0.11499
210
0.0
220
0.0
230
1.0
100
AcDbArc
 50
246.483035
 51
259.586008
  0
ARC
  5
4BC
100
AcDbEntity
  8
0
 62
     7
100
AcDbCircle
 10
47.306274
 20
5.229882
 30
0.0
 40
0.213558
210
0.0
220
0.0
230
1.0
100
AcDbArc
 50
259.586042
 51
268.31346
  0
ARC
  5
4BD
100
AcDbEntity
  8
0
 62
     7
100
AcDbCircle
 10
47.35881
 20
7.014321
 30
0.0
 40
1.998768
210
0.0
220
0.0
230
1.0
100
AcDbArc
 50
268.313433
 51
269.99997
  0
ARC
  5
4BE
100
AcDbEntity
  8
0
 62
     7
100
AcDbCircle
 10
47.35881
 20
7.010151
 30
0.0
 40
1.994601
210
0.0
220
0.0
230
1.0
100
AcDbArc
 50
269.999997
 51
271.693639
  0
ARC
  5
4BF
100
AcDbEntity
  8
0
 62
     7
100
AcDbCircle
 10
47.411472
 20
5.229069
 30
0.0
 40
0.21274
210
0.0
220
0.0
230
1.0
100
AcDbArc
 50
271.693639
 51
280.468656
  0
ARC
  5
4C0
100
AcDbEntity
  8
0
 62
     7
100
AcDbCircle
 10
47.429035
 20
5.134033
 30
0.0
 40
0.116093
210
0.0
220
0.0
230
1.0
100
AcDbArc
 50
280.468601
 51
293.538004
  0
ARC
  5
4C1
100
AcDbEntity
  8
0
 62
     7
100
AcDbCircle
 10
47.366676
 20
5.277187
 30
0.0
 40
0.272241
210
0.0
220
0.0
230
1.0
100
AcDbArc
 50
293.537929
 51
300.450729
  0
ARC
  5
4C2
100
AcDbEntity
  8
0
 62
     7
100
AcDbCircle
 10
47.381069
 20
5.252714
 30
0.0
 40
0.243851
210
0.0
220
0.0
230
1.0
100
AcDbArc
 50
300.450682
 51
306.153422
  0
ARC
  5
4C3
100
AcDbEntity
  8
0
 62
     7
100
AcDbCircle
 10
47.221428
 20
5.4712
 30
0.0
 40
0.514443
210
0.0
220
0.0
230
1.0
100
AcDbArc
 50
306.153449
 51
309.41634
  0
ARC
  5
4C4
100
AcDbEntity
  8
0
 62
     7
100
AcDbCircle
 10
47.217293
 20
5.476233
 30
0.0
 40
0.520955
210
0.0
220
0.0
230
1.0
100
AcDbArc
 50
309.416367
 51
312.670078
  0
ARC
  5
4C5
100
AcDbEntity
  8
0
 62
     7
100
AcDbCircle
 10
47.383301
 20
5.296144
 30
0.0
 40
0.276029
210
0.0
220
0.0
230
1.0
100
AcDbArc
 50
312.67005
 51
317.904134
  0
ARC
  5
4C6
100
AcDbEntity
  8
0
 62
     7
100
AcDbCircle
 10
47.431335
 20
5.252746
 30
0.0
 40
0.211292
210
0.0
220
0.0
230
1.0
100
AcDbArc
 50
317.904134
 51
342.391537
  0
ARC
  5
4C7
100
AcDbEntity
  8
0
 62
     7
100
AcDbCircle
 10
47.215771
 20
5.321161
 30
0.0
 40
0.437454
210
0.0
220
0.0
230
1.0
100
AcDbArc
 50
342.391617
 51
356.601062
  0
ARC
  5
4C8
100
AcDbEntity
  8
0
 62
     7
100
AcDbCircle
 10
43.719452
 20
5.528815
 30
0.0
 40
3.939937
210
0.0
220
0.0
230
1.0
100
AcDbArc
 50
356.601089
 51
359.661642
  0
LINE
  5
4C9
100
AcDbEntity
  8
0
 62
     7
 48
0.022
100
AcDbLine
 10
47.659313
 20
5.505548
 30
0.0
 11
47.663811
 21
6.385551
 31
0.0
210
0.0
220
0.0
230
1.0
  0
LINE
  5
4CA
100
AcDbEntity
  8
0
 62
     7
 48
0.029
100
AcDbLine
 10
47.663811
 20
6.385551
 30
0.0
 11
47.668812
 21
7.545551
 31
0.0
210
0.0
220
0.0
230
1.0
  0
LINE
  5
4CB
100
AcDbEntity
  8
0
 62
     7
 48
0.010876
100
AcDbLine
 10
47.668812
 20
7.545551
 30
0.0
 11
48.103813
 21
7.550551
 31
0.0
210
0.0
220
0.0
230
1.0
  0
ARC
  5
4CC
100
AcDbEntity
  8
0
 62
     7
100
AcDbCircle
 10
47.561687
 20
54.715984
 30
0.0
 40
47.168549
210
0.0
220
0.0
230
1.0
100
AcDbArc
 50
270.658537
 51
271.049524
  0
ARC
  5
4CD
100
AcDbEntity
  8
0
 62
     7
100
AcDbCircle
 10
48.409515
 20
8.436396
 30
0.0
 40
0.881194
210
0.0
220
0.0
230
1.0
100
AcDbArc
 50
271.049524
 51
277.861135
  0
ARC
  5
4CE
100
AcDbEntity
  8
0
 62
     7
100
AcDbCircle
 10
48.504326
 20
7.749709
 30
0.0
 40
0.187993
210
0.0
220
0.0
230
1.0
100
AcDbArc
 50
277.86119
 51
298.011587
  0
ARC
  5
4CF
100
AcDbEntity
  8
0
 62
     7
100
AcDbCircle
 10
48.450195
 20
7.851464
 30
0.0
 40
0.303252
210
0.0
220
0.0
230
1.0
100
AcDbArc
 50
298.011587
 51
312.095929
  0
ARC
  5
4D0
100
AcDbEntity
  8
0
 62
     7
100
AcDbCircle
 10
48.501171
 20
7.795036
 30
0.0
 40
0.227206
210
0.0
220
0.0
230
1.0
100
AcDbArc
 50
312.095905
 51
318.536992
  0
ARC
  5
4D1
100
AcDbEntity
  8
0
 62
     7
100
AcDbCircle
 10
48.331055
 20
7.945351
 30
0.0
 40
0.45422
210
0.0
220
0.0
230
1.0
100
AcDbArc
 50
318.537019
 51
322.372959
  0
ARC
  5
4D2
100
AcDbEntity
  8
0
 62
     7
100
AcDbCircle
 10
48.330116
 20
7.946071
 30
0.0
 40
0.455401
210
0.0
220
0.0
230
1.0
100
AcDbArc
 50
322.372935
 51
326.206584
  0
ARC
  5
4D3
100
AcDbEntity
  8
0
 62
     7
100
AcDbCircle
 10
48.51495
 20
7.822368
 30
0.0
 40
0.23299
210
0.0
220
0.0
230
1.0
100
AcDbArc
 50
326.206502
 51
332.53653
  0
ARC
  5
4D4
100
AcDbEntity
  8
0
 62
     7
100
AcDbCircle
 10
48.436478
 20
7.863156
 30
0.0
 40
0.321431
210
0.0
220
0.0
230
1.0
100
AcDbArc
 50
332.536557
 51
338.494203
  0
ARC
  5
4D5
100
AcDbEntity
  8
0
 62
     7
100
AcDbCircle
 10
48.595661
 20
7.800432
 30
0.0
 40
0.150334
210
0.0
220
0.0
230
1.0
100
AcDbArc
 50
338.494285
 51
349.010974
  0
ARC
  5
4D6
100
AcDbEntity
  8
0
 62
     7
100
AcDbCircle
 10
48.53318
 20
7.812563
 30
0.0
 40
0.213979
210
0.0
220
0.0
230
1.0
100
AcDbArc
 50
349.010974
 51
357.426695
  0
ARC
  5
4D7
100
AcDbEntity
  8
0
 62
     7
100
AcDbCircle
 10
47.682377
 20
7.850802
 30
0.0
 40
1.065643
210
0.0
220
0.0
230
1.0
100
AcDbArc
 50
357.426668
 51
359.986514
  0
ARC
  5
4D8
100
AcDbEntity
  8
0
 62
     7
100
AcDbCircle
 10
47.720238
 20
7.850793
 30
0.0
 40
1.027783
210
0.0
220
0.0
230
1.0
100
AcDbArc
 50
359.986596
 51
2.545765
  0
ARC
  5
4D9
100
AcDbEntity
  8
0
 62
     7
100
AcDbCircle
 10
48.507912
 20
7.885812
 30
0.0
 40
0.239328
210
0.0
220
0.0
230
1.0
100
AcDbArc
 50
2.545812
 51
10.099243
  0
ARC
  5
4DA
100
AcDbEntity
  8
0
 62
     7
100
AcDbCircle
 10
48.589199
 20
7.90029
 30
0.0
 40
0.156764
210
0.0
220
0.0
230
1.0
100
AcDbArc
 50
10.099232
 51
19.880782
  0
ARC
  5
4DB
100
AcDbEntity
  8
0
 62
     7
100
AcDbCircle
 10
48.521442
 20
7.875788
 30
0.0
 40
0.228815
210
0.0
220
0.0
230
1.0
100
AcDbArc
 50
19.880726
 51
27.248258
  0
ARC
  5
4DC
100
AcDbEntity
  8
0
 62
     7
100
AcDbCircle
 10
48.434052
 20
7.830783
 30
0.0
 40
0.327116
210
0.0
220
0.0
230
1.0
100
AcDbArc
 50
27.248176
 51
36.34998
  0
ARC
  5
4DD
100
AcDbEntity
  8
0
 62
     7
100
AcDbCircle
 10
48.394749
 20
7.801862
 30
0.0
 40
0.37591
210
0.0
220
0.0
230
1.0
100
AcDbArc
 50
36.349949
 51
44.550517
  0
ARC
  5
4DE
100
AcDbEntity
  8
0
 62
     7
100
AcDbCircle
 10
48.395493
 20
7.80259
 30
0.0
 40
0.374873
210
0.0
220
0.0
230
1.0
100
AcDbArc
 50
44.55053
 51
52.762084
  0
ARC
  5
4DF
100
AcDbEntity
  8
0
 62
     7
100
AcDbCircle
 10
48.427189
 20
7.844296
 30
0.0
 40
0.322486
210
0.0
220
0.0
230
1.0
100
AcDbArc
 50
52.762047
 51
61.954918
  0
LINE
  5
4E0
100
AcDbEntity
  8
0
 62
     7
 48
0.001416
100
AcDbLine
 10
48.578812
 20
8.128916
 30
0.0
 11
48.528812
 21
8.155551
 31
0.0
210
0.0
220
0.0
230
1.0
  0
LINE
  5
4E1
100
AcDbEntity
  8
0
 62
     7
 48
0.028625
100
AcDbLine
 10
48.528812
 20
8.155551
 30
0.0
 11
47.383812
 21
8.157482
 31
0.0
210
0.0
220
0.0
230
1.0
  0
LINE
  5
4E2
100
AcDbEntity
  8
0
 62
     7
 48
0.014427
100
AcDbLine
 10
47.383812
 20
8.157482
 30
0.0
 11
46.806736
 21
8.157909
 31
0.0
210
0.0
220
0.0
230
1.0
  0
ARC
  5
4E3
100
AcDbEntity
  8
0
 62
     7
100
AcDbCircle
 10
46.814774
 20
-31.10293
 30
0.0
 40
39.260841
210
0.0
220
0.0
230
1.0
100
AcDbArc
 50
90.01173
 51
90.502636
  0
ARC
  5
4E4
100
AcDbEntity
  8
0
 62
     7
100
AcDbCircle
 10
46.823933
 20
-32.143307
 30
0.0
 40
40.301258
210
0.0
220
0.0
230
1.0
100
AcDbArc
 50
90.502684
 51
90.829044
  0
ARC
  5
4E5
100
AcDbEntity
  8
0
 62
     7
100
AcDbCircle
 10
46.243587
 20
7.962231
 30
0.0
 40
0.191519
210
0.0
220
0.0
230
1.0
100
AcDbArc
 50
90.82901
 51
105.216756
  0
ARC
  5
4E6
100
AcDbEntity
  8
0
 62
     7
100
AcDbCircle
 10
53.32806
 20
7.847795
 30
0.0
 40
0.31148
210
0.0
220
0.0
230
1.0
100
AcDbArc
 50
105.787329
 51
119.331164
  0
ARC
  5
4E7
100
AcDbEntity
  8
0
 62
     7
100
AcDbCircle
 10
53.330334
 20
7.84375
 30
0.0
 40
0.316119
210
0.0
220
0.0
230
1.0
100
AcDbArc
 50
119.331137
 51
132.725588
  0
ARC
  5
4E8
100
AcDbEntity
  8
0
 62
     7
100
AcDbCircle
 10
53.325729
 20
7.848732
 30
0.0
 40
0.309337
210
0.0
220
0.0
230
1.0
100
AcDbArc
 50
132.725602
 51
146.272176
  0
ARC
  5
4E9
100
AcDbEntity
  8
0
 62
     7
100
AcDbCircle
 10
53.303772
 20
7.863393
 30
0.0
 40
0.282931
210
0.0
220
0.0
230
1.0
100
AcDbArc
 50
146.272107
 51
160.756179
  0
ARC
  5
4EA
100
AcDbEntity
  8
0
 62
     7
100
AcDbCircle
 10
53.226982
 20
7.8902
 30
0.0
 40
0.201599
210
0.0
220
0.0
230
1.0
100
AcDbArc
 50
160.756152
 51
178.166851
  0
ARC
  5
4EB
100
AcDbEntity
  8
0
 62
     7
100
AcDbCircle
 10
62.451603
 20
7.59496
 30
0.0
 40
9.430944
210
0.0
220
0.0
230
1.0
100
AcDbArc
 50
178.166851
 51
179.262795
  0
ARC
  5
4EC
100
AcDbEntity
  8
0
 62
     7
100
AcDbCircle
 10
79.967644
 20
7.369582
 30
0.0
 40
26.948427
210
0.0
220
0.0
230
1.0
100
AcDbArc
 50
179.262809
 51
179.942795
  0
LINE
  5
4ED
100
AcDbEntity
  8
0
 62
     7
 48
0.020648
100
AcDbLine
 10
53.019222
 20
7.396489
 30
0.0
 11
53.01881
 21
6.570551
 31
0.0
210
0.0
220
0.0
230
1.0
  0
LINE
  5
4EE
100
AcDbEntity
  8
0
 62
     7
 48
0.033375
100
AcDbLine
 10
53.01881
 20
6.570551
 30
0.0
 11
53.01881
 21
5.235551
 31
0.0
210
0.0
220
0.0
230
1.0
  0
LINE
  5
4EF
100
AcDbEntity
  8
0
 62
     7
 48
0.001594
100
AcDbLine
 10
53.01881
 20
5.235551
 30
0.0
 11
53.046921
 21
5.178308
 31
0.0
210
0.0
220
0.0
230
1.0
  0
ARC
  5
4F0
100
AcDbEntity
  8
0
 62
     7
100
AcDbCircle
 10
53.351871
 20
5.328058
 30
0.0
 40
0.339734
210
0.0
220
0.0
230
1.0
100
AcDbArc
 50
206.153814
 51
220.264862
  0
ARC
  5
4F1
100
AcDbEntity
  8
0
 62
     7
100
AcDbCircle
 10
53.286259
 20
5.272482
 30
0.0
 40
0.253748
210
0.0
220
0.0
230
1.0
100
AcDbArc
 50
220.264875
 51
237.826398
  0
ARC
  5
4F2
100
AcDbEntity
  8
0
 62
     7
100
AcDbCircle
 10
53.293152
 20
5.283447
 30
0.0
 40
0.266699
210
0.0
220
0.0
230
1.0
100
AcDbArc
 50
237.826508
 51
254.894221
  0
ARC
  5
4F3
100
AcDbEntity
  8
0
 62
     7
100
AcDbCircle
 10
53.329594
 20
5.418439
 30
0.0
 40
0.406524
210
0.0
220
0.0
230
1.0
100
AcDbArc
 50
254.894276
 51
267.339721
  0
ARC
  5
4F4
100
AcDbEntity
  8
0
 62
     7
100
AcDbCircle
 10
53.358227
 20
6.034672
 30
0.0
 40
1.023422
210
0.0
220
0.0
230
1.0
100
AcDbArc
 50
267.339748
 51
269.950246
  0
ARC
  5
4F5
100
AcDbEntity
  8
0
 62
     7
100
AcDbCircle
 10
53.35751
 20
5.210007
 30
0.0
 40
0.198756
210
0.0
220
0.0
230
1.0
100
AcDbArc
 50
269.950246
 51
278.742886
  0
ARC
  5
4F6
100
AcDbEntity
  8
0
 62
     7
100
AcDbCircle
 10
53.365227
 20
5.159821
 30
0.0
 40
0.147981
210
0.0
220
0.0
230
1.0
100
AcDbArc
 50
278.742865
 51
289.360421
  0
ARC
  5
4F7
100
AcDbEntity
  8
0
 62
     7
100
AcDbCircle
 10
53.28793
 20
5.379804
 30
0.0
 40
0.38115
210
0.0
220
0.0
230
1.0
100
AcDbArc
 50
289.360394
 51
294.59906
  0
ARC
  5
4F8
100
AcDbEntity
  8
0
 62
     7
100
AcDbCircle
 10
53.317234
 20
5.315798
 30
0.0
 40
0.310755
210
0.0
220
0.0
230
1.0
100
AcDbArc
 50
294.599033
 51
304.142887
  0
ARC
  5
4F9
100
AcDbEntity
  8
0
 62
     7
100
AcDbCircle
 10
53.301979
 20
5.338293
 30
0.0
 40
0.337933
210
0.0
220
0.0
230
1.0
100
AcDbArc
 50
304.142887
 51
313.105103
  0
ARC
  5
4FA
100
AcDbEntity
  8
0
 62
     7
100
AcDbCircle
 10
53.303623
 20
5.336535
 30
0.0
 40
0.335526
210
0.0
220
0.0
230
1.0
100
AcDbArc
 50
313.105103
 51
322.099127
  0
ARC
  5
4FB
100
AcDbEntity
  8
0
 62
     7
100
AcDbCircle
 10
53.331707
 20
5.31467
 30
0.0
 40
0.299932
210
0.0
220
0.0
230
1.0
100
AcDbArc
 50
322.099209
 51
331.882362
  0
LINE
  5
4FC
100
AcDbEntity
  8
0
 62
     7
 48
0.001197
100
AcDbLine
 10
53.596245
 20
5.173317
 30
0.0
 11
53.618813
 21
5.215551
 31
0.0
210
0.0
220
0.0
230
1.0
  0
LINE
  5
4FD
100
AcDbEntity
  8
0
 62
     7
 48
0.022875
100
AcDbLine
 10
53.618813
 20
5.215551
 30
0.0
 11
53.623814
 21
6.130551
 31
0.0
210
0.0
220
0.0
230
1.0
  0
LINE
  5
4FE
100
AcDbEntity
  8
0
 62
     7
 48
0.022875
100
AcDbLine
 10
53.623814
 20
6.130551
 30
0.0
 11
53.628811
 21
7.045551
 31
0.0
210
0.0
220
0.0
230
1.0
  0
LINE
  5
4FF
100
AcDbEntity
  8
0
 62
     7
 48
0.03314
100
AcDbLine
 10
53.628811
 20
7.045551
 30
0.0
 11
54.510056
 21
6.055287
 31
0.0
210
0.0
220
0.0
230
1.0
  0
LINE
  5
500
100
AcDbEntity
  8
0
 62
     7
 48
0.025423
100
AcDbLine
 10
54.510056
 20
6.055287
 30
0.0
 11
55.186951
 21
5.296357
 31
0.0
210
0.0
220
0.0
230
1.0
  0
ARC
  5
501
100
AcDbEntity
  8
0
 62
     7
100
AcDbCircle
 10
57.958221
 20
7.773608
 30
0.0
 40
3.717081
210
0.0
220
0.0
230
1.0
100
AcDbArc
 50
221.793704
 51
225.703878
  0
ARC
  5
502
100
AcDbEntity
  8
0
 62
     7
100
AcDbCircle
 10
55.660858
 20
5.419096
 30
0.0
 40
0.427462
210
0.0
220
0.0
230
1.0
100
AcDbArc
 50
225.703864
 51
243.415761
  0
ARC
  5
503
100
AcDbEntity
  8
0
 62
     7
100
AcDbCircle
 10
55.580376
 20
5.258259
 30
0.0
 40
0.247609
210
0.0
220
0.0
230
1.0
100
AcDbArc
 50
243.415843
 51
270.071605
  0
ARC
  5
504
100
AcDbEntity
  8
0
 62
     7
100
AcDbCircle
 10
55.580139
 20
5.444574
 30
0.0
 40
0.433926
210
0.0
220
0.0
230
1.0
100
AcDbArc
 50
270.07166
 51
279.208247
  0
ARC
  5
505
100
AcDbEntity
  8
0
 62
     7
100
AcDbCircle
 10
55.611862
 20
5.248871
 30
0.0
 40
0.235669
210
0.0
220
0.0
230
1.0
100
AcDbArc
 50
279.208247
 51
293.637288
  0
ARC
  5
506
100
AcDbEntity
  8
0
 62
     7
100
AcDbCircle
 10
55.614292
 20
5.243327
 30
0.0
 40
0.229616
210
0.0
220
0.0
230
1.0
100
AcDbArc
 50
293.637288
 51
308.288238
  0
ARC
  5
507
100
AcDbEntity
  8
0
 62
     7
100
AcDbCircle
 10
55.511604
 20
5.373407
 30
0.0
 40
0.395345
210
0.0
220
0.0
230
1.0
100
AcDbArc
 50
308.288293
 51
318.041694
  0
ARC
  5
508
100
AcDbEntity
  8
0
 62
     7
100
AcDbCircle
 10
55.634686
 20
5.262746
 30
0.0
 40
0.229829
210
0.0
220
0.0
230
1.0
100
AcDbArc
 50
318.041721
 51
343.423059
  0
ARC
  5
509
100
AcDbEntity
  8
0
 62
     7
100
AcDbCircle
 10
55.345116
 20
5.348945
 30
0.0
 40
0.531959
210
0.0
220
0.0
230
1.0
100
AcDbArc
 50
343.423032
 51
356.98011
  0
ARC
  5
50A
100
AcDbEntity
  8
0
 62
     7
100
AcDbCircle
 10
51.081005
 20
5.573905
 30
0.0
 40
4.801999
210
0.0
220
0.0
230
1.0
100
AcDbArc
 50
356.980056
 51
359.915507
  0
LINE
  5
50B
100
AcDbEntity
  8
0
 62
     7
 48
0.025575
100
AcDbLine
 10
55.882996
 20
5.566823
 30
0.0
 11
55.883713
 21
6.589833
 31
0.0
210
0.0
220
0.0
230
1.0
  0
LINE
  5
50C
100
AcDbEntity
  8
0
 62
     7
 48
0.033393
100
AcDbLine
 10
55.883713
 20
6.589833
 30
0.0
 11
55.883617
 21
7.925551
 31
0.0
210
0.0
220
0.0
230
1.0
  0
LINE
  5
50D
100
AcDbEntity
  8
0
 62
     7
 48
0.001424
100
AcDbLine
 10
55.883617
 20
7.925551
 30
0.0
 11
55.859573
 21
7.977194
 31
0.0
210
0.0
220
0.0
230
1.0
  0
ARC
  5
50E
100
AcDbEntity
  8
0
 62
     7
100
AcDbCircle
 10
55.588997
 20
7.851213
 30
0.0
 40
0.298465
210
0.0
220
0.0
230
1.0
100
AcDbArc
 50
24.966947
 51
35.301368
  0
ARC
  5
50F
100
AcDbEntity
  8
0
 62
     7
100
AcDbCircle
 10
55.553459
 20
7.826049
 30
0.0
 40
0.342011
210
0.0
220
0.0
230
1.0
100
AcDbArc
 50
35.301426
 51
44.6325
  0
ARC
  5
510
100
AcDbEntity
  8
0
 62
     7
100
AcDbCircle
 10
55.55307
 20
7.825664
 30
0.0
 40
0.342561
210
0.0
220
0.0
230
1.0
100
AcDbArc
 50
44.632479
 51
53.95623
  0
ARC
  5
511
100
AcDbEntity
  8
0
 62
     7
100
AcDbCircle
 10
55.577591
 20
7.85936
 30
0.0
 40
0.300886
210
0.0
220
0.0
230
1.0
100
AcDbArc
 50
53.956203
 51
64.232526
  0
ARC
  5
512
100
AcDbEntity
  8
0
 62
     7
100
AcDbCircle
 10
55.601242
 20
7.908359
 30
0.0
 40
0.246476
210
0.0
220
0.0
230
1.0
100
AcDbArc
 50
64.232561
 51
78.916368
  0
ARC
  5
513
100
AcDbEntity
  8
0
 62
     7
100
AcDbCircle
 10
55.584808
 20
7.82446
 30
0.0
 40
0.331971
210
0.0
220
0.0
230
1.0
100
AcDbArc
 50
78.916409
 51
90.662517
  0
ARC
  5
514
100
AcDbEntity
  8
0
 62
     7
100
AcDbCircle
 10
55.584877
 20
7.81841
 30
0.0
 40
0.338021
210
0.0
220
0.0
230
1.0
100
AcDbArc
 50
90.662456
 51
102.307307
  0
ARC
  5
515
100
AcDbEntity
  8
0
 62
     7
100
AcDbCircle
 10
55.57048
 20
7.884397
 30
0.0
 40
0.270482
210
0.0
220
0.0
230
1.0
100
AcDbArc
 50
102.307307
 51
116.070363
  0
ARC
  5
516
100
AcDbEntity
  8
0
 62
     7
100
AcDbCircle
 10
55.579655
 20
7.865642
 30
0.0
 40
0.291361
210
0.0
220
0.0
230
1.0
100
AcDbArc
 50
116.070404
 51
127.271272
  0
ARC
  5
517
100
AcDbEntity
  8
0
 62
     7
100
AcDbCircle
 10
55.619709
 20
7.813007
 30
0.0
 40
0.357505
210
0.0
220
0.0
230
1.0
100
AcDbArc
 50
127.271286
 51
136.879204
  0
ARC
  5
518
100
AcDbEntity
  8
0
 62
     7
100
AcDbCircle
 10
55.613178
 20
7.819123
 30
0.0
 40
0.348555
210
0.0
220
0.0
230
1.0
100
AcDbArc
 50
136.87919
 51
146.601719
  0
ARC
  5
519
100
AcDbEntity
  8
0
 62
     7
100
AcDbCircle
 10
55.534286
 20
7.871142
 30
0.0
 40
0.254055
210
0.0
220
0.0
230
1.0
100
AcDbArc
 50
146.60165
 51
158.925074
  0
ARC
  5
51A
100
AcDbEntity
  8
0
 62
     7
100
AcDbCircle
 10
55.455544
 20
7.901484
 30
0.0
 40
0.169672
210
0.0
220
0.0
230
1.0
100
AcDbArc
 50
158.925019
 51
176.73512
  0
ARC
  5
51B
100
AcDbEntity
  8
0
 62
     7
100
AcDbCircle
 10
59.118229
 20
7.692544
 30
0.0
 40
3.838314
210
0.0
220
0.0
230
1.0
100
AcDbArc
 50
176.735052
 51
178.585664
  0
ARC
  5
51C
100
AcDbEntity
  8
0
 62
     7
100
AcDbCircle
 10
67.997047
 20
7.47331
 30
0.0
 40
12.719834
210
0.0
220
0.0
230
1.0
100
AcDbArc
 50
178.585596
 51
179.578186
  0
LINE
  5
51D
100
AcDbEntity
  8
0
 62
     7
 48
0.013654
100
AcDbLine
 10
55.277557
 20
7.566955
 30
0.0
 11
55.273972
 21
7.020791
 31
0.0
210
0.0
220
0.0
230
1.0
  0
LINE
  5
51E
100
AcDbEntity
  8
0
 62
     7
 48
0.022369
100
AcDbLine
 10
55.273972
 20
7.020791
 30
0.0
 11
55.26881
 21
6.126029
 31
0.0
210
0.0
220
0.0
230
1.0
  0
LINE
  5
51F
100
AcDbEntity
  8
0
 62
     7
 48
0.032152
100
AcDbLine
 10
55.26881
 20
6.126029
 30
0.0
 11
54.412758
 21
7.085791
 31
0.0
210
0.0
220
0.0
230
1.0
  0
LINE
  5
520
100
AcDbEntity
  8
0
 62
     7
 48
0.012411
100
AcDbLine
 10
54.412758
 20
7.085791
 30
0.0
 11
54.082161
 21
7.456125
 31
0.0
210
0.0
220
0.0
230
1.0
  0
LINE
  5
521
100
AcDbEntity
  8
0
 62
     7
 48
0.010647
100
AcDbLine
 10
54.082161
 20
7.456125
 30
0.0
 11
53.798195
 21
7.773537
 31
0.0
210
0.0
220
0.0
230
1.0
  0
LINE
  5
522
100
AcDbEntity
  8
0
 62
     7
 48
0.009353
100
AcDbLine
 10
53.798195
 20
7.773537
 30
0.0
 11
53.548519
 21
8.052177
 31
0.0
210
0.0
220
0.0
230
1.0
  0
ARC
  5
523
100
AcDbEntity
  8
0
 62
     7
100
AcDbCircle
 10
53.062695
 20
7.616718
 30
0.0
 40
0.652418
210
0.0
220
0.0
230
1.0
100
AcDbArc
 50
41.870709
 51
45.156969
  0
ARC
  5
524
100
AcDbEntity
  8
0
 62
     7
100
AcDbCircle
 10
53.356754
 20
7.912397
 30
0.0
 40
0.235407
210
0.0
220
0.0
230
1.0
100
AcDbArc
 50
45.156959
 51
62.499988
  0
ARC
  5
525
100
AcDbEntity
  8
0
 62
     7
100
AcDbCircle
 10
53.317749
 20
7.837463
 30
0.0
 40
0.319886
210
0.0
220
0.0
230
1.0
100
AcDbArc
 50
62.500022
 51
76.281588
  0
ARC
  5
526
100
AcDbEntity
  8
0
 62
     7
100
AcDbCircle
 10
53.315769
 20
7.829365
 30
0.0
 40
0.328221
210
0.0
220
0.0
230
1.0
100
AcDbArc
 50
76.281609
 51
89.889613
  0
ARC
  5
527
100
AcDbEntity
  8
0
 62
     7
100
AcDbCircle
 10
53.315887
 20
7.890849
 30
0.0
 40
0.266737
210
0.0
220
0.0
230
1.0
100
AcDbArc
 50
89.889545
 51
105.787411
  0
ARC
  5
528
100
AcDbEntity
  8
0
 62
     7
100
AcDbCircle
 10
16.404919
 20
6.525646
 30
0.0
 40
1.63282
210
0.0
220
0.0
230
1.0
100
AcDbArc
 50
99.379553
 51
114.789935
  0
ARC
  5
529
100
AcDbEntity
  8
0
 62
     7
100
AcDbCircle
 10
16.3939
 20
6.549504
 30
0.0
 40
1.606541
210
0.0
220
0.0
230
1.0
100
AcDbArc
 50
114.789908
 51
130.388967
  0
ARC
  5
52A
100
AcDbEntity
  8
0
 62
     7
100
AcDbCircle
 10
16.384502
 20
6.560546
 30
0.0
 40
1.592039
210
0.0
220
0.0
230
1.0
100
AcDbArc
 50
130.388899
 51
146.06391
  0
ARC
  5
52B
100
AcDbEntity
  8
0
 62
     7
100
AcDbCircle
 10
16.368572
 20
6.571267
 30
0.0
 40
1.572839
210
0.0
220
0.0
230
1.0
100
AcDbArc
 50
146.063896
 51
161.88215
  0
ARC
  5
52C
100
AcDbEntity
  8
0
 62
     7
100
AcDbCircle
 10
16.168915
 20
6.636594
 30
0.0
 40
1.362765
210
0.0
220
0.0
230
1.0
100
AcDbArc
 50
161.882204
 51
166.781854
  0
ARC
  5
52D
100
AcDbEntity
  8
0
 62
     7
100
AcDbCircle
 10
16.22048
 20
6.624484
 30
0.0
 40
1.415733
210
0.0
220
0.0
230
1.0
100
AcDbArc
 50
166.781881
 51
171.543398
  0
ARC
  5
52E
100
AcDbEntity
  8
0
 62
     7
100
AcDbCircle
 10
16.340448
 20
6.606647
 30
0.0
 40
1.53702
210
0.0
220
0.0
230
1.0
100
AcDbArc
 50
171.543439
 51
176.104953
  0
ARC
  5
52F
100
AcDbEntity
  8
0
 62
     7
100
AcDbCircle
 10
16.796709
 20
6.575585
 30
0.0
 40
1.994339
210
0.0
220
0.0
230
1.0
100
AcDbArc
 50
176.105035
 51
179.857336
  0
ARC
  5
530
100
AcDbEntity
  8
0
 62
     7
100
AcDbCircle
 10
16.7164
 20
6.575788
 30
0.0
 40
1.914029
210
0.0
220
0.0
230
1.0
100
AcDbArc
 50
179.857418
 51
184.832887
  0
ARC
  5
531
100
AcDbEntity
  8
0
 62
     7
100
AcDbCircle
 10
16.190149
 20
6.531296
 30
0.0
 40
1.385901
210
0.0
220
0.0
230
1.0
100
AcDbArc
 50
184.832969
 51
191.170783
  0
ARC
  5
532
100
AcDbEntity
  8
0
 62
     7
100
AcDbCircle
 10
16.178114
 20
6.52892
 30
0.0
 40
1.373634
210
0.0
220
0.0
230
1.0
100
AcDbArc
 50
191.170824
 51
197.539784
  0
ARC
  5
533
100
AcDbEntity
  8
0
 62
     7
100
AcDbCircle
 10
16.626671
 20
6.670693
 30
0.0
 40
1.844062
210
0.0
220
0.0
230
1.0
100
AcDbArc
 50
197.539811
 51
202.647003
  0
ARC
  5
534
100
AcDbEntity
  8
0
 62
     7
100
AcDbCircle
 10
16.272892
 20
6.523088
 30
0.0
 40
1.460724
210
0.0
220
0.0
230
1.0
100
AcDbArc
 50
202.647017
 51
219.570013
  0
ARC
  5
535
100
AcDbEntity
  8
0
 62
     7
100
AcDbCircle
 10
16.391146
 20
6.620812
 30
0.0
 40
1.614134
210
0.0
220
0.0
230
1.0
100
AcDbArc
 50
219.569986
 51
235.271907
  0
ARC
  5
536
100
AcDbEntity
  8
0
 62
     7
100
AcDbCircle
 10
16.395891
 20
6.627658
 30
0.0
 40
1.622464
210
0.0
220
0.0
230
1.0
100
AcDbArc
 50
235.271907
 51
250.9314
  0
ARC
  5
537
100
AcDbEntity
  8
0
 62
     7
100
AcDbCircle
 10
16.353649
 20
6.505444
 30
0.0
 40
1.493155
210
0.0
220
0.0
230
1.0
100
AcDbArc
 50
250.931339
 51
267.597219
  0
ARC
  5
538
100
AcDbEntity
  8
0
 62
     7
100
AcDbCircle
 10
16.367222
 20
6.828913
 30
0.0
 40
1.81691
210
0.0
220
0.0
230
1.0
100
AcDbArc
 50
267.597192
 51
271.058048
  0
ARC
  5
539
100
AcDbEntity
  8
0
 62
     7
100
AcDbCircle
 10
16.395479
 20
5.298864
 30
0.0
 40
0.286598
210
0.0
220
0.0
230
1.0
100
AcDbArc
 50
271.058048
 51
284.606439
  0
ARC
  5
53A
100
AcDbEntity
  8
0
 62
     7
100
AcDbCircle
 10
16.422754
 20
5.194208
 30
0.0
 40
0.178447
210
0.0
220
0.0
230
1.0
100
AcDbArc
 50
284.606419
 51
302.978149
  0
ARC
  5
53B
100
AcDbEntity
  8
0
 62
     7
100
AcDbCircle
 10
16.303925
 20
5.377341
 30
0.0
 40
0.396755
210
0.0
220
0.0
230
1.0
100
AcDbArc
 50
302.978149
 51
313.08773
  0
ARC
  5
53C
100
AcDbEntity
  8
0
 62
     7
100
AcDbCircle
 10
16.346684
 20
5.331628
 30
0.0
 40
0.33416
210
0.0
220
0.0
230
1.0
100
AcDbArc
 50
313.087785
 51
323.913198
  0
ARC
  5
53D
100
AcDbEntity
  8
0
 62
     7
100
AcDbCircle
 10
16.414019
 20
5.282548
 30
0.0
 40
0.250836
210
0.0
220
0.0
230
1.0
100
AcDbArc
 50
323.913198
 51
337.335503
  0
ARC
  5
53E
100
AcDbEntity
  8
0
 62
     7
100
AcDbCircle
 10
16.400642
 20
5.288134
 30
0.0
 40
0.265333
210
0.0
220
0.0
230
1.0
100
AcDbArc
 50
337.335477
 51
350.337505
  0
ARC
  5
53F
100
AcDbEntity
  8
0
 62
     7
100
AcDbCircle
 10
16.253582
 20
5.313173
 30
0.0
 40
0.41451
210
0.0
220
0.0
230
1.0
100
AcDbArc
 50
350.337478
 51
359.645441
  0
ARC
  5
540
100
AcDbEntity
  8
0
 62
     7
100
AcDbCircle
 10
16.300823
 20
5.312883
 30
0.0
 40
0.367267
210
0.0
220
0.0
230
1.0
100
AcDbArc
 50
359.645387
 51
10.564785
  0
ARC
  5
541
100
AcDbEntity
  8
0
 62
     7
100
AcDbCircle
 10
16.405445
 20
5.332395
 30
0.0
 40
0.260841
210
0.0
220
0.0
230
1.0
100
AcDbArc
 50
10.564789
 51
24.676526
  0
ARC
  5
542
100
AcDbEntity
  8
0
 62
     7
100
AcDbCircle
 10
16.416887
 20
5.337653
 30
0.0
 40
0.248248
210
0.0
220
0.0
230
1.0
100
AcDbArc
 50
24.676592
 51
39.184184
  0
ARC
  5
543
100
AcDbEntity
  8
0
 62
     7
100
AcDbCircle
 10
16.374378
 20
5.303
 30
0.0
 40
0.303092
210
0.0
220
0.0
230
1.0
100
AcDbArc
 50
39.184256
 51
51.67519
  0
ARC
  5
544
100
AcDbEntity
  8
0
 62
     7
100
AcDbCircle
 10
16.340027
 20
5.259545
 30
0.0
 40
0.358485
210
0.0
220
0.0
230
1.0
100
AcDbArc
 50
51.67519
 51
60.296425
  0
ARC
  5
545
100
AcDbEntity
  8
0
 62
     7
100
AcDbCircle
 10
16.419378
 20
5.39864
 30
0.0
 40
0.198347
210
0.0
220
0.0
230
1.0
100
AcDbArc
 50
60.296405
 51
73.724208
  0
ARC
  5
546
100
AcDbEntity
  8
0
 62
     7
100
AcDbCircle
 10
16.375748
 20
5.249201
 30
0.0
 40
0.354026
210
0.0
220
0.0
230
1.0
100
AcDbArc
 50
73.724188
 51
82.999427
  0
ARC
  5
547
100
AcDbEntity
  8
0
 62
     7
100
AcDbCircle
 10
16.114925
 20
3.125173
 30
0.0
 40
2.494008
210
0.0
220
0.0
230
1.0
100
AcDbArc
 50
82.999352
 51
85.195545
  0
ARC
  5
548
100
AcDbEntity
  8
0
 62
     7
100
AcDbCircle
 10
16.425507
 20
6.820334
 30
0.0
 40
1.214182
210
0.0
220
0.0
230
1.0
100
AcDbArc
 50
262.828572
 51
265.195506
  0
ARC
  5
549
100
AcDbEntity
  8
0
 62
     7
100
AcDbCircle
 10
16.499067
 20
7.40496
 30
0.0
 40
1.803419
210
0.0
220
0.0
230
1.0
100
AcDbArc
 50
261.068924
 51
262.828545
  0
ARC
  5
54A
100
AcDbEntity
  8
0
 62
     7
100
AcDbCircle
 10
16.480368
 20
7.285971
 30
0.0
 40
1.682969
210
0.0
220
0.0
230
1.0
100
AcDbArc
 50
259.288676
 51
261.068924
  0
ARC
  5
54B
100
AcDbEntity
  8
0
 62
     7
100
AcDbCircle
 10
16.273819
 20
6.194028
 30
0.0
 40
0.571662
210
0.0
220
0.0
230
1.0
100
AcDbArc
 50
255.305918
 51
259.288704
  0
ARC
  5
54C
100
AcDbEntity
  8
0
 62
     7
100
AcDbCircle
 10
16.367315
 20
6.550566
 30
0.0
 40
0.940256
210
0.0
220
0.0
230
1.0
100
AcDbArc
 50
242.7867
 51
255.305966
  0
ARC
  5
54D
100
AcDbEntity
  8
0
 62
     7
100
AcDbCircle
 10
16.393152
 20
6.600817
 30
0.0
 40
0.996762
210
0.0
220
0.0
230
1.0
100
AcDbArc
 50
230.803652
 51
242.786782
  0
ARC
  5
54E
100
AcDbEntity
  8
0
 62
     7
100
AcDbCircle
 10
16.39756
 20
6.60622
 30
0.0
 40
1.003733
210
0.0
220
0.0
230
1.0
100
AcDbArc
 50
218.863539
 51
230.803707
  0
ARC
  5
54F
100
AcDbEntity
  8
0
 62
     7
100
AcDbCircle
 10
16.371813
 20
6.585473
 30
0.0
 40
0.970667
210
0.0
220
0.0
230
1.0
100
AcDbArc
 50
206.619646
 51
218.863553
  0
ARC
  5
550
100
AcDbEntity
  8
0
 62
     7
100
AcDbCircle
 10
17.336063
 20
7.068749
 30
0.0
 40
2.049248
210
0.0
220
0.0
230
1.0
100
AcDbArc
 50
205.674307
 51
206.619674
  0
ARC
  5
551
100
AcDbEntity
  8
0
 62
     7
100
AcDbCircle
 10
17.013693
 20
6.913784
 30
0.0
 40
1.691563
210
0.0
220
0.0
230
1.0
100
AcDbArc
 50
204.582775
 51
205.674362
  0
ARC
  5
552
100
AcDbEntity
  8
0
 62
     7
100
AcDbCircle
 10
16.924934
 20
6.873178
 30
0.0
 40
1.59396
210
0.0
220
0.0
230
1.0
100
AcDbArc
 50
203.60185
 51
204.582747
  0
ARC
  5
553
100
AcDbEntity
  8
0
 62
     7
100
AcDbCircle
 10
15.578214
 20
6.284758
 30
0.0
 40
0.124302
210
0.0
220
0.0
230
1.0
100
AcDbArc
 50
197.257165
 51
203.601864
  0
LINE
  5
554
100
AcDbEntity
  8
0
 62
     7
 48
0.000585
100
AcDbLine
 10
15.459508
 20
6.247883
 30
0.0
 11
15.452572
 21
6.270214
 31
0.0
210
0.0
220
0.0
230
1.0
  0
LINE
  5
555
100
AcDbEntity
  8
0
 62
     7
 48
0.028203
100
AcDbLine
 10
15.452572
 20
6.270214
 30
0.0
 11
16.580692
 21
6.272882
 31
0.0
210
0.0
220
0.0
230
1.0
  0
LINE
  5
556
100
AcDbEntity
  8
0
 62
     7
 48
0.028203
100
AcDbLine
 10
16.580692
 20
6.272882
 30
0.0
 11
17.708813
 21
6.275551
 31
0.0
210
0.0
220
0.0
230
1.0
  0
LINE
  5
557
100
AcDbEntity
  8
0
 62
     7
 48
0.001273
100
AcDbLine
 10
17.708813
 20
6.275551
 30
0.0
 11
17.755035
 21
6.296923
 31
0.0
210
0.0
220
0.0
230
1.0
  0
ARC
  5
558
100
AcDbEntity
  8
0
 62
     7
100
AcDbCircle
 10
17.62376
 20
6.580834
 30
0.0
 40
0.312791
210
0.0
220
0.0
230
1.0
100
AcDbArc
 50
294.815113
 51
304.876668
  0
ARC
  5
559
100
AcDbEntity
  8
0
 62
     7
100
AcDbCircle
 10
17.606428
 20
6.605698
 30
0.0
 40
0.343099
210
0.0
220
0.0
230
1.0
100
AcDbArc
 50
304.876641
 51
314.263998
  0
ARC
  5
55A
100
AcDbEntity
  8
0
 62
     7
100
AcDbCircle
 10
17.607229
 20
6.60488
 30
0.0
 40
0.341954
210
0.0
220
0.0
230
1.0
100
AcDbArc
 50
314.263998
 51
323.666901
  0
ARC
  5
55B
100
AcDbEntity
  8
0
 62
     7
100
AcDbCircle
 10
17.634848
 20
6.584567
 30
0.0
 40
0.307671
210
0.0
220
0.0
230
1.0
100
AcDbArc
 50
323.666983
 51
333.845192
  0
ARC
  5
55C
100
AcDbEntity
  8
0
 62
     7
100
AcDbCircle
 10
17.563536
 20
6.619585
 30
0.0
 40
0.387115
210
0.0
220
0.0
230
1.0
100
AcDbArc
 50
333.845221
 51
339.926986
  0
ARC
  5
55D
100
AcDbEntity
  8
0
 62
     7
100
AcDbCircle
 10
17.789818
 20
6.536899
 30
0.0
 40
0.146201
210
0.0
220
0.0
230
1.0
100
AcDbArc
 50
339.926959
 51
352.507921
  0
ARC
  5
55E
100
AcDbEntity
  8
0
 62
     7
100
AcDbCircle
 10
17.601309
 20
6.561691
 30
0.0
 40
0.336331
210
0.0
220
0.0
230
1.0
100
AcDbArc
 50
352.507894
 51
359.626781
  0
ARC
  5
55F
100
AcDbEntity
  8
0
 62
     7
100
AcDbCircle
 10
12.014463
 20
6.598085
 30
0.0
 40
5.923295
210
0.0
220
0.0
230
1.0
100
AcDbArc
 50
359.626754
 51
0.50751
  0
ARC
  5
560
100
AcDbEntity
  8
0
 62
     7
100
AcDbCircle
 10
16.566517
 20
6.638408
 30
0.0
 40
1.371064
210
0.0
220
0.0
230
1.0
100
AcDbArc
 50
0.507488
 51
12.809896
  0
ARC
  5
561
100
AcDbEntity
  8
0
 62
     7
100
AcDbCircle
 10
16.521627
 20
6.6282
 30
0.0
 40
1.417099
210
0.0
220
0.0
230
1.0
100
AcDbArc
 50
12.809872
 51
24.811296
  0
ARC
  5
562
100
AcDbEntity
  8
0
 62
     7
100
AcDbCircle
 10
16.428272
 20
6.585041
 30
0.0
 40
1.519948
210
0.0
220
0.0
230
1.0
100
AcDbArc
 50
24.81133
 51
36.373425
  0
ARC
  5
563
100
AcDbEntity
  8
0
 62
     7
100
AcDbCircle
 10
16.157417
 20
6.385544
 30
0.0
 40
1.856344
210
0.0
220
0.0
230
1.0
100
AcDbArc
 50
36.373445
 51
46.325878
  0
ARC
  5
564
100
AcDbEntity
  8
0
 62
     7
100
AcDbCircle
 10
16.368809
 20
6.60695
 30
0.0
 40
1.550227
210
0.0
220
0.0
230
1.0
100
AcDbArc
 50
46.325895
 51
54.271696
  0
ARC
  5
565
100
AcDbEntity
  8
0
 62
     7
100
AcDbCircle
 10
16.437212
 20
6.702043
 30
0.0
 40
1.433087
210
0.0
220
0.0
230
1.0
100
AcDbArc
 50
54.271751
 51
62.699825
  0
ARC
  5
566
100
AcDbEntity
  8
0
 62
     7
100
AcDbCircle
 10
16.410042
 20
6.649401
 30
0.0
 40
1.492328
210
0.0
220
0.0
230
1.0
100
AcDbArc
 50
62.699859
 51
70.94803
  0
ARC
  5
567
100
AcDbEntity
  8
0
 62
     7
100
AcDbCircle
 10
16.292202
 20
6.308178
 30
0.0
 40
1.853326
210
0.0
220
0.0
230
1.0
100
AcDbArc
 50
70.947989
 51
77.959485
  0
ARC
  5
568
100
AcDbEntity
  8
0
 62
     7
100
AcDbCircle
 10
16.490389
 20
7.23735
 30
0.0
 40
0.903253
210
0.0
220
0.0
230
1.0
100
AcDbArc
 50
77.95941
 51
85.323734
  0
ARC
  5
569
100
AcDbEntity
  8
0
 62
     7
100
AcDbCircle
 10
16.316927
 20
5.116757
 30
0.0
 40
3.030928
210
0.0
220
0.0
230
1.0
100
AcDbArc
 50
85.323679
 51
88.312973
  0
ARC
  5
56A
100
AcDbEntity
  8
0
 62
     7
100
AcDbCircle
 10
16.316845
 20
5.114086
 30
0.0
 40
3.033599
210
0.0
220
0.0
230
1.0
100
AcDbArc
 50
88.312905
 51
91.277453
  0
ARC
  5
56B
100
AcDbEntity
  8
0
 62
     7
100
AcDbCircle
 10
16.266706
 20
7.362363
 30
0.0
 40
0.784764
210
0.0
220
0.0
230
1.0
100
AcDbArc
 50
91.277405
 51
99.379546
  0
ARC
  5
56C
100
AcDbEntity
  8
0
 62
     7
100
AcDbCircle
 10
16.393023
 20
6.727402
 30
0.0
 40
0.822238
210
0.0
220
0.0
230
1.0
100
AcDbArc
 50
69.358577
 51
74.78508
  0
ARC
  5
56D
100
AcDbEntity
  8
0
 62
     7
100
AcDbCircle
 10
16.206881
 20
6.233266
 30
0.0
 40
1.350271
210
0.0
220
0.0
230
1.0
100
AcDbArc
 50
65.616084
 51
69.358542
  0
ARC
  5
56E
100
AcDbEntity
  8
0
 62
     7
100
AcDbCircle
 10
16.205719
 20
6.2307
 30
0.0
 40
1.353089
210
0.0
220
0.0
230
1.0
100
AcDbArc
 50
61.876405
 51
65.616111
  0
ARC
  5
56F
100
AcDbEntity
  8
0
 62
     7
100
AcDbCircle
 10
16.449863
 20
6.68749
 30
0.0
 40
0.835148
210
0.0
220
0.0
230
1.0
100
AcDbArc
 50
56.508358
 51
61.876453
  0
ARC
  5
570
100
AcDbEntity
  8
0
 62
     7
100
AcDbCircle
 10
16.538607
 20
6.821608
 30
0.0
 40
0.674327
210
0.0
220
0.0
230
1.0
100
AcDbArc
 50
49.829293
 51
56.50832
  0
ARC
  5
571
100
AcDbEntity
  8
0
 62
     7
100
AcDbCircle
 10
16.015491
 20
6.201943
 30
0.0
 40
1.485273
210
0.0
220
0.0
230
1.0
100
AcDbArc
 50
46.128263
 51
49.829249
  0
ARC
  5
572
100
AcDbEntity
  8
0
 62
     7
100
AcDbCircle
 10
16.019697
 20
6.20632
 30
0.0
 40
1.479202
210
0.0
220
0.0
230
1.0
100
AcDbArc
 50
42.425884
 51
46.128246
  0
ARC
  5
573
100
AcDbEntity
  8
0
 62
     7
100
AcDbCircle
 10
16.638235
 20
6.771635
 30
0.0
 40
0.641246
210
0.0
220
0.0
230
1.0
100
AcDbArc
 50
35.511041
 51
42.425918
  0
ARC
  5
574
100
AcDbEntity
  8
0
 62
     7
100
AcDbCircle
 10
16.704115
 20
6.818645
 30
0.0
 40
0.560315
210
0.0
220
0.0
230
1.0
100
AcDbArc
 50
29.124012
 51
35.511065
  0
ARC
  5
575
100
AcDbEntity
  8
0
 62
     7
100
AcDbCircle
 10
14.205215
 20
5.426403
 30
0.0
 40
3.42088
210
0.0
220
0.0
230
1.0
100
AcDbArc
 50
27.447563
 51
29.124009
  0
ARC
  5
576
100
AcDbEntity
  8
0
 62
     7
100
AcDbCircle
 10
10.717585
 20
3.614904
 30
0.0
 40
7.350905
210
0.0
220
0.0
230
1.0
100
AcDbArc
 50
26.640219
 51
27.447627
  0
ARC
  5
577
100
AcDbEntity
  8
0
 62
     7
100
AcDbCircle
 10
17.240156
 20
6.886894
 30
0.0
 40
0.053654
210
0.0
220
0.0
230
1.0
100
AcDbArc
 50
0.000046
 51
26.640205
  0
ARC
  5
578
100
AcDbEntity
  8
0
 62
     7
100
AcDbCircle
 10
17.291203
 20
6.886894
 30
0.0
 40
0.002609
210
0.0
220
0.0
230
1.0
100
AcDbArc
 50
270.405492
 51
359.999955
  0
LINE
  5
579
100
AcDbEntity
  8
0
 62
     7
 48
0.006697
100
AcDbLine
 10
17.291222
 20
6.884284
 30
0.0
 11
17.023365
 21
6.882414
 31
0.0
210
0.0
220
0.0
230
1.0
  0
ARC
  5
57A
100
AcDbEntity
  8
0
 62
     7
100
AcDbCircle
 10
16.548061
 20
75.867905
 30
0.0
 40
68.987122
210
0.0
220
0.0
230
1.0
100
AcDbArc
 50
270.147912
 51
270.394755
  0
LINE
  5
57B
100
AcDbEntity
  8
0
 62
     7
 48
0.008826
100
AcDbLine
 10
16.72617
 20
6.881008
 30
0.0
 11
16.373138
 21
6.880551
 31
0.0
210
0.0
220
0.0
230
1.0
  0
LINE
  5
57C
100
AcDbEntity
  8
0
 62
     7
 48
0.023017
100
AcDbLine
 10
16.373138
 20
6.880551
 30
0.0
 11
15.452464
 21
6.880551
 31
0.0
210
0.0
220
0.0
230
1.0
  0
LINE
  5
57D
100
AcDbEntity
  8
0
 62
     7
 48
0.000588
100
AcDbLine
 10
15.452464
 20
6.880551
 30
0.0
 11
15.459305
 21
6.903051
 31
0.0
210
0.0
220
0.0
230
1.0
  0
ARC
  5
57E
100
AcDbEntity
  8
0
 62
     7
100
AcDbCircle
 10
15.741761
 20
6.81718
 30
0.0
 40
0.295222
210
0.0
220
0.0
230
1.0
100
AcDbArc
 50
153.159684
 51
163.0897
  0
ARC
  5
57F
100
AcDbEntity
  8
0
 62
     7
100
AcDbCircle
 10
17.590548
 20
5.881655
 30
0.0
 40
2.367229
210
0.0
220
0.0
230
1.0
100
AcDbArc
 50
151.016862
 51
153.159657
  0
ARC
  5
580
100
AcDbEntity
  8
0
 62
     7
100
AcDbCircle
 10
17.465126
 20
5.951125
 30
0.0
 40
2.223854
210
0.0
220
0.0
230
1.0
100
AcDbArc
 50
148.668643
 51
151.016767
  0
ARC
  5
581
100
AcDbEntity
  8
0
 62
     7
100
AcDbCircle
 10
16.130304
 20
6.76371
 30
0.0
 40
0.661149
210
0.0
220
0.0
230
1.0
100
AcDbArc
 50
142.873569
 51
148.668602
  0
ARC
  5
582
100
AcDbEntity
  8
0
 62
     7
100
AcDbCircle
 10
16.240339
 20
6.680412
 30
0.0
 40
0.799158
210
0.0
220
0.0
230
1.0
100
AcDbArc
 50
136.562994
 51
142.873556
  0
ARC
  5
583
100
AcDbEntity
  8
0
 62
     7
100
AcDbCircle
 10
16.709503
 20
6.236169
 30
0.0
 40
1.445274
210
0.0
220
0.0
230
1.0
100
AcDbArc
 50
132.513224
 51
136.562925
  0
ARC
  5
584
100
AcDbEntity
  8
0
 62
     7
100
AcDbCircle
 10
16.681906
 20
6.266272
 30
0.0
 40
1.404435
210
0.0
220
0.0
230
1.0
100
AcDbArc
 50
128.439631
 51
132.513169
  0
ARC
  5
585
100
AcDbEntity
  8
0
 62
     7
100
AcDbCircle
 10
16.179548
 20
6.899187
 30
0.0
 40
0.596387
210
0.0
220
0.0
230
1.0
100
AcDbArc
 50
120.714072
 51
128.439658
  0
ARC
  5
586
100
AcDbEntity
  8
0
 62
     7
100
AcDbCircle
 10
16.317146
 20
6.667578
 30
0.0
 40
0.865785
210
0.0
220
0.0
230
1.0
100
AcDbArc
 50
115.488254
 51
120.7141
  0
ARC
  5
587
100
AcDbEntity
  8
0
 62
     7
100
AcDbCircle
 10
16.429937
 20
6.430981
 30
0.0
 40
1.127891
210
0.0
220
0.0
230
1.0
100
AcDbArc
 50
111.202351
 51
115.488254
  0
ARC
  5
588
100
AcDbEntity
  8
0
 62
     7
100
AcDbCircle
 10
16.443436
 20
6.396181
 30
0.0
 40
1.165217
210
0.0
220
0.0
230
1.0
100
AcDbArc
 50
106.980549
 51
111.20231
  0
ARC
  5
589
100
AcDbEntity
  8
0
 62
     7
100
AcDbCircle
 10
16.406403
 20
6.517458
 30
0.0
 40
1.038412
210
0.0
220
0.0
230
1.0
100
AcDbArc
 50
102.377726
 51
106.980481
  0
ARC
  5
58A
100
AcDbEntity
  8
0
 62
     7
100
AcDbCircle
 10
16.320177
 20
6.910361
 30
0.0
 40
0.63616
210
0.0
220
0.0
230
1.0
100
AcDbArc
 50
93.624593
 51
102.377651
  0
ARC
  5
58B
100
AcDbEntity
  8
0
 62
     7
100
AcDbCircle
 10
16.362854
 20
6.236596
 30
0.0
 40
1.311274
210
0.0
220
0.0
230
1.0
100
AcDbArc
 50
88.529032
 51
93.624538
  0
ARC
  5
58C
100
AcDbEntity
  8
0
 62
     7
100
AcDbCircle
 10
16.362793
 20
6.234296
 30
0.0
 40
1.313575
210
0.0
220
0.0
230
1.0
100
AcDbArc
 50
83.435556
 51
88.528998
  0
ARC
  5
58D
100
AcDbEntity
  8
0
 62
     7
100
AcDbCircle
 10
16.438988
 20
6.896403
 30
0.0
 40
0.647099
210
0.0
220
0.0
230
1.0
100
AcDbArc
 50
74.785046
 51
83.435576
  0
ARC
  5
58E
100
AcDbEntity
  8
0
 62
     7
100
AcDbCircle
 10
50.898319
 20
6.420541
 30
0.0
 40
1.743178
210
0.0
220
0.0
230
1.0
100
AcDbArc
 50
98.561453
 51
106.770719
  0
ARC
  5
58F
100
AcDbEntity
  8
0
 62
     7
100
AcDbCircle
 10
50.886166
 20
6.460866
 30
0.0
 40
1.70106
210
0.0
220
0.0
230
1.0
100
AcDbArc
 50
106.770665
 51
115.131909
  0
ARC
  5
590
100
AcDbEntity
  8
0
 62
     7
100
AcDbCircle
 10
50.861137
 20
6.514218
 30
0.0
 40
1.642131
210
0.0
220
0.0
230
1.0
100
AcDbArc
 50
115.131909
 51
123.643062
  0
ARC
  5
591
100
AcDbEntity
  8
0
 62
     7
100
AcDbCircle
 10
50.765598
 20
6.657778
 30
0.0
 40
1.469688
210
0.0
220
0.0
230
1.0
100
AcDbArc
 50
123.643076
 51
132.892696
  0
ARC
  5
592
100
AcDbEntity
  8
0
 62
     7
100
AcDbCircle
 10
50.640617
 20
6.792306
 30
0.0
 40
1.286062
210
0.0
220
0.0
230
1.0
100
AcDbArc
 50
132.892668
 51
137.776732
  0
ARC
  5
593
100
AcDbEntity
  8
0
 62
     7
100
AcDbCircle
 10
51.399803
 20
6.103361
 30
0.0
 40
2.311246
210
0.0
220
0.0
230
1.0
100
AcDbArc
 50
137.776745
 51
140.92575
  0
ARC
  5
594
100
AcDbEntity
  8
0
 62
     7
100
AcDbCircle
 10
51.380535
 20
6.119006
 30
0.0
 40
2.286429
210
0.0
220
0.0
230
1.0
100
AcDbArc
 50
140.925818
 51
144.08422
  0
ARC
  5
595
100
AcDbEntity
  8
0
 62
     7
100
AcDbCircle
 10
50.474735
 20
6.77508
 30
0.0
 40
1.167988
210
0.0
220
0.0
230
1.0
100
AcDbArc
 50
144.084248
 51
149.305285
  0
ARC
  5
596
100
AcDbEntity
  8
0
 62
     7
100
AcDbCircle
 10
50.776459
 20
6.595966
 30
0.0
 40
1.51887
210
0.0
220
0.0
230
1.0
100
AcDbArc
 50
149.305312
 51
169.752016
  0
ARC
  5
597
100
AcDbEntity
  8
0
 62
     7
100
AcDbCircle
 10
50.855434
 20
6.581691
 30
0.0
 40
1.599124
210
0.0
220
0.0
230
1.0
100
AcDbArc
 50
169.752071
 51
189.424358
  0
ARC
  5
598
100
AcDbEntity
  8
0
 62
     7
100
AcDbCircle
 10
50.846149
 20
6.580153
 30
0.0
 40
1.589716
210
0.0
220
0.0
230
1.0
100
AcDbArc
 50
189.424468
 51
209.160449
  0
ARC
  5
599
100
AcDbEntity
  8
0
 62
     7
100
AcDbCircle
 10
50.755238
 20
6.529426
 30
0.0
 40
1.485606
210
0.0
220
0.0
230
1.0
100
AcDbArc
 50
209.160449
 51
229.924744
  0
ARC
  5
59A
100
AcDbEntity
  8
0
 62
     7
100
AcDbCircle
 10
50.871677
 20
6.667824
 30
0.0
 40
1.666475
210
0.0
220
0.0
230
1.0
100
AcDbArc
 50
229.924716
 51
239.841249
  0
ARC
  5
59B
100
AcDbEntity
  8
0
 62
     7
100
AcDbCircle
 10
50.877983
 20
6.678671
 30
0.0
 40
1.679019
210
0.0
220
0.0
230
1.0
100
AcDbArc
 50
239.841249
 51
249.702178
  0
ARC
  5
59C
100
AcDbEntity
  8
0
 62
     7
100
AcDbCircle
 10
50.843376
 20
6.585107
 30
0.0
 40
1.579261
210
0.0
220
0.0
230
1.0
100
AcDbArc
 50
249.702123
 51
259.866592
  0
ARC
  5
59D
100
AcDbEntity
  8
0
 62
     7
100
AcDbCircle
 10
50.78207
 20
6.242072
 30
0.0
 40
1.23079
210
0.0
220
0.0
230
1.0
100
AcDbArc
 50
259.86651
 51
272.120006
  0
ARC
  5
59E
100
AcDbEntity
  8
0
 62
     7
100
AcDbCircle
 10
50.761005
 20
6.811032
 30
0.0
 40
1.80014
210
0.0
220
0.0
230
1.0
100
AcDbArc
 50
272.119979
 51
273.96258
  0
ARC
  5
59F
100
AcDbEntity
  8
0
 62
     7
100
AcDbCircle
 10
50.868034
 20
5.265964
 30
0.0
 40
0.251368
210
0.0
220
0.0
230
1.0
100
AcDbArc
 50
273.962627
 51
281.837023
  0
ARC
  5
5A0
100
AcDbEntity
  8
0
 62
     7
100
AcDbCircle
 10
50.89048
 20
5.158859
 30
0.0
 40
0.141937
210
0.0
220
0.0
230
1.0
100
AcDbArc
 50
281.837023
 51
293.186277
  0
ARC
  5
5A1
100
AcDbEntity
  8
0
 62
     7
100
AcDbCircle
 10
50.843456
 20
5.268649
 30
0.0
 40
0.261374
210
0.0
220
0.0
230
1.0
100
AcDbArc
 50
293.186256
 51
300.371998
  0
ARC
  5
5A2
100
AcDbEntity
  8
0
 62
     7
100
AcDbCircle
 10
50.807064
 20
5.330751
 30
0.0
 40
0.333354
210
0.0
220
0.0
230
1.0
100
AcDbArc
 50
300.372025
 51
314.485132
  0
ARC
  5
5A3
100
AcDbEntity
  8
0
 62
     7
100
AcDbCircle
 10
50.857239
 20
5.27966
 30
0.0
 40
0.261743
210
0.0
220
0.0
230
1.0
100
AcDbArc
 50
314.485187
 51
331.403866
  0
ARC
  5
5A4
100
AcDbEntity
  8
0
 62
     7
100
AcDbCircle
 10
50.844421
 20
5.286647
 30
0.0
 40
0.276341
210
0.0
220
0.0
230
1.0
100
AcDbArc
 50
331.403866
 51
347.808915
  0
ARC
  5
5A5
100
AcDbEntity
  8
0
 62
     7
100
AcDbCircle
 10
50.716564
 20
5.31427
 30
0.0
 40
0.407147
210
0.0
220
0.0
230
1.0
100
AcDbArc
 50
347.808942
 51
0.079121
  0
ARC
  5
5A6
100
AcDbEntity
  8
0
 62
     7
100
AcDbCircle
 10
50.773605
 20
5.31435
 30
0.0
 40
0.350108
210
0.0
220
0.0
230
1.0
100
AcDbArc
 50
0.079121
 51
10.057632
  0
ARC
  5
5A7
100
AcDbEntity
  8
0
 62
     7
100
AcDbCircle
 10
50.862576
 20
5.330129
 30
0.0
 40
0.25975
210
0.0
220
0.0
230
1.0
100
AcDbArc
 50
10.057603
 51
22.538709
  0
ARC
  5
5A8
100
AcDbEntity
  8
0
 62
     7
100
AcDbCircle
 10
50.87085
 20
5.333561
 30
0.0
 40
0.250795
210
0.0
220
0.0
230
1.0
100
AcDbArc
 50
22.538682
 51
35.264274
  0
ARC
  5
5A9
100
AcDbEntity
  8
0
 62
     7
100
AcDbCircle
 10
50.827335
 20
5.302797
 30
0.0
 40
0.304081
210
0.0
220
0.0
230
1.0
100
AcDbArc
 50
35.264202
 51
46.278046
  0
ARC
  5
5AA
100
AcDbEntity
  8
0
 62
     7
100
AcDbCircle
 10
50.824921
 20
5.300273
 30
0.0
 40
0.307576
210
0.0
220
0.0
230
1.0
100
AcDbArc
 50
46.277947
 51
57.286535
  0
ARC
  5
5AB
100
AcDbEntity
  8
0
 62
     7
100
AcDbCircle
 10
50.859936
 20
5.354782
 30
0.0
 40
0.242791
210
0.0
220
0.0
230
1.0
100
AcDbArc
 50
57.28647
 51
70.431046
  0
ARC
  5
5AC
100
AcDbEntity
  8
0
 62
     7
100
AcDbCircle
 10
50.823826
 20
5.253198
 30
0.0
 40
0.350601
210
0.0
220
0.0
230
1.0
100
AcDbArc
 50
70.431067
 51
80.990307
  0
ARC
  5
5AD
100
AcDbEntity
  8
0
 62
     7
100
AcDbCircle
 10
50.698162
 20
4.460666
 30
0.0
 40
1.153035
210
0.0
220
0.0
230
1.0
100
AcDbArc
 50
80.9903
 51
85.340365
  0
ARC
  5
5AE
100
AcDbEntity
  8
0
 62
     7
100
AcDbCircle
 10
50.945866
 20
7.49977
 30
0.0
 40
1.896149
210
0.0
220
0.0
230
1.0
100
AcDbArc
 50
262.486052
 51
265.34036
  0
ARC
  5
5AF
100
AcDbEntity
  8
0
 62
     7
100
AcDbCircle
 10
50.82444
 20
6.579182
 30
0.0
 40
0.967586
210
0.0
220
0.0
230
1.0
100
AcDbArc
 50
257.763959
 51
262.486052
  0
ARC
  5
5B0
100
AcDbEntity
  8
0
 62
     7
100
AcDbCircle
 10
50.796726
 20
6.451386
 30
0.0
 40
0.83682
210
0.0
220
0.0
230
1.0
100
AcDbArc
 50
252.637336
 51
257.763987
  0
ARC
  5
5B1
100
AcDbEntity
  8
0
 62
     7
100
AcDbCircle
 10
50.862488
 20
6.661718
 30
0.0
 40
1.057193
210
0.0
220
0.0
230
1.0
100
AcDbArc
 50
248.334945
 51
252.637336
  0
ARC
  5
5B2
100
AcDbEntity
  8
0
 62
     7
100
AcDbCircle
 10
50.833851
 20
6.589623
 30
0.0
 40
0.979617
210
0.0
220
0.0
230
1.0
100
AcDbArc
 50
237.93396
 51
248.334917
  0
ARC
  5
5B3
100
AcDbEntity
  8
0
 62
     7
100
AcDbCircle
 10
50.806675
 20
6.546245
 30
0.0
 40
0.928429
210
0.0
220
0.0
230
1.0
100
AcDbArc
 50
227.105829
 51
237.933987
  0
ARC
  5
5B4
100
AcDbEntity
  8
0
 62
     7
100
AcDbCircle
 10
50.827377
 20
6.56853
 30
0.0
 40
0.958845
210
0.0
220
0.0
230
1.0
100
AcDbArc
 50
216.462058
 51
227.105911
  0
ARC
  5
5B5
100
AcDbEntity
  8
0
 62
     7
100
AcDbCircle
 10
50.962692
 20
6.668522
 30
0.0
 40
1.127101
210
0.0
220
0.0
230
1.0
100
AcDbArc
 50
207.033515
 51
216.462058
  0
ARC
  5
5B6
100
AcDbEntity
  8
0
 62
     7
100
AcDbCircle
 10
51.515923
 20
6.950812
 30
0.0
 40
1.748188
210
0.0
220
0.0
230
1.0
100
AcDbArc
 50
205.764753
 51
207.033501
  0
ARC
  5
5B7
100
AcDbEntity
  8
0
 62
     7
100
AcDbCircle
 10
50.938644
 20
6.672184
 30
0.0
 40
1.107187
210
0.0
220
0.0
230
1.0
100
AcDbArc
 50
203.978399
 51
205.764848
  0
ARC
  5
5B8
100
AcDbEntity
  8
0
 62
     7
100
AcDbCircle
 10
51.270126
 20
6.819621
 30
0.0
 40
1.469978
210
0.0
220
0.0
230
1.0
100
AcDbArc
 50
202.852893
 51
203.978399
  0
ARC
  5
5B9
100
AcDbEntity
  8
0
 62
     7
100
AcDbCircle
 10
49.935757
 20
6.257253
 30
0.0
 40
0.021943
210
0.0
220
0.0
230
1.0
100
AcDbArc
 50
180.000036
 51
202.852852
  0
ARC
  5
5BA
100
AcDbEntity
  8
0
 62
     7
100
AcDbCircle
 10
49.921543
 20
6.257253
 30
0.0
 40
0.007728
210
0.0
220
0.0
230
1.0
100
AcDbArc
 50
90.940697
 51
180.000022
  0
LINE
  5
5BB
100
AcDbEntity
  8
0
 62
     7
 48
0.005322
100
AcDbLine
 10
49.921413
 20
6.26498
 30
0.0
 11
50.134266
 21
6.268202
 31
0.0
210
0.0
220
0.0
230
1.0
  0
ARC
  5
5BC
100
AcDbEntity
  8
0
 62
     7
100
AcDbCircle
 10
50.571838
 20
-25.294556
 30
0.0
 40
31.56579
210
0.0
220
0.0
230
1.0
100
AcDbArc
 50
90.230023
 51
90.794272
  0
LINE
  5
5BD
100
AcDbEntity
  8
0
 62
     7
 48
0.014905
100
AcDbLine
 10
50.44511
 20
6.270981
 30
0.0
 11
51.041313
 21
6.272882
 31
0.0
210
0.0
220
0.0
230
1.0
  0
LINE
  5
5BE
100
AcDbEntity
  8
0
 62
     7
 48
0.028188
100
AcDbLine
 10
51.041313
 20
6.272882
 30
0.0
 11
52.168812
 21
6.275551
 31
0.0
210
0.0
220
0.0
230
1.0
  0
LINE
  5
5BF
100
AcDbEntity
  8
0
 62
     7
 48
0.001322
100
AcDbLine
 10
52.168812
 20
6.275551
 30
0.0
 11
52.216175
 21
6.299089
 31
0.0
210
0.0
220
0.0
230
1.0
  0
ARC
  5
5C0
100
AcDbEntity
  8
0
 62
     7
100
AcDbCircle
 10
52.071804
 20
6.589599
 30
0.0
 40
0.324407
210
0.0
220
0.0
230
1.0
100
AcDbArc
 50
296.424907
 51
311.185167
  0
ARC
  5
5C1
100
AcDbEntity
  8
0
 62
     7
100
AcDbCircle
 10
52.0555
 20
6.608234
 30
0.0
 40
0.349168
210
0.0
220
0.0
230
1.0
100
AcDbArc
 50
311.185058
 51
325.153177
  0
ARC
  5
5C2
100
AcDbEntity
  8
0
 62
     7
100
AcDbCircle
 10
52.056713
 20
6.607392
 30
0.0
 40
0.347694
210
0.0
220
0.0
230
1.0
100
AcDbArc
 50
325.153177
 51
339.151896
  0
ARC
  5
5C3
100
AcDbEntity
  8
0
 62
     7
100
AcDbCircle
 10
52.084126
 20
6.596952
 30
0.0
 40
0.318357
210
0.0
220
0.0
230
1.0
100
AcDbArc
 50
339.151976
 51
354.107387
  0
ARC
  5
5C4
100
AcDbEntity
  8
0
 62
     7
100
AcDbCircle
 10
51.802948
 20
6.625971
 30
0.0
 40
0.601028
210
0.0
220
0.0
230
1.0
100
AcDbArc
 50
354.107414
 51
5.894907
  0
ARC
  5
5C5
100
AcDbEntity
  8
0
 62
     7
100
AcDbCircle
 10
50.352837
 20
6.476247
 30
0.0
 40
2.058849
210
0.0
220
0.0
230
1.0
100
AcDbArc
 50
5.894916
 51
10.607633
  0
ARC
  5
5C6
100
AcDbEntity
  8
0
 62
     7
100
AcDbCircle
 10
50.280819
 20
6.462758
 30
0.0
 40
2.132121
210
0.0
220
0.0
230
1.0
100
AcDbArc
 50
10.607659
 51
15.344657
  0
ARC
  5
5C7
100
AcDbEntity
  8
0
 62
     7
100
AcDbCircle
 10
51.298847
 20
6.742114
 30
0.0
 40
1.076458
210
0.0
220
0.0
230
1.0
100
AcDbArc
 50
15.34465
 51
23.243982
  0
ARC
  5
5C8
100
AcDbEntity
  8
0
 62
     7
100
AcDbCircle
 10
50.427757
 20
6.367973
 30
0.0
 40
2.024497
210
0.0
220
0.0
230
1.0
100
AcDbArc
 50
23.243906
 51
27.977698
  0
ARC
  5
5C9
100
AcDbEntity
  8
0
 62
     7
100
AcDbCircle
 10
50.964397
 20
6.653041
 30
0.0
 40
1.41684
210
0.0
220
0.0
230
1.0
100
AcDbArc
 50
27.977724
 51
34.163247
  0
ARC
  5
5CA
100
AcDbEntity
  8
0
 62
     7
100
AcDbCircle
 10
50.949558
 20
6.642971
 30
0.0
 40
1.434773
210
0.0
220
0.0
230
1.0
100
AcDbArc
 50
34.163356
 51
40.305599
  0
ARC
  5
5CB
100
AcDbEntity
  8
0
 62
     7
100
AcDbCircle
 10
50.418198
 20
6.19225
 30
0.0
 40
2.131547
210
0.0
220
0.0
230
1.0
100
AcDbArc
 50
40.305602
 51
44.871245
  0
ARC
  5
5CC
100
AcDbEntity
  8
0
 62
     7
100
AcDbCircle
 10
50.715298
 20
6.488024
 30
0.0
 40
1.71232
210
0.0
220
0.0
230
1.0
100
AcDbArc
 50
44.871143
 51
51.010407
  0
ARC
  5
5CD
100
AcDbEntity
  8
0
 62
     7
100
AcDbCircle
 10
50.905937
 20
6.72353
 30
0.0
 40
1.409325
210
0.0
220
0.0
230
1.0
100
AcDbArc
 50
51.010407
 51
58.114869
  0
ARC
  5
5CE
100
AcDbEntity
  8
0
 62
     7
100
AcDbCircle
 10
50.912754
 20
6.734482
 30
0.0
 40
1.396428
210
0.0
220
0.0
230
1.0
100
AcDbArc
 50
58.114945
 51
65.254439
  0
ARC
  5
5CF
100
AcDbEntity
  8
0
 62
     7
100
AcDbCircle
 10
50.808914
 20
6.509194
 30
0.0
 40
1.644493
210
0.0
220
0.0
230
1.0
100
AcDbArc
 50
65.254514
 51
71.570117
  0
ARC
  5
5D0
100
AcDbEntity
  8
0
 62
     7
100
AcDbCircle
 10
50.724602
 20
6.256176
 30
0.0
 40
1.911189
210
0.0
220
0.0
230
1.0
100
AcDbArc
 50
71.57013
 51
75.280733
  0
ARC
  5
5D1
100
AcDbEntity
  8
0
 62
     7
100
AcDbCircle
 10
50.930874
 20
7.041349
 30
0.0
 40
1.099374
210
0.0
220
0.0
230
1.0
100
AcDbArc
 50
75.28076
 51
80.894855
  0
ARC
  5
5D2
100
AcDbEntity
  8
0
 62
     7
100
AcDbCircle
 10
50.911224
 20
6.918754
 30
0.0
 40
1.223534
210
0.0
220
0.0
230
1.0
100
AcDbArc
 50
80.894903
 51
86.165186
  0
ARC
  5
5D3
100
AcDbEntity
  8
0
 62
     7
100
AcDbCircle
 10
50.802292
 20
5.293586
 30
0.0
 40
2.852347
210
0.0
220
0.0
230
1.0
100
AcDbArc
 50
86.165241
 51
88.965031
  0
ARC
  5
5D4
100
AcDbEntity
  8
0
 62
     7
100
AcDbCircle
 10
50.723179
 20
0.913771
 30
0.0
 40
7.232877
210
0.0
220
0.0
230
1.0
100
AcDbArc
 50
88.965099
 51
89.543787
  0
ARC
  5
5D5
100
AcDbEntity
  8
0
 62
     7
100
AcDbCircle
 10
50.741371
 20
3.198412
 30
0.0
 40
4.948163
210
0.0
220
0.0
230
1.0
100
AcDbArc
 50
89.543828
 51
90.312962
  0
ARC
  5
5D6
100
AcDbEntity
  8
0
 62
     7
100
AcDbCircle
 10
50.746189
 20
2.315739
 30
0.0
 40
5.83085
210
0.0
220
0.0
230
1.0
100
AcDbArc
 50
90.312934
 51
90.859766
  0
ARC
  5
5D7
100
AcDbEntity
  8
0
 62
     7
100
AcDbCircle
 10
50.660927
 20
7.997406
 30
0.0
 40
0.148542
210
0.0
220
0.0
230
1.0
100
AcDbArc
 50
90.859725
 51
98.561501
  0
ARC
  5
5D8
100
AcDbEntity
  8
0
 62
     7
100
AcDbCircle
 10
50.769989
 20
6.45915
 30
0.0
 40
1.101099
210
0.0
220
0.0
230
1.0
100
AcDbArc
 50
61.26707
 51
73.711839
  0
ARC
  5
5D9
100
AcDbEntity
  8
0
 62
     7
100
AcDbCircle
 10
50.842609
 20
6.591613
 30
0.0
 40
0.950034
210
0.0
220
0.0
230
1.0
100
AcDbArc
 50
47.366054
 51
61.267043
  0
ARC
  5
5DA
100
AcDbEntity
  8
0
 62
     7
100
AcDbCircle
 10
50.842102
 20
6.591064
 30
0.0
 40
0.950782
210
0.0
220
0.0
230
1.0
100
AcDbArc
 50
33.471038
 51
47.366091
  0
ARC
  5
5DB
100
AcDbEntity
  8
0
 62
     7
100
AcDbCircle
 10
50.713764
 20
6.50621
 30
0.0
 40
1.104636
210
0.0
220
0.0
230
1.0
100
AcDbArc
 50
21.054164
 51
33.471059
  0
LINE
  5
5DC
100
AcDbEntity
  8
0
 62
     7
 48
0.000603
100
AcDbLine
 10
51.744656
 20
6.903051
 30
0.0
 11
51.753319
 21
6.880551
 31
0.0
210
0.0
220
0.0
230
1.0
  0
LINE
  5
5DD
100
AcDbEntity
  8
0
 62
     7
 48
0.022994
100
AcDbLine
 10
51.753319
 20
6.880551
 30
0.0
 11
50.833561
 21
6.880551
 31
0.0
210
0.0
220
0.0
230
1.0
  0
LINE
  5
5DE
100
AcDbEntity
  8
0
 62
     7
 48
0.010613
100
AcDbLine
 10
50.833561
 20
6.880551
 30
0.0
 11
50.409031
 21
6.88111
 31
0.0
210
0.0
220
0.0
230
1.0
  0
ARC
  5
5DF
100
AcDbEntity
  8
0
 62
     7
100
AcDbCircle
 10
50.490639
 20
37.82991
 30
0.0
 40
30.948912
210
0.0
220
0.0
230
1.0
100
AcDbArc
 50
269.33624
 51
269.848914
  0
LINE
  5
5E0
100
AcDbEntity
  8
0
 62
     7
 48
0.005322
100
AcDbLine
 10
50.132107
 20
6.88308
 30
0.0
 11
49.919262
 21
6.885685
 31
0.0
210
0.0
220
0.0
230
1.0
  0
ARC
  5
5E1
100
AcDbEntity
  8
0
 62
     7
100
AcDbCircle
 10
49.919334
 20
6.891205
 30
0.0
 40
0.005521
210
0.0
220
0.0
230
1.0
100
AcDbArc
 50
180.00005
 51
269.26108
  0
ARC
  5
5E2
100
AcDbEntity
  8
0
 62
     7
100
AcDbCircle
 10
49.933533
 20
6.891205
 30
0.0
 40
0.019721
210
0.0
220
0.0
230
1.0
100
AcDbArc
 50
159.020683
 51
179.999978
  0
ARC
  5
5E3
100
AcDbEntity
  8
0
 62
     7
100
AcDbCircle
 10
51.168377
 20
6.417705
 30
0.0
 40
1.342238
210
0.0
220
0.0
230
1.0
100
AcDbArc
 50
157.99849
 51
159.020642
  0
ARC
  5
5E4
100
AcDbEntity
  8
0
 62
     7
100
AcDbCircle
 10
50.853333
 20
6.545
 30
0.0
 40
1.002446
210
0.0
220
0.0
230
1.0
100
AcDbArc
 50
156.364217
 51
157.998504
  0
ARC
  5
5E5
100
AcDbEntity
  8
0
 62
     7
100
AcDbCircle
 10
51.382072
 20
6.313605
 30
0.0
 40
1.579603
210
0.0
220
0.0
230
1.0
100
AcDbArc
 50
155.201787
 51
156.36419
  0
ARC
  5
5E6
100
AcDbEntity
  8
0
 62
     7
100
AcDbCircle
 10
50.869541
 20
6.550409
 30
0.0
 40
1.015006
210
0.0
220
0.0
230
1.0
100
AcDbArc
 50
142.78897
 51
155.201746
  0
ARC
  5
5E7
100
AcDbEntity
  8
0
 62
     7
100
AcDbCircle
 10
50.861336
 20
6.55664
 30
0.0
 40
1.004706
210
0.0
220
0.0
230
1.0
100
AcDbArc
 50
130.2809
 51
142.78897
  0
ARC
  5
5E8
100
AcDbEntity
  8
0
 62
     7
100
AcDbCircle
 10
50.844276
 20
6.576769
 30
0.0
 40
0.978318
210
0.0
220
0.0
230
1.0
100
AcDbArc
 50
117.598755
 51
130.280927
  0
ARC
  5
5E9
100
AcDbEntity
  8
0
 62
     7
100
AcDbCircle
 10
50.808357
 20
6.645475
 30
0.0
 40
0.900791
210
0.0
220
0.0
230
1.0
100
AcDbArc
 50
104.106583
 51
117.598796
  0
ARC
  5
5EA
100
AcDbEntity
  8
0
 62
     7
100
AcDbCircle
 10
51.194225
 20
5.110014
 30
0.0
 40
2.483996
210
0.0
220
0.0
230
1.0
100
AcDbArc
 50
102.305961
 51
104.106618
  0
ARC
  5
5EB
100
AcDbEntity
  8
0
 62
     7
100
AcDbCircle
 10
50.754452
 20
7.126005
 30
0.0
 40
0.420595
210
0.0
220
0.0
230
1.0
100
AcDbArc
 50
95.608209
 51
102.306009
  0
ARC
  5
5EC
100
AcDbEntity
  8
0
 62
     7
100
AcDbCircle
 10
50.762974
 20
7.03923
 30
0.0
 40
0.507787
210
0.0
220
0.0
230
1.0
100
AcDbArc
 50
89.725299
 51
95.608284
  0
ARC
  5
5ED
100
AcDbEntity
  8
0
 62
     7
100
AcDbCircle
 10
50.743362
 20
2.94799
 30
0.0
 40
4.599075
210
0.0
220
0.0
230
1.0
100
AcDbArc
 50
88.561571
 51
89.725354
  0
ARC
  5
5EE
100
AcDbEntity
  8
0
 62
     7
100
AcDbCircle
 10
50.804165
 20
5.369396
 30
0.0
 40
2.176904
210
0.0
220
0.0
230
1.0
100
AcDbArc
 50
86.716232
 51
88.561571
  0
ARC
  5
5EF
100
AcDbEntity
  8
0
 62
     7
100
AcDbCircle
 10
50.889641
 20
6.859152
 30
0.0
 40
0.684699
210
0.0
220
0.0
230
1.0
100
AcDbArc
 50
82.346885
 51
86.716184
  0
ARC
  5
5F0
100
AcDbEntity
  8
0
 62
     7
100
AcDbCircle
 10
50.910046
 20
7.011037
 30
0.0
 40
0.531451
210
0.0
220
0.0
230
1.0
100
AcDbArc
 50
77.258681
 51
82.346858
  0
ARC
  5
5F1
100
AcDbEntity
  8
0
 62
     7
100
AcDbCircle
 10
50.837509
 20
6.690219
 30
0.0
 40
0.860367
210
0.0
220
0.0
230
1.0
100
AcDbArc
 50
73.711873
 51
77.25866
  0
ARC
  5
5F2
100
AcDbEntity
  8
0
 62
     7
100
AcDbCircle
 10
13.498619
 20
7.63477
 30
0.0
 40
0.314501
210
0.0
220
0.0
230
1.0
100
AcDbArc
 50
105.737305
 51
118.289014
  0
ARC
  5
5F3
100
AcDbEntity
  8
0
 62
     7
100
AcDbCircle
 10
13.497212
 20
7.637384
 30
0.0
 40
0.311532
210
0.0
220
0.0
230
1.0
100
AcDbArc
 50
118.289055
 51
130.930341
  0
ARC
  5
5F4
100
AcDbEntity
  8
0
 62
     7
100
AcDbCircle
 10
13.50174
 20
7.632163
 30
0.0
 40
0.318442
210
0.0
220
0.0
230
1.0
100
AcDbArc
 50
130.930369
 51
143.42564
  0
ARC
  5
5F5
100
AcDbEntity
  8
0
 62
     7
100
AcDbCircle
 10
13.523766
 20
7.61582
 30
0.0
 40
0.345871
210
0.0
220
0.0
230
1.0
100
AcDbArc
 50
143.425558
 51
155.170068
  0
ARC
  5
5F6
100
AcDbEntity
  8
0
 62
     7
100
AcDbCircle
 10
13.34556
 20
7.698273
 30
0.0
 40
0.149513
210
0.0
220
0.0
230
1.0
100
AcDbArc
 50
155.169986
 51
176.99285
  0
ARC
  5
5F7
100
AcDbEntity
  8
0
 62
     7
100
AcDbCircle
 10
17.061157
 20
7.50308
 30
0.0
 40
3.870234
210
0.0
220
0.0
230
1.0
100
AcDbArc
 50
176.992796
 51
179.057917
  0
ARC
  5
5F8
100
AcDbEntity
  8
0
 62
     7
100
AcDbCircle
 10
30.09901
 20
7.288679
 30
0.0
 40
16.909847
210
0.0
220
0.0
230
1.0
100
AcDbArc
 50
179.05789
 51
179.950554
  0
LINE
  5
5F9
100
AcDbEntity
  8
0
 62
     7
 48
0.020568
100
AcDbLine
 10
13.189166
 20
7.303271
 30
0.0
 11
13.188812
 21
6.480551
 31
0.0
210
0.0
220
0.0
230
1.0
  0
LINE
  5
5FA
100
AcDbEntity
  8
0
 62
     7
 48
0.030875
100
AcDbLine
 10
13.188812
 20
6.480551
 30
0.0
 11
13.188812
 21
5.245551
 31
0.0
210
0.0
220
0.0
230
1.0
  0
LINE
  5
5FB
100
AcDbEntity
  8
0
 62
     7
 48
0.001293
100
AcDbLine
 10
13.188812
 20
5.245551
 30
0.0
 11
13.210511
 21
5.198588
 31
0.0
210
0.0
220
0.0
230
1.0
  0
ARC
  5
5FC
100
AcDbEntity
  8
0
 62
     7
100
AcDbCircle
 10
13.432132
 20
5.300991
 30
0.0
 40
0.244135
210
0.0
220
0.0
230
1.0
100
AcDbArc
 50
204.800193
 51
216.580822
  0
ARC
  5
5FD
100
AcDbEntity
  8
0
 62
     7
100
AcDbCircle
 10
13.595753
 20
5.422421
 30
0.0
 40
0.447891
210
0.0
220
0.0
230
1.0
100
AcDbArc
 50
216.580808
 51
224.060521
  0
ARC
  5
5FE
100
AcDbEntity
  8
0
 62
     7
100
AcDbCircle
 10
13.594095
 20
5.420817
 30
0.0
 40
0.445584
210
0.0
220
0.0
230
1.0
100
AcDbArc
 50
224.060507
 51
231.552815
  0
ARC
  5
5FF
100
AcDbEntity
  8
0
 62
     7
100
AcDbCircle
 10
13.462721
 20
5.255346
 30
0.0
 40
0.234303
210
0.0
220
0.0
230
1.0
100
AcDbArc
 50
231.552842
 51
243.673805
  0
ARC
  5
600
100
AcDbEntity
  8
0
 62
     7
100
AcDbCircle
 10
13.430057
 20
5.189331
 30
0.0
 40
0.16065
210
0.0
220
0.0
230
1.0
100
AcDbArc
 50
243.673805
 51
253.122026
  0
ARC
  5
601
100
AcDbEntity
  8
0
 62
     7
100
AcDbCircle
 10
13.436808
 20
5.211579
 30
0.0
 40
0.1839
210
0.0
220
0.0
230
1.0
100
AcDbArc
 50
253.122006
 51
261.659462
  0
ARC
  5
602
100
AcDbEntity
  8
0
 62
     7
100
AcDbCircle
 10
13.456322
 20
5.344685
 30
0.0
 40
0.318427
210
0.0
220
0.0
230
1.0
100
AcDbArc
 50
261.65938
 51
267.843761
  0
ARC
  5
603
100
AcDbEntity
  8
0
 62
     7
100
AcDbCircle
 10
13.493812
 20
6.340349
 30
0.0
 40
1.314798
210
0.0
220
0.0
230
1.0
100
AcDbArc
 50
267.843707
 51
270.000025
  0
ARC
  5
604
100
AcDbEntity
  8
0
 62
     7
100
AcDbCircle
 10
13.49381
 20
6.724357
 30
0.0
 40
1.698806
210
0.0
220
0.0
230
1.0
100
AcDbArc
 50
270.000052
 51
271.878163
  0
ARC
  5
605
100
AcDbEntity
  8
0
 62
     7
100
AcDbCircle
 10
13.542921
 20
5.226726
 30
0.0
 40
0.200369
210
0.0
220
0.0
230
1.0
100
AcDbArc
 50
271.878218
 51
280.935622
  0
ARC
  5
606
100
AcDbEntity
  8
0
 62
     7
100
AcDbCircle
 10
13.558809
 20
5.144487
 30
0.0
 40
0.116609
210
0.0
220
0.0
230
1.0
100
AcDbArc
 50
280.935622
 51
293.853122
  0
ARC
  5
607
100
AcDbEntity
  8
0
 62
     7
100
AcDbCircle
 10
13.490015
 20
5.300075
 30
0.0
 40
0.286729
210
0.0
220
0.0
230
1.0
100
AcDbArc
 50
293.853183
 51
300.449527
  0
ARC
  5
608
100
AcDbEntity
  8
0
 62
     7
100
AcDbCircle
 10
13.519844
 20
5.249331
 30
0.0
 40
0.227866
210
0.0
220
0.0
230
1.0
100
AcDbArc
 50
300.4495
 51
306.704423
  0
ARC
  5
609
100
AcDbEntity
  8
0
 62
     7
100
AcDbCircle
 10
13.347914
 20
5.479958
 30
0.0
 40
0.515528
210
0.0
220
0.0
230
1.0
100
AcDbArc
 50
306.704399
 51
310.102036
  0
ARC
  5
60A
100
AcDbEntity
  8
0
 62
     7
100
AcDbCircle
 10
13.338438
 20
5.491208
 30
0.0
 40
0.530237
210
0.0
220
0.0
230
1.0
100
AcDbArc
 50
310.102063
 51
313.478144
  0
ARC
  5
60B
100
AcDbEntity
  8
0
 62
     7
100
AcDbCircle
 10
13.496588
 20
5.324426
 30
0.0
 40
0.300393
210
0.0
220
0.0
230
1.0
100
AcDbArc
 50
313.478171
 51
318.64469
  0
ARC
  5
60C
100
AcDbEntity
  8
0
 62
     7
100
AcDbCircle
 10
13.562154
 20
5.266713
 30
0.0
 40
0.213046
210
0.0
220
0.0
230
1.0
100
AcDbArc
 50
318.644577
 51
344.126867
  0
ARC
  5
60D
100
AcDbEntity
  8
0
 62
     7
100
AcDbCircle
 10
13.254056
 20
5.354323
 30
0.0
 40
0.533359
210
0.0
220
0.0
230
1.0
100
AcDbArc
 50
344.126815
 51
356.968472
  0
ARC
  5
60E
100
AcDbEntity
  8
0
 62
     7
100
AcDbCircle
 10
9.247071
 20
5.56653
 30
0.0
 40
4.545958
210
0.0
220
0.0
230
1.0
100
AcDbArc
 50
356.968472
 51
359.901847
  0
LINE
  5
60F
100
AcDbEntity
  8
0
 62
     7
 48
0.023045
100
AcDbLine
 10
13.793023
 20
5.558742
 30
0.0
 11
13.793812
 21
6.480551
 31
0.0
210
0.0
220
0.0
230
1.0
  0
LINE
  5
610
100
AcDbEntity
  8
0
 62
     7
 48
0.023354
100
AcDbLine
 10
13.793812
 20
6.480551
 30
0.0
 11
13.792979
 21
7.414697
 31
0.0
210
0.0
220
0.0
230
1.0
  0
ARC
  5
611
100
AcDbEntity
  8
0
 62
     7
100
AcDbCircle
 10
9.831299
 20
7.407639
 30
0.0
 40
3.961688
210
0.0
220
0.0
230
1.0
100
AcDbArc
 50
0.102093
 51
3.392478
  0
ARC
  5
612
100
AcDbEntity
  8
0
 62
     7
100
AcDbCircle
 10
13.3342
 20
7.615287
 30
0.0
 40
0.452638
210
0.0
220
0.0
230
1.0
100
AcDbArc
 50
3.392476
 51
18.386437
  0
ARC
  5
613
100
AcDbEntity
  8
0
 62
     7
100
AcDbCircle
 10
13.53514
 20
7.682079
 30
0.0
 40
0.240887
210
0.0
220
0.0
230
1.0
100
AcDbArc
 50
18.386395
 51
42.425556
  0
ARC
  5
614
100
AcDbEntity
  8
0
 62
     7
100
AcDbCircle
 10
13.476651
 20
7.628623
 30
0.0
 40
0.320124
210
0.0
220
0.0
230
1.0
100
AcDbArc
 50
42.425573
 51
57.513553
  0
ARC
  5
615
100
AcDbEntity
  8
0
 62
     7
100
AcDbCircle
 10
13.479259
 20
7.632717
 30
0.0
 40
0.31527
210
0.0
220
0.0
230
1.0
100
AcDbArc
 50
57.513587
 51
72.77544
  0
ARC
  5
616
100
AcDbEntity
  8
0
 62
     7
100
AcDbCircle
 10
13.483509
 20
7.64643
 30
0.0
 40
0.300913
210
0.0
220
0.0
230
1.0
100
AcDbArc
 50
72.775474
 51
88.417639
  0
ARC
  5
617
100
AcDbEntity
  8
0
 62
     7
100
AcDbCircle
 10
13.484566
 20
7.684638
 30
0.0
 40
0.26269
210
0.0
220
0.0
230
1.0
100
AcDbArc
 50
88.4177
 51
105.73725
  0
ARC
  5
618
100
AcDbEntity
  8
0
 62
     7
100
AcDbCircle
 10
41.560349
 20
7.679826
 30
0.0
 40
0.267978
210
0.0
220
0.0
230
1.0
100
AcDbArc
 50
102.180033
 51
116.563667
  0
ARC
  5
619
100
AcDbEntity
  8
0
 62
     7
100
AcDbCircle
 10
41.590874
 20
7.618776
 30
0.0
 40
0.336232
210
0.0
220
0.0
230
1.0
100
AcDbArc
 50
116.563653
 51
128.697184
  0
ARC
  5
61A
100
AcDbEntity
  8
0
 62
     7
100
AcDbCircle
 10
41.596733
 20
7.611459
 30
0.0
 40
0.345605
210
0.0
220
0.0
230
1.0
100
AcDbArc
 50
128.697156
 51
140.66612
  0
ARC
  5
61B
100
AcDbEntity
  8
0
 62
     7
100
AcDbCircle
 10
41.566303
 20
7.636396
 30
0.0
 40
0.306263
210
0.0
220
0.0
230
1.0
100
AcDbArc
 50
140.666161
 51
153.770521
  0
LINE
  5
61C
100
AcDbEntity
  8
0
 62
     7
 48
0.001288
100
AcDbLine
 10
41.291576
 20
7.771755
 30
0.0
 11
41.26881
 21
7.725551
 31
0.0
210
0.0
220
0.0
230
1.0
  0
LINE
  5
61D
100
AcDbEntity
  8
0
 62
     7
 48
0.030624
100
AcDbLine
 10
41.26881
 20
7.725551
 30
0.0
 11
41.266155
 21
6.500588
 31
0.0
210
0.0
220
0.0
230
1.0
  0
LINE
  5
61E
100
AcDbEntity
  8
0
 62
     7
 48
0.02352
100
AcDbLine
 10
41.266155
 20
6.500588
 30
0.0
 11
41.264969
 21
5.559802
 31
0.0
210
0.0
220
0.0
230
1.0
  0
ARC
  5
61F
100
AcDbEntity
  8
0
 62
     7
100
AcDbCircle
 10
45.483681
 20
5.558322
 30
0.0
 40
4.218707
210
0.0
220
0.0
230
1.0
100
AcDbArc
 50
179.979924
 51
183.169257
  0
ARC
  5
620
100
AcDbEntity
  8
0
 62
     7
100
AcDbCircle
 10
41.762981
 20
5.352306
 30
0.0
 40
0.49231
210
0.0
220
0.0
230
1.0
100
AcDbArc
 50
183.169326
 51
197.34384
  0
ARC
  5
621
100
AcDbEntity
  8
0
 62
     7
100
AcDbCircle
 10
41.517712
 20
5.27571
 30
0.0
 40
0.235362
210
0.0
220
0.0
230
1.0
100
AcDbArc
 50
197.343935
 51
221.95823
  0
ARC
  5
622
100
AcDbEntity
  8
0
 62
     7
100
AcDbCircle
 10
41.628117
 20
5.37497
 30
0.0
 40
0.383826
210
0.0
220
0.0
230
1.0
100
AcDbArc
 50
221.958243
 51
231.854627
  0
ARC
  5
623
100
AcDbEntity
  8
0
 62
     7
100
AcDbCircle
 10
41.534813
 20
5.256166
 30
0.0
 40
0.232763
210
0.0
220
0.0
230
1.0
100
AcDbArc
 50
231.854573
 51
246.248479
  0
ARC
  5
624
100
AcDbEntity
  8
0
 62
     7
100
AcDbCircle
 10
41.536572
 20
5.260165
 30
0.0
 40
0.237133
210
0.0
220
0.0
230
1.0
100
AcDbArc
 50
246.248513
 51
260.487436
  0
ARC
  5
625
100
AcDbEntity
  8
0
 62
     7
100
AcDbCircle
 10
41.565243
 20
5.431272
 30
0.0
 40
0.410623
210
0.0
220
0.0
230
1.0
100
AcDbArc
 50
260.487456
 51
269.926286
  0
ARC
  5
626
100
AcDbEntity
  8
0
 62
     7
100
AcDbCircle
 10
41.565651
 20
5.747482
 30
0.0
 40
0.726834
210
0.0
220
0.0
230
1.0
100
AcDbArc
 50
269.926231
 51
273.334851
  0
ARC
  5
627
100
AcDbEntity
  8
0
 62
     7
100
AcDbCircle
 10
41.596989
 20
5.209641
 30
0.0
 40
0.188079
210
0.0
220
0.0
230
1.0
100
AcDbArc
 50
273.334824
 51
282.648743
  0
ARC
  5
628
100
AcDbEntity
  8
0
 62
     7
100
AcDbCircle
 10
41.600121
 20
5.1957
 30
0.0
 40
0.173793
210
0.0
220
0.0
230
1.0
100
AcDbArc
 50
282.648743
 51
292.443098
  0
ARC
  5
629
100
AcDbEntity
  8
0
 62
     7
100
AcDbCircle
 10
41.453548
 20
5.550546
 30
0.0
 40
0.557717
210
0.0
220
0.0
230
1.0
100
AcDbArc
 50
292.443152
 51
296.551518
  0
ARC
  5
62A
100
AcDbEntity
  8
0
 62
     7
100
AcDbCircle
 10
41.569736
 20
5.318037
 30
0.0
 40
0.297796
210
0.0
220
0.0
230
1.0
100
AcDbArc
 50
296.551538
 51
307.665762
  0
ARC
  5
62B
100
AcDbEntity
  8
0
 62
     7
100
AcDbCircle
 10
41.535896
 20
5.361875
 30
0.0
 40
0.353173
210
0.0
220
0.0
230
1.0
100
AcDbArc
 50
307.66568
 51
317.445637
  0
ARC
  5
62C
100
AcDbEntity
  8
0
 62
     7
100
AcDbCircle
 10
41.546936
 20
5.351737
 30
0.0
 40
0.338185
210
0.0
220
0.0
230
1.0
100
AcDbArc
 50
317.445555
 51
327.425909
  0
ARC
  5
62D
100
AcDbEntity
  8
0
 62
     7
100
AcDbCircle
 10
41.633354
 20
5.296528
 30
0.0
 40
0.235639
210
0.0
220
0.0
230
1.0
100
AcDbArc
 50
327.425882
 51
340.509929
  0
ARC
  5
62E
100
AcDbEntity
  8
0
 62
     7
100
AcDbCircle
 10
41.729527
 20
5.262492
 30
0.0
 40
0.133623
210
0.0
220
0.0
230
1.0
100
AcDbArc
 50
340.509956
 51
359.055914
  0
ARC
  5
62F
100
AcDbEntity
  8
0
 62
     7
100
AcDbCircle
 10
3.614129
 20
5.890597
 30
0.0
 40
38.254192
210
0.0
220
0.0
230
1.0
100
AcDbArc
 50
359.055914
 51
359.397833
  0
ARC
  5
630
100
AcDbEntity
  8
0
 62
     7
100
AcDbCircle
 10
3.115535
 20
5.895815
 30
0.0
 40
38.752815
210
0.0
220
0.0
230
1.0
100
AcDbArc
 50
359.397888
 51
359.909879
  0
LINE
  5
631
100
AcDbEntity
  8
0
 62
     7
 48
0.016267
100
AcDbLine
 10
41.868298
 20
5.834856
 30
0.0
 11
41.868813
 21
6.485551
 31
0.0
210
0.0
220
0.0
230
1.0
  0
LINE
  5
632
100
AcDbEntity
  8
0
 62
     7
 48
0.03075
100
AcDbLine
 10
41.868813
 20
6.485551
 30
0.0
 11
41.868813
 21
7.715551
 31
0.0
210
0.0
220
0.0
230
1.0
  0
LINE
  5
633
100
AcDbEntity
  8
0
 62
     7
 48
0.001273
100
AcDbLine
 10
41.868813
 20
7.715551
 30
0.0
 11
41.847439
 21
7.761774
 31
0.0
210
0.0
220
0.0
230
1.0
  0
ARC
  5
634
100
AcDbEntity
  8
0
 62
     7
100
AcDbCircle
 10
41.56184
 20
7.629719
 30
0.0
 40
0.314652
210
0.0
220
0.0
230
1.0
100
AcDbArc
 50
24.815143
 51
43.972051
  0
ARC
  5
635
100
AcDbEntity
  8
0
 62
     7
100
AcDbCircle
 10
41.549023
 20
7.617351
 30
0.0
 40
0.332466
210
0.0
220
0.0
230
1.0
100
AcDbArc
 50
43.972061
 51
62.354054
  0
ARC
  5
636
100
AcDbEntity
  8
0
 62
     7
100
AcDbCircle
 10
41.554344
 20
7.627516
 30
0.0
 40
0.320989
210
0.0
220
0.0
230
1.0
100
AcDbArc
 50
62.353972
 51
81.08705
  0
ARC
  5
637
100
AcDbEntity
  8
0
 62
     7
100
AcDbCircle
 10
41.561623
 20
7.67393
 30
0.0
 40
0.274009
210
0.0
220
0.0
230
1.0
100
AcDbArc
 50
81.087056
 51
102.179985
  0
LINE
  5
638
100
AcDbEntity
  8
0
 62
     7
 48
0.078182
100
AcDbLine
 10
20.760233
 20
8.391372
 30
0.0
 11
20.760233
 21
5.264106
 31
0.0
210
0.0
220
0.0
230
1.0
  0
ARC
  5
639
100
AcDbEntity
  8
0
 62
     7
100
AcDbCircle
 10
21.124329
 20
5.415898
 30
0.0
 40
0.394471
210
0.0
220
0.0
230
1.0
100
AcDbArc
 50
202.631035
 51
337.368971
  0
LINE
  5
63A
100
AcDbEntity
  8
0
 62
     7
 48
0.078182
100
AcDbLine
 10
21.488428
 20
5.264106
 30
0.0
 11
21.488428
 21
8.391372
 31
0.0
210
0.0
220
0.0
230
1.0
  0
ARC
  5
63B
100
AcDbEntity
  8
0
 62
     7
100
AcDbCircle
 10
21.124329
 20
8.221059
 30
0.0
 40
0.401962
210
0.0
220
0.0
230
1.0
100
AcDbArc
 50
25.06843
 51
154.931572
  0
CIRCLE
  5
63C
100
AcDbEntity
  8
0
 62
     7
100
AcDbCircle
 10
21.124329
 20
9.472594
 30
0.0
 40
0.364098
210
0.0
220
0.0
230
1.0
  0
CIRCLE
  5
63D
100
AcDbEntity
  8
0
 62
     7
100
AcDbCircle
 10
24.062532
 20
6.954233
 30
0.0
 40
1.187474
210
0.0
220
0.0
230
1.0
  0
ARC
  5
63E
100
AcDbEntity
  8
0
 62
     7
100
AcDbCircle
 10
24.062532
 20
6.954233
 30
0.0
 40
1.920894
210
0.0
220
0.0
230
1.0
100
AcDbArc
 50
50.86362
 51
0.00001
  0
LINE
  5
63F
100
AcDbEntity
  8
0
 62
     7
 48
0.02715
100
AcDbLine
 10
25.27494
 20
8.444167
 30
0.0
 11
25.27494
 21
9.530149
 31
0.0
210
0.0
220
0.0
230
1.0
  0
ARC
  5
640
100
AcDbEntity
  8
0
 62
     7
100
AcDbCircle
 10
25.632807
 20
9.480324
 30
0.0
 40
0.361316
210
0.0
220
0.0
230
1.0
100
AcDbArc
 50
7.92615
 51
172.073844
  0
LINE
  5
641
100
AcDbEntity
  8
0
 62
     7
 48
0.064533
100
AcDbLine
 10
25.990669
 20
9.530149
 30
0.0
 11
25.983419
 21
6.948837
 31
0.0
210
0.0
220
0.0
230
1.0
  0
LINE
  5
642
100
AcDbEntity
  8
0
 62
     7
 48
0.06799
100
AcDbLine
 10
29.357489
 20
6.575427
 30
0.0
 11
26.63789
 21
6.575427
 31
0.0
210
0.0
220
0.0
230
1.0
  0
ARC
  5
643
100
AcDbEntity
  8
0
 62
     7
100
AcDbCircle
 10
26.691822
 20
6.969548
 30
0.0
 40
0.397794
210
0.0
220
0.0
230
1.0
100
AcDbArc
 50
182.206337
 51
262.207926
  0
ARC
  5
644
100
AcDbEntity
  8
0
 62
     7
100
AcDbCircle
 10
28.236631
 20
6.955725
 30
0.0
 40
1.942309
210
0.0
220
0.0
230
1.0
100
AcDbArc
 50
266.623371
 51
180.043968
  0
ARC
  5
645
100
AcDbEntity
  8
0
 62
     7
100
AcDbCircle
 10
28.239056
 20
5.375791
 30
0.0
 40
0.377534
210
0.0
220
0.0
230
1.0
100
AcDbArc
 50
86.489927
 51
251.974288
  0
ARC
  5
646
100
AcDbEntity
  8
0
 62
     7
100
AcDbCircle
 10
28.215004
 20
6.955847
 30
0.0
 40
1.204155
210
0.0
220
0.0
230
1.0
100
AcDbArc
 50
272.24478
 51
341.583471
  0
LINE
  5
647
100
AcDbEntity
  8
0
 62
     7
 48
0.056041
100
AcDbLine
 10
27.12191
 20
7.317551
 30
0.0
 11
29.36355
 21
7.317551
 31
0.0
210
0.0
220
0.0
230
1.0
  0
ARC
  5
648
100
AcDbEntity
  8
0
 62
     7
100
AcDbCircle
 10
28.242731
 20
6.992944
 30
0.0
 40
1.16688
210
0.0
220
0.0
230
1.0
100
AcDbArc
 50
16.151842
 51
163.848165
  0
LINE
  5
649
100
AcDbEntity
  8
0
 62
     7
 48
0.055078
100
AcDbLine
 10
31.339205
 20
7.317551
 30
0.0
 11
33.542324
 21
7.317551
 31
0.0
210
0.0
220
0.0
230
1.0
  0
ARC
  5
64A
100
AcDbEntity
  8
0
 62
     7
100
AcDbCircle
 10
32.440765
 20
7.022375
 30
0.0
 40
1.140421
210
0.0
220
0.0
230
1.0
100
AcDbArc
 50
15.000714
 51
164.999284
  0
LINE
  5
64B
100
AcDbEntity
  8
0
 62
     7
 48
0.067218
100
AcDbLine
 10
31.339205
 20
6.578452
 30
0.0
 11
34.027927
 21
6.578452
 31
0.0
210
0.0
220
0.0
230
1.0
  0
ARC
  5
64C
100
AcDbEntity
  8
0
 62
     7
100
AcDbCircle
 10
34.027927
 20
6.926398
 30
0.0
 40
0.347948
210
0.0
220
0.0
230
1.0
100
AcDbArc
 50
269.999997
 51
359.029713
  0
ARC
  5
64D
100
AcDbEntity
  8
0
 62
     7
100
AcDbCircle
 10
32.435799
 20
6.953363
 30
0.0
 40
1.940304
210
0.0
220
0.0
230
1.0
100
AcDbArc
 50
359.029713
 51
271.121405
  0
ARC
  5
64E
100
AcDbEntity
  8
0
 62
     7
100
AcDbCircle
 10
32.429886
 20
5.391264
 30
0.0
 40
0.380373
210
0.0
220
0.0
230
1.0
100
AcDbArc
 50
276.625855
 51
93.358577
  0
ARC
  5
64F
100
AcDbEntity
  8
0
 62
     7
100
AcDbCircle
 10
32.363861
 20
6.823664
 30
0.0
 40
1.053589
210
0.0
220
0.0
230
1.0
100
AcDbArc
 50
193.458473
 51
272.37928
  0
ENDSEC
  0
SECTION
  2
OBJECTS
  0
DICTIONARY
  5
19
100
AcDbDictionary
  3
ACAD_GROUP
350
1A
  3
ACAD_MLINESTYLE
350
1B
  0
DICTIONARY
  5
1A
102
{ACAD_REACTORS
330
19
102
}
100
AcDbDictionary
  0
DICTIONARY
  5
1B
102
{ACAD_REACTORS
330
19
102
}
100
AcDbDictionary
  3
STANDARD
350
1C
  0
MLINESTYLE
  5
1C
102
{ACAD_REACTORS
330
1B
102
}
100
AcDbMlineStyle
  2
STANDARD
 70
     0
  3

 62
     0
 51
90.0
 52
90.0
 71
     2
 49
0.5
 62
   256
  6
BYLAYER
 49
-0.5
 62
   256
  6
BYLAYER
  0
ENDSEC
  0
EOF
