ISO-10303-21;
HEADER;
/* Generated by software containing ST-Developer
 * from STEP Tools, Inc. (www.steptools.com) 
 */

FILE_DESCRIPTION(
/* description */ (''),
/* implementation_level */ '2;1');

FILE_NAME(
/* name */ 
'V:\\Kunden\\Aleris Koblenz\\Auftrag\\Abgaskamin f\X\FCr Herdwagen AU2
6287\\G\X\FCltiger Ordner\\Zeichnungen\\Rohrleitung.stp',
/* time_stamp */ '2018-04-13T06:18:39+02:00',
/* author */ ('Foell'),
/* organization */ (''),
/* preprocessor_version */ 'ST-DEVELOPER v15.2',
/* originating_system */ 'Autodesk Inventor 2014',
/* authorisation */ '');

FILE_SCHEMA (('AUTOMOTIVE_DESIGN { 1 0 10303 214 3 1 1 }'));
ENDSEC;

DATA;
#10=MECHANICAL_DESIGN_GEOMETRIC_PRESENTATION_REPRESENTATION('',(#13),#343);
#11=SHAPE_REPRESENTATION_RELATIONSHIP('SRR','None',#352,#12);
#12=ADVANCED_BREP_SHAPE_REPRESENTATION($,(#187),#342);
#13=STYLED_ITEM('',(#361),#187);
#14=PLANE('',#208);
#15=PLANE('',#220);
#16=FACE_BOUND('',#57,.T.);
#17=FACE_BOUND('',#59,.T.);
#18=FACE_BOUND('',#61,.T.);
#19=FACE_BOUND('',#63,.T.);
#20=FACE_BOUND('',#65,.T.);
#21=FACE_BOUND('',#67,.T.);
#22=FACE_BOUND('',#68,.T.);
#23=FACE_BOUND('',#69,.T.);
#24=FACE_BOUND('',#71,.T.);
#25=FACE_BOUND('',#73,.T.);
#26=FACE_BOUND('',#75,.T.);
#27=FACE_BOUND('',#77,.T.);
#28=FACE_BOUND('',#78,.T.);
#29=FACE_BOUND('',#79,.T.);
#30=ELLIPSE('',#191,483.8293135307,447.);
#31=ELLIPSE('',#192,483.8293135307,447.);
#32=ELLIPSE('',#194,483.8293135307,447.);
#33=ELLIPSE('',#195,483.8293135307,447.);
#34=ELLIPSE('',#197,504.020739097772,447.);
#35=ELLIPSE('',#198,504.020739097772,447.);
#36=ELLIPSE('',#200,504.020739097772,447.);
#37=ELLIPSE('',#201,504.020739097772,447.);
#38=ELLIPSE('',#206,487.076490131577,450.);
#39=ELLIPSE('',#207,487.076490131577,450.);
#40=ELLIPSE('',#210,487.076490131577,450.);
#41=ELLIPSE('',#211,487.076490131577,450.);
#42=ELLIPSE('',#213,507.403428621918,450.);
#43=ELLIPSE('',#214,507.403428621918,450.);
#44=ELLIPSE('',#216,507.403428621919,450.);
#45=ELLIPSE('',#217,507.403428621919,450.);
#46=FACE_OUTER_BOUND('',#56,.T.);
#47=FACE_OUTER_BOUND('',#58,.T.);
#48=FACE_OUTER_BOUND('',#60,.T.);
#49=FACE_OUTER_BOUND('',#62,.T.);
#50=FACE_OUTER_BOUND('',#64,.T.);
#51=FACE_OUTER_BOUND('',#66,.T.);
#52=FACE_OUTER_BOUND('',#70,.T.);
#53=FACE_OUTER_BOUND('',#72,.T.);
#54=FACE_OUTER_BOUND('',#74,.T.);
#55=FACE_OUTER_BOUND('',#76,.T.);
#56=EDGE_LOOP('',(#124));
#57=EDGE_LOOP('',(#125,#126));
#58=EDGE_LOOP('',(#127,#128));
#59=EDGE_LOOP('',(#129,#130));
#60=EDGE_LOOP('',(#131,#132));
#61=EDGE_LOOP('',(#133,#134));
#62=EDGE_LOOP('',(#135,#136));
#63=EDGE_LOOP('',(#137,#138));
#64=EDGE_LOOP('',(#139));
#65=EDGE_LOOP('',(#140,#141));
#66=EDGE_LOOP('',(#142));
#67=EDGE_LOOP('',(#143,#144));
#68=EDGE_LOOP('',(#145));
#69=EDGE_LOOP('',(#146));
#70=EDGE_LOOP('',(#147,#148));
#71=EDGE_LOOP('',(#149,#150));
#72=EDGE_LOOP('',(#151,#152));
#73=EDGE_LOOP('',(#153,#154));
#74=EDGE_LOOP('',(#155,#156));
#75=EDGE_LOOP('',(#157,#158));
#76=EDGE_LOOP('',(#159));
#77=EDGE_LOOP('',(#160,#161));
#78=EDGE_LOOP('',(#162));
#79=EDGE_LOOP('',(#163));
#80=CIRCLE('',#190,447.);
#81=CIRCLE('',#203,447.);
#82=CIRCLE('',#205,450.);
#83=CIRCLE('',#219,450.);
#84=VERTEX_POINT('',#289);
#85=VERTEX_POINT('',#291);
#86=VERTEX_POINT('',#292);
#87=VERTEX_POINT('',#296);
#88=VERTEX_POINT('',#297);
#89=VERTEX_POINT('',#301);
#90=VERTEX_POINT('',#302);
#91=VERTEX_POINT('',#306);
#92=VERTEX_POINT('',#307);
#93=VERTEX_POINT('',#311);
#94=VERTEX_POINT('',#314);
#95=VERTEX_POINT('',#316);
#96=VERTEX_POINT('',#317);
#97=VERTEX_POINT('',#322);
#98=VERTEX_POINT('',#323);
#99=VERTEX_POINT('',#327);
#100=VERTEX_POINT('',#328);
#101=VERTEX_POINT('',#332);
#102=VERTEX_POINT('',#333);
#103=VERTEX_POINT('',#337);
#104=EDGE_CURVE('',#84,#84,#80,.T.);
#105=EDGE_CURVE('',#85,#86,#30,.T.);
#106=EDGE_CURVE('',#86,#85,#31,.T.);
#107=EDGE_CURVE('',#87,#88,#32,.T.);
#108=EDGE_CURVE('',#88,#87,#33,.T.);
#109=EDGE_CURVE('',#89,#90,#34,.T.);
#110=EDGE_CURVE('',#90,#89,#35,.T.);
#111=EDGE_CURVE('',#91,#92,#36,.T.);
#112=EDGE_CURVE('',#92,#91,#37,.T.);
#113=EDGE_CURVE('',#93,#93,#81,.T.);
#114=EDGE_CURVE('',#94,#94,#82,.T.);
#115=EDGE_CURVE('',#95,#96,#38,.T.);
#116=EDGE_CURVE('',#96,#95,#39,.T.);
#117=EDGE_CURVE('',#97,#98,#40,.T.);
#118=EDGE_CURVE('',#98,#97,#41,.T.);
#119=EDGE_CURVE('',#99,#100,#42,.T.);
#120=EDGE_CURVE('',#100,#99,#43,.T.);
#121=EDGE_CURVE('',#101,#102,#44,.T.);
#122=EDGE_CURVE('',#102,#101,#45,.T.);
#123=EDGE_CURVE('',#103,#103,#83,.T.);
#124=ORIENTED_EDGE('',*,*,#104,.F.);
#125=ORIENTED_EDGE('',*,*,#105,.T.);
#126=ORIENTED_EDGE('',*,*,#106,.T.);
#127=ORIENTED_EDGE('',*,*,#106,.F.);
#128=ORIENTED_EDGE('',*,*,#105,.F.);
#129=ORIENTED_EDGE('',*,*,#107,.T.);
#130=ORIENTED_EDGE('',*,*,#108,.T.);
#131=ORIENTED_EDGE('',*,*,#108,.F.);
#132=ORIENTED_EDGE('',*,*,#107,.F.);
#133=ORIENTED_EDGE('',*,*,#109,.T.);
#134=ORIENTED_EDGE('',*,*,#110,.T.);
#135=ORIENTED_EDGE('',*,*,#109,.F.);
#136=ORIENTED_EDGE('',*,*,#110,.F.);
#137=ORIENTED_EDGE('',*,*,#111,.T.);
#138=ORIENTED_EDGE('',*,*,#112,.T.);
#139=ORIENTED_EDGE('',*,*,#113,.F.);
#140=ORIENTED_EDGE('',*,*,#111,.F.);
#141=ORIENTED_EDGE('',*,*,#112,.F.);
#142=ORIENTED_EDGE('',*,*,#114,.F.);
#143=ORIENTED_EDGE('',*,*,#115,.F.);
#144=ORIENTED_EDGE('',*,*,#116,.F.);
#145=ORIENTED_EDGE('',*,*,#104,.T.);
#146=ORIENTED_EDGE('',*,*,#114,.T.);
#147=ORIENTED_EDGE('',*,*,#116,.T.);
#148=ORIENTED_EDGE('',*,*,#115,.T.);
#149=ORIENTED_EDGE('',*,*,#117,.F.);
#150=ORIENTED_EDGE('',*,*,#118,.F.);
#151=ORIENTED_EDGE('',*,*,#118,.T.);
#152=ORIENTED_EDGE('',*,*,#117,.T.);
#153=ORIENTED_EDGE('',*,*,#119,.F.);
#154=ORIENTED_EDGE('',*,*,#120,.F.);
#155=ORIENTED_EDGE('',*,*,#119,.T.);
#156=ORIENTED_EDGE('',*,*,#120,.T.);
#157=ORIENTED_EDGE('',*,*,#121,.F.);
#158=ORIENTED_EDGE('',*,*,#122,.F.);
#159=ORIENTED_EDGE('',*,*,#123,.T.);
#160=ORIENTED_EDGE('',*,*,#121,.T.);
#161=ORIENTED_EDGE('',*,*,#122,.T.);
#162=ORIENTED_EDGE('',*,*,#113,.T.);
#163=ORIENTED_EDGE('',*,*,#123,.F.);
#164=CYLINDRICAL_SURFACE('',#189,447.);
#165=CYLINDRICAL_SURFACE('',#193,447.);
#166=CYLINDRICAL_SURFACE('',#196,447.);
#167=CYLINDRICAL_SURFACE('',#199,447.);
#168=CYLINDRICAL_SURFACE('',#202,447.);
#169=CYLINDRICAL_SURFACE('',#204,450.);
#170=CYLINDRICAL_SURFACE('',#209,450.);
#171=CYLINDRICAL_SURFACE('',#212,450.);
#172=CYLINDRICAL_SURFACE('',#215,450.);
#173=CYLINDRICAL_SURFACE('',#218,450.);
#174=ADVANCED_FACE('',(#46,#16),#164,.F.);
#175=ADVANCED_FACE('',(#47,#17),#165,.F.);
#176=ADVANCED_FACE('',(#48,#18),#166,.F.);
#177=ADVANCED_FACE('',(#49,#19),#167,.F.);
#178=ADVANCED_FACE('',(#50,#20),#168,.F.);
#179=ADVANCED_FACE('',(#51,#21),#169,.T.);
#180=ADVANCED_FACE('',(#22,#23),#14,.F.);
#181=ADVANCED_FACE('',(#52,#24),#170,.T.);
#182=ADVANCED_FACE('',(#53,#25),#171,.T.);
#183=ADVANCED_FACE('',(#54,#26),#172,.T.);
#184=ADVANCED_FACE('',(#55,#27),#173,.T.);
#185=ADVANCED_FACE('',(#28,#29),#15,.T.);
#186=CLOSED_SHELL('',(#174,#175,#176,#177,#178,#179,#180,#181,#182,#183,
#184,#185));
#187=MANIFOLD_SOLID_BREP('Volumenk\X\F6rper1',#186);
#188=AXIS2_PLACEMENT_3D('placement',#287,#221,#222);
#189=AXIS2_PLACEMENT_3D('',#288,#223,#224);
#190=AXIS2_PLACEMENT_3D('',#290,#225,#226);
#191=AXIS2_PLACEMENT_3D('',#293,#227,#228);
#192=AXIS2_PLACEMENT_3D('',#294,#229,#230);
#193=AXIS2_PLACEMENT_3D('',#295,#231,#232);
#194=AXIS2_PLACEMENT_3D('',#298,#233,#234);
#195=AXIS2_PLACEMENT_3D('',#299,#235,#236);
#196=AXIS2_PLACEMENT_3D('',#300,#237,#238);
#197=AXIS2_PLACEMENT_3D('',#303,#239,#240);
#198=AXIS2_PLACEMENT_3D('',#304,#241,#242);
#199=AXIS2_PLACEMENT_3D('',#305,#243,#244);
#200=AXIS2_PLACEMENT_3D('',#308,#245,#246);
#201=AXIS2_PLACEMENT_3D('',#309,#247,#248);
#202=AXIS2_PLACEMENT_3D('',#310,#249,#250);
#203=AXIS2_PLACEMENT_3D('',#312,#251,#252);
#204=AXIS2_PLACEMENT_3D('',#313,#253,#254);
#205=AXIS2_PLACEMENT_3D('',#315,#255,#256);
#206=AXIS2_PLACEMENT_3D('',#318,#257,#258);
#207=AXIS2_PLACEMENT_3D('',#319,#259,#260);
#208=AXIS2_PLACEMENT_3D('',#320,#261,#262);
#209=AXIS2_PLACEMENT_3D('',#321,#263,#264);
#210=AXIS2_PLACEMENT_3D('',#324,#265,#266);
#211=AXIS2_PLACEMENT_3D('',#325,#267,#268);
#212=AXIS2_PLACEMENT_3D('',#326,#269,#270);
#213=AXIS2_PLACEMENT_3D('',#329,#271,#272);
#214=AXIS2_PLACEMENT_3D('',#330,#273,#274);
#215=AXIS2_PLACEMENT_3D('',#331,#275,#276);
#216=AXIS2_PLACEMENT_3D('',#334,#277,#278);
#217=AXIS2_PLACEMENT_3D('',#335,#279,#280);
#218=AXIS2_PLACEMENT_3D('',#336,#281,#282);
#219=AXIS2_PLACEMENT_3D('',#338,#283,#284);
#220=AXIS2_PLACEMENT_3D('',#339,#285,#286);
#221=DIRECTION('axis',(0.,0.,1.));
#222=DIRECTION('refdir',(1.,0.,0.));
#223=DIRECTION('center_axis',(-1.,-3.60822483003176E-016,-6.47112461314111E-032));
#224=DIRECTION('ref_axis',(0.,-1.,-1.66533453693773E-016));
#225=DIRECTION('center_axis',(1.,-2.77555756156289E-017,0.));
#226=DIRECTION('ref_axis',(0.,-1.,-1.66533453693773E-016));
#227=DIRECTION('center_axis',(0.923879532511287,3.90551441292772E-016,0.38268343236509));
#228=DIRECTION('ref_axis',(0.38268343236509,3.42664826467527E-016,-0.923879532511287));
#229=DIRECTION('center_axis',(0.923879532511287,0.,0.38268343236509));
#230=DIRECTION('ref_axis',(-0.38268343236509,-2.91937635616243E-016,0.923879532511287));
#231=DIRECTION('center_axis',(-0.707106781186548,-3.60822483003176E-016,
-0.707106781186548));
#232=DIRECTION('ref_axis',(1.17756934401283E-016,-1.,-1.17756934401283E-016));
#233=DIRECTION('center_axis',(0.923879532511287,0.,0.382683432365089));
#234=DIRECTION('ref_axis',(-0.382683432365089,-1.57760630759436E-017,0.923879532511287));
#235=DIRECTION('center_axis',(0.923879532511287,3.90551441292773E-016,0.38268343236509));
#236=DIRECTION('ref_axis',(0.38268343236509,-3.49511277753401E-017,-0.923879532511287));
#237=DIRECTION('center_axis',(-1.,-3.60822483003176E-016,-5.55111512312579E-017));
#238=DIRECTION('ref_axis',(0.,-1.,-1.66533453693773E-016));
#239=DIRECTION('center_axis',(0.886868268159277,0.434076846065532,0.158246537535472));
#240=DIRECTION('ref_axis',(0.462022374925896,-0.833225838423788,-0.303759818361169));
#241=DIRECTION('center_axis',(0.886868268159277,0.434076846065532,0.158246537535473));
#242=DIRECTION('ref_axis',(0.462022374925896,-0.833225838423788,-0.30375981836117));
#243=DIRECTION('center_axis',(-0.57307065013567,-0.769937961436358,-0.280687665372573));
#244=DIRECTION('ref_axis',(0.769937961436358,-0.623154583419601,0.137382315828377));
#245=DIRECTION('center_axis',(0.886868268159277,0.434076846065532,0.158246537535472));
#246=DIRECTION('ref_axis',(0.462022374925896,-0.833225838423787,-0.30375981836117));
#247=DIRECTION('center_axis',(0.886868268159277,0.434076846065532,0.158246537535473));
#248=DIRECTION('ref_axis',(0.462022374925896,-0.833225838423788,-0.30375981836117));
#249=DIRECTION('center_axis',(-1.,-1.22464679914735E-016,0.));
#250=DIRECTION('ref_axis',(1.22464679914735E-016,-1.,0.));
#251=DIRECTION('center_axis',(-1.,0.,0.));
#252=DIRECTION('ref_axis',(1.22464679914735E-016,-1.,0.));
#253=DIRECTION('center_axis',(-1.,-3.60822483003176E-016,-6.47112461314111E-032));
#254=DIRECTION('ref_axis',(0.,-1.,-1.66533453693773E-016));
#255=DIRECTION('center_axis',(-1.,2.77555756156289E-017,0.));
#256=DIRECTION('ref_axis',(-3.88578058618805E-016,-1.,-1.66533453693773E-016));
#257=DIRECTION('center_axis',(0.923879532511287,3.90551441292772E-016,0.38268343236509));
#258=DIRECTION('ref_axis',(0.38268343236509,3.41406106620051E-016,-0.923879532511287));
#259=DIRECTION('center_axis',(0.923879532511287,0.,0.38268343236509));
#260=DIRECTION('ref_axis',(-0.38268343236509,-2.91937635616243E-016,0.923879532511287));
#261=DIRECTION('center_axis',(1.,-2.77555756156289E-017,0.));
#262=DIRECTION('ref_axis',(0.,0.,-1.));
#263=DIRECTION('center_axis',(-0.707106781186548,-3.60822483003176E-016,
-0.707106781186548));
#264=DIRECTION('ref_axis',(1.17756934401283E-016,-1.,-1.17756934401283E-016));
#265=DIRECTION('center_axis',(0.923879532511286,0.,0.382683432365091));
#266=DIRECTION('ref_axis',(-0.382683432365091,-1.57760630759443E-017,0.923879532511286));
#267=DIRECTION('center_axis',(0.923879532511287,3.90551441292773E-016,0.38268343236509));
#268=DIRECTION('ref_axis',(0.38268343236509,-3.36924079278639E-017,-0.923879532511287));
#269=DIRECTION('center_axis',(-1.,-3.60822483003176E-016,-5.55111512312579E-017));
#270=DIRECTION('ref_axis',(0.,-1.,-1.66533453693773E-016));
#271=DIRECTION('center_axis',(0.886868268159277,0.434076846065532,0.158246537535472));
#272=DIRECTION('ref_axis',(0.462022374925896,-0.833225838423788,-0.303759818361168));
#273=DIRECTION('center_axis',(0.886868268159277,0.434076846065532,0.158246537535473));
#274=DIRECTION('ref_axis',(0.462022374925896,-0.833225838423788,-0.30375981836117));
#275=DIRECTION('center_axis',(-0.57307065013567,-0.769937961436358,-0.280687665372573));
#276=DIRECTION('ref_axis',(0.769937961436358,-0.623154583419601,0.137382315828377));
#277=DIRECTION('center_axis',(0.886868268159277,0.434076846065532,0.158246537535472));
#278=DIRECTION('ref_axis',(0.462022374925896,-0.833225838423788,-0.30375981836117));
#279=DIRECTION('center_axis',(0.886868268159277,0.434076846065532,0.158246537535472));
#280=DIRECTION('ref_axis',(0.462022374925896,-0.833225838423788,-0.30375981836117));
#281=DIRECTION('center_axis',(-1.,-1.22464679914735E-016,0.));
#282=DIRECTION('ref_axis',(1.22464679914735E-016,-1.,0.));
#283=DIRECTION('center_axis',(-1.,0.,0.));
#284=DIRECTION('ref_axis',(0.,-1.,0.));
#285=DIRECTION('center_axis',(1.,0.,0.));
#286=DIRECTION('ref_axis',(0.,0.,-1.));
#287=CARTESIAN_POINT('',(0.,0.,0.));
#288=CARTESIAN_POINT('Origin',(-4216.,-2633.32,-1520.));
#289=CARTESIAN_POINT('',(-5016.,-2186.32,-1520.));
#290=CARTESIAN_POINT('Origin',(-5016.,-2633.32,-1520.));
#291=CARTESIAN_POINT('',(-4216.,-3080.32,-1520.));
#292=CARTESIAN_POINT('',(-4216.,-2186.32,-1520.));
#293=CARTESIAN_POINT('Origin',(-4216.,-2633.32,-1520.));
#294=CARTESIAN_POINT('Origin',(-4216.,-2633.32,-1520.));
#295=CARTESIAN_POINT('Origin',(-3656.,-2633.32,-960.));
#296=CARTESIAN_POINT('',(-3656.,-3080.32,-960.));
#297=CARTESIAN_POINT('',(-3656.,-2186.32,-960.));
#298=CARTESIAN_POINT('Origin',(-3656.,-2633.32,-960.));
#299=CARTESIAN_POINT('Origin',(-3656.,-2633.32,-960.));
#300=CARTESIAN_POINT('Origin',(-2406.,-2633.32,-960.));
#301=CARTESIAN_POINT('',(-2406.,-2480.2187518414,-1379.96310291772));
#302=CARTESIAN_POINT('',(-2406.,-2786.4212481586,-540.036897082281));
#303=CARTESIAN_POINT('Origin',(-2406.,-2633.32,-960.));
#304=CARTESIAN_POINT('Origin',(-2406.,-2633.32,-960.));
#305=CARTESIAN_POINT('Origin',(-446.,-5.4619247241972E-014,0.));
#306=CARTESIAN_POINT('',(-446.,153.101248158602,-419.963102917718));
#307=CARTESIAN_POINT('',(-446.,-153.101248158602,419.963102917718));
#308=CARTESIAN_POINT('Origin',(-446.,-1.98158381907127E-013,-5.23284558194782E-014));
#309=CARTESIAN_POINT('Origin',(-446.,-5.74656519216362E-014,-1.0376818967986E-015));
#310=CARTESIAN_POINT('Origin',(0.,0.,0.));
#311=CARTESIAN_POINT('',(0.,447.,5.47417119218867E-014));
#312=CARTESIAN_POINT('Origin',(-2.62502061362356E-030,-3.21472309216991E-046,
0.));
#313=CARTESIAN_POINT('Origin',(-4216.,-2633.32,-1520.));
#314=CARTESIAN_POINT('',(-5016.,-2183.32,-1520.));
#315=CARTESIAN_POINT('Origin',(-5016.,-2633.32,-1520.));
#316=CARTESIAN_POINT('',(-4216.,-3083.32,-1520.));
#317=CARTESIAN_POINT('',(-4216.,-2183.32,-1520.));
#318=CARTESIAN_POINT('Origin',(-4216.,-2633.32,-1520.));
#319=CARTESIAN_POINT('Origin',(-4216.,-2633.32,-1520.));
#320=CARTESIAN_POINT('Origin',(-5016.,-2633.32,-1520.));
#321=CARTESIAN_POINT('Origin',(-3656.,-2633.32,-960.));
#322=CARTESIAN_POINT('',(-3656.,-3083.32,-960.));
#323=CARTESIAN_POINT('',(-3656.,-2183.32,-960.));
#324=CARTESIAN_POINT('Origin',(-3656.,-2633.32,-960.));
#325=CARTESIAN_POINT('Origin',(-3656.,-2633.32,-960.));
#326=CARTESIAN_POINT('Origin',(-2406.,-2633.32,-960.));
#327=CARTESIAN_POINT('',(-2406.,-2479.19122668597,-1382.7816472326));
#328=CARTESIAN_POINT('',(-2406.,-2787.44877331403,-537.218352767397));
#329=CARTESIAN_POINT('Origin',(-2406.,-2633.32,-960.));
#330=CARTESIAN_POINT('Origin',(-2406.,-2633.32,-960.));
#331=CARTESIAN_POINT('Origin',(-446.,-5.4619247241972E-014,0.));
#332=CARTESIAN_POINT('',(-446.,154.128773314029,-422.781647232603));
#333=CARTESIAN_POINT('',(-446.,-154.128773314029,422.781647232603));
#334=CARTESIAN_POINT('Origin',(-446.,-1.98158381907127E-013,-5.23284558194782E-014));
#335=CARTESIAN_POINT('Origin',(-446.,-5.74656519216362E-014,-1.0376818967986E-015));
#336=CARTESIAN_POINT('Origin',(0.,0.,0.));
#337=CARTESIAN_POINT('',(0.,450.,5.51091059616309E-014));
#338=CARTESIAN_POINT('Origin',(0.,0.,0.));
#339=CARTESIAN_POINT('Origin',(0.,-2.1434919974079E-014,8.42124723863822E-015));
#340=UNCERTAINTY_MEASURE_WITH_UNIT(LENGTH_MEASURE(0.01),#344,
'DISTANCE_ACCURACY_VALUE',
'Maximum model space distance between geometric entities at asserted c
onnectivities');
#341=UNCERTAINTY_MEASURE_WITH_UNIT(LENGTH_MEASURE(1.E-006),#344,
'DISTANCE_ACCURACY_VALUE',
'Maximum model space distance between geometric entities at asserted c
onnectivities');
#342=(
GEOMETRIC_REPRESENTATION_CONTEXT(3)
GLOBAL_UNCERTAINTY_ASSIGNED_CONTEXT((#340))
GLOBAL_UNIT_ASSIGNED_CONTEXT((#344,#347,#345))
REPRESENTATION_CONTEXT('','3D')
);
#343=(
GEOMETRIC_REPRESENTATION_CONTEXT(3)
GLOBAL_UNCERTAINTY_ASSIGNED_CONTEXT((#341))
GLOBAL_UNIT_ASSIGNED_CONTEXT((#344,#347,#345))
REPRESENTATION_CONTEXT('','3D')
);
#344=(
LENGTH_UNIT()
NAMED_UNIT(*)
SI_UNIT(.MILLI.,.METRE.)
);
#345=(
NAMED_UNIT(*)
SI_UNIT($,.STERADIAN.)
SOLID_ANGLE_UNIT()
);
#346=DIMENSIONAL_EXPONENTS(0.,0.,0.,0.,0.,0.,0.);
#347=(
CONVERSION_BASED_UNIT('degree',#349)
NAMED_UNIT(#346)
PLANE_ANGLE_UNIT()
);
#348=(
NAMED_UNIT(*)
PLANE_ANGLE_UNIT()
SI_UNIT($,.RADIAN.)
);
#349=PLANE_ANGLE_MEASURE_WITH_UNIT(PLANE_ANGLE_MEASURE(0.01745329252),#348);
#350=SHAPE_DEFINITION_REPRESENTATION(#351,#352);
#351=PRODUCT_DEFINITION_SHAPE('',$,#354);
#352=SHAPE_REPRESENTATION('',(#188),#342);
#353=PRODUCT_DEFINITION_CONTEXT('part definition',#358,'design');
#354=PRODUCT_DEFINITION('Rohrleitung','Rohrleitung',#355,#353);
#355=PRODUCT_DEFINITION_FORMATION('',$,#360);
#356=PRODUCT_RELATED_PRODUCT_CATEGORY('Rohrleitung','Rohrleitung',(#360));
#357=APPLICATION_PROTOCOL_DEFINITION('international standard',
'automotive_design',2009,#358);
#358=APPLICATION_CONTEXT(
'Core Data for Automotive Mechanical Design Process');
#359=PRODUCT_CONTEXT('part definition',#358,'mechanical');
#360=PRODUCT('Rohrleitung','Rohrleitung',$,(#359));
#361=PRESENTATION_STYLE_ASSIGNMENT((#362));
#362=SURFACE_STYLE_USAGE(.BOTH.,#363);
#363=SURFACE_SIDE_STYLE($,(#364));
#364=SURFACE_STYLE_FILL_AREA(#365);
#365=FILL_AREA_STYLE($,(#366));
#366=FILL_AREA_STYLE_COLOUR($,#367);
#367=COLOUR_RGB('',0.749019607843137,0.749019607843137,0.749019607843137);
ENDSEC;
END-ISO-10303-21;
