0
SECTION
2
HEADER
9
$EXTMIN
10
89
20
89
9
$EXTMAX
10
111
20
111
9
$LIMMIN
10
89
20
89
9
$LIMMAX
10
111
20
111
0
ENDSEC
0
SECTION
2
TABLES
0
TABLE
2
LTYPE
70
255
0
LTYPE
2
1
70
0
3
SOLID
72
65
73
0
40
0
0
ENDTAB
0
TABLE
2
LAYER
70
4
0
LAYER
2
0
62
7
6
1
70
64
0
ENDTAB
0
TABLE
2
STYLE
70
1
0
STYLE
2
STD
70
0
40
0
41
1
50
0
71
0
42
.2
3
txt
0
ENDTAB
0
ENDSEC
0
SECTION
2
BLOCKS
0
BLOCK
2
CROSS
70
0
10
0
20
0
0
LINE
8
0
62
0
10
-50
20
0
11
50
21
0
0
LINE
8
0
62
0
10
0
20
-50
11
0
21
50
0
ENDBLK
0
ENDSEC
0
SECTION
2
ENTITIES
0
INSERT
8
POINT
62
2
2
CROSS
10
0.0000              
20
9.0783              
30
2.7616              
41
0.002
42
0.002
43
0.002
50
0.0
0
TEXT
8
CODE
62
3
7
STD
40
0.25
41
1.0
50
0.0
51
0.0
10
0.0000              
20
9.0783              
30
2.7616              
1
 ---
0
TEXT
8
PT_ID
62
3
7
STD
40
0.25
41
1.0
50
0.0
51
0.0
10
0.0000              
20
9.0783              
30
2.7616              
1
 V2
0
TEXT
8
HEIGHT
62
3
7
STD
40
0.25
41
1.0
50
0.0
51
0.0
10
0.0000              
20
9.0783              
30
2.7616              
1
 2.762
0
TEXT
8
CO_ORDS
62
3
7
STD
40
0.25
41
1.0
50
0.0
51
0.0
10
0.0000              
20
9.0783              
30
2.7616              
1
 0.000 9.078
0
INSERT
8
POINT
62
2
2
CROSS
10
8.3292              
20
-3.5685             
30
3.4765              
41
0.002
42
0.002
43
0.002
50
0.0
0
TEXT
8
CODE
62
3
7
STD
40
0.25
41
1.0
50
0.0
51
0.0
10
8.3292              
20
-3.5685             
30
3.4765              
1
 ---
0
TEXT
8
PT_ID
62
3
7
STD
40
0.25
41
1.0
50
0.0
51
0.0
10
8.3292              
20
-3.5685             
30
3.4765              
1
 V1
0
TEXT
8
HEIGHT
62
3
7
STD
40
0.25
41
1.0
50
0.0
51
0.0
10
8.3292              
20
-3.5685             
30
3.4765              
1
 3.477
0
TEXT
8
CO_ORDS
62
3
7
STD
40
0.25
41
1.0
50
0.0
51
0.0
10
8.3292              
20
-3.5685             
30
3.4765              
1
 8.329 -3.568
0
INSERT
8
POINT
62
2
2
CROSS
10
-4.5569             
20
-7.5032             
30
2.9655              
41
0.002
42
0.002
43
0.002
50
0.0
0
TEXT
8
CODE
62
3
7
STD
40
0.25
41
1.0
50
0.0
51
0.0
10
-4.5569             
20
-7.5032             
30
2.9655              
1
 ---
0
TEXT
8
PT_ID
62
3
7
STD
40
0.25
41
1.0
50
0.0
51
0.0
10
-4.5569             
20
-7.5032             
30
2.9655              
1
 V3
0
TEXT
8
HEIGHT
62
3
7
STD
40
0.25
41
1.0
50
0.0
51
0.0
10
-4.5569             
20
-7.5032             
30
2.9655              
1
 2.965
0
TEXT
8
CO_ORDS
62
3
7
STD
40
0.25
41
1.0
50
0.0
51
0.0
10
-4.5569             
20
-7.5032             
30
2.9655              
1
 -4.557 -7.503
0
INSERT
8
POINT
62
2
2
CROSS
10
3.8658              
20
-20.1169            
30
2.5750              
41
0.002
42
0.002
43
0.002
50
0.0
0
TEXT
8
CODE
62
3
7
STD
40
0.25
41
1.0
50
0.0
51
0.0
10
3.8658              
20
-20.1169            
30
2.5750              
1
 ---
0
TEXT
8
PT_ID
62
3
7
STD
40
0.25
41
1.0
50
0.0
51
0.0
10
3.8658              
20
-20.1169            
30
2.5750              
1
 V4
0
TEXT
8
HEIGHT
62
3
7
STD
40
0.25
41
1.0
50
0.0
51
0.0
10
3.8658              
20
-20.1169            
30
2.5750              
1
 2.575
0
TEXT
8
CO_ORDS
62
3
7
STD
40
0.25
41
1.0
50
0.0
51
0.0
10
3.8658              
20
-20.1169            
30
2.5750              
1
 3.866 -20.117
0
INSERT
8
POINT
62
2
2
CROSS
10
7.1127              
20
2.2200              
30
-0.0129             
41
0.002
42
0.002
43
0.002
50
0.0
0
TEXT
8
CODE
62
3
7
STD
40
0.25
41
1.0
50
0.0
51
0.0
10
7.1127              
20
2.2200              
30
-0.0129             
1
 ---
0
TEXT
8
PT_ID
62
3
7
STD
40
0.25
41
1.0
50
0.0
51
0.0
10
7.1127              
20
2.2200              
30
-0.0129             
1
 PT001
0
TEXT
8
HEIGHT
62
3
7
STD
40
0.25
41
1.0
50
0.0
51
0.0
10
7.1127              
20
2.2200              
30
-0.0129             
1
 -0.013
0
TEXT
8
CO_ORDS
62
3
7
STD
40
0.25
41
1.0
50
0.0
51
0.0
10
7.1127              
20
2.2200              
30
-0.0129             
1
 7.113 2.220
0
INSERT
8
POINT
62
2
2
CROSS
10
7.3996              
20
1.2738              
30
-0.0059             
41
0.002
42
0.002
43
0.002
50
0.0
0
TEXT
8
CODE
62
3
7
STD
40
0.25
41
1.0
50
0.0
51
0.0
10
7.3996              
20
1.2738              
30
-0.0059             
1
 ---
0
TEXT
8
PT_ID
62
3
7
STD
40
0.25
41
1.0
50
0.0
51
0.0
10
7.3996              
20
1.2738              
30
-0.0059             
1
 PT002
0
TEXT
8
HEIGHT
62
3
7
STD
40
0.25
41
1.0
50
0.0
51
0.0
10
7.3996              
20
1.2738              
30
-0.0059             
1
 -0.006
0
TEXT
8
CO_ORDS
62
3
7
STD
40
0.25
41
1.0
50
0.0
51
0.0
10
7.3996              
20
1.2738              
30
-0.0059             
1
 7.400 1.274
0
INSERT
8
POINT
62
2
2
CROSS
10
7.4151              
20
1.2709              
30
1.9830              
41
0.002
42
0.002
43
0.002
50
0.0
0
TEXT
8
CODE
62
3
7
STD
40
0.25
41
1.0
50
0.0
51
0.0
10
7.4151              
20
1.2709              
30
1.9830              
1
 ---
0
TEXT
8
PT_ID
62
3
7
STD
40
0.25
41
1.0
50
0.0
51
0.0
10
7.4151              
20
1.2709              
30
1.9830              
1
 PT003
0
TEXT
8
HEIGHT
62
3
7
STD
40
0.25
41
1.0
50
0.0
51
0.0
10
7.4151              
20
1.2709              
30
1.9830              
1
 1.983
0
TEXT
8
CO_ORDS
62
3
7
STD
40
0.25
41
1.0
50
0.0
51
0.0
10
7.4151              
20
1.2709              
30
1.9830              
1
 7.415 1.271
0
INSERT
8
POINT
62
2
2
CROSS
10
7.1204              
20
2.2383              
30
1.9806              
41
0.002
42
0.002
43
0.002
50
0.0
0
TEXT
8
CODE
62
3
7
STD
40
0.25
41
1.0
50
0.0
51
0.0
10
7.1204              
20
2.2383              
30
1.9806              
1
 ---
0
TEXT
8
PT_ID
62
3
7
STD
40
0.25
41
1.0
50
0.0
51
0.0
10
7.1204              
20
2.2383              
30
1.9806              
1
 PT004
0
TEXT
8
HEIGHT
62
3
7
STD
40
0.25
41
1.0
50
0.0
51
0.0
10
7.1204              
20
2.2383              
30
1.9806              
1
 1.981
0
TEXT
8
CO_ORDS
62
3
7
STD
40
0.25
41
1.0
50
0.0
51
0.0
10
7.1204              
20
2.2383              
30
1.9806              
1
 7.120 2.238
0
INSERT
8
POINT
62
2
2
CROSS
10
3.6848              
20
-2.0500             
30
0.0002              
41
0.002
42
0.002
43
0.002
50
0.0
0
TEXT
8
CODE
62
3
7
STD
40
0.25
41
1.0
50
0.0
51
0.0
10
3.6848              
20
-2.0500             
30
0.0002              
1
 ---
0
TEXT
8
PT_ID
62
3
7
STD
40
0.25
41
1.0
50
0.0
51
0.0
10
3.6848              
20
-2.0500             
30
0.0002              
1
 PT005
0
TEXT
8
HEIGHT
62
3
7
STD
40
0.25
41
1.0
50
0.0
51
0.0
10
3.6848              
20
-2.0500             
30
0.0002              
1
 0.000
0
TEXT
8
CO_ORDS
62
3
7
STD
40
0.25
41
1.0
50
0.0
51
0.0
10
3.6848              
20
-2.0500             
30
0.0002              
1
 3.685 -2.050
0
INSERT
8
POINT
62
2
2
CROSS
10
7.0775              
20
2.3523              
30
0.2591              
41
0.002
42
0.002
43
0.002
50
0.0
0
TEXT
8
CODE
62
3
7
STD
40
0.25
41
1.0
50
0.0
51
0.0
10
7.0775              
20
2.3523              
30
0.2591              
1
 ---
0
TEXT
8
PT_ID
62
3
7
STD
40
0.25
41
1.0
50
0.0
51
0.0
10
7.0775              
20
2.3523              
30
0.2591              
1
 SOCKEL01
0
TEXT
8
HEIGHT
62
3
7
STD
40
0.25
41
1.0
50
0.0
51
0.0
10
7.0775              
20
2.3523              
30
0.2591              
1
 0.259
0
TEXT
8
CO_ORDS
62
3
7
STD
40
0.25
41
1.0
50
0.0
51
0.0
10
7.0775              
20
2.3523              
30
0.2591              
1
 7.077 2.352
0
INSERT
8
POINT
62
2
2
CROSS
10
10.5983             
20
-9.1649             
30
0.2423              
41
0.002
42
0.002
43
0.002
50
0.0
0
TEXT
8
CODE
62
3
7
STD
40
0.25
41
1.0
50
0.0
51
0.0
10
10.5983             
20
-9.1649             
30
0.2423              
1
 ---
0
TEXT
8
PT_ID
62
3
7
STD
40
0.25
41
1.0
50
0.0
51
0.0
10
10.5983             
20
-9.1649             
30
0.2423              
1
 SOCKEL02
0
TEXT
8
HEIGHT
62
3
7
STD
40
0.25
41
1.0
50
0.0
51
0.0
10
10.5983             
20
-9.1649             
30
0.2423              
1
 0.242
0
TEXT
8
CO_ORDS
62
3
7
STD
40
0.25
41
1.0
50
0.0
51
0.0
10
10.5983             
20
-9.1649             
30
0.2423              
1
 10.598 -9.165
0
INSERT
8
POINT
62
2
2
CROSS
10
7.3669              
20
-19.2456            
30
0.2281              
41
0.002
42
0.002
43
0.002
50
0.0
0
TEXT
8
CODE
62
3
7
STD
40
0.25
41
1.0
50
0.0
51
0.0
10
7.3669              
20
-19.2456            
30
0.2281              
1
 ---
0
TEXT
8
PT_ID
62
3
7
STD
40
0.25
41
1.0
50
0.0
51
0.0
10
7.3669              
20
-19.2456            
30
0.2281              
1
 SOCKEL03
0
TEXT
8
HEIGHT
62
3
7
STD
40
0.25
41
1.0
50
0.0
51
0.0
10
7.3669              
20
-19.2456            
30
0.2281              
1
 0.228
0
TEXT
8
CO_ORDS
62
3
7
STD
40
0.25
41
1.0
50
0.0
51
0.0
10
7.3669              
20
-19.2456            
30
0.2281              
1
 7.367 -19.246
0
INSERT
8
POINT
62
2
2
CROSS
10
2.5710              
20
-20.7108            
30
0.2284              
41
0.002
42
0.002
43
0.002
50
0.0
0
TEXT
8
CODE
62
3
7
STD
40
0.25
41
1.0
50
0.0
51
0.0
10
2.5710              
20
-20.7108            
30
0.2284              
1
 ---
0
TEXT
8
PT_ID
62
3
7
STD
40
0.25
41
1.0
50
0.0
51
0.0
10
2.5710              
20
-20.7108            
30
0.2284              
1
 SOCKEL04
0
TEXT
8
HEIGHT
62
3
7
STD
40
0.25
41
1.0
50
0.0
51
0.0
10
2.5710              
20
-20.7108            
30
0.2284              
1
 0.228
0
TEXT
8
CO_ORDS
62
3
7
STD
40
0.25
41
1.0
50
0.0
51
0.0
10
2.5710              
20
-20.7108            
30
0.2284              
1
 2.571 -20.711
0
INSERT
8
POINT
62
2
2
CROSS
10
-1.6043             
20
-18.6431            
30
0.2276              
41
0.002
42
0.002
43
0.002
50
0.0
0
TEXT
8
CODE
62
3
7
STD
40
0.25
41
1.0
50
0.0
51
0.0
10
-1.6043             
20
-18.6431            
30
0.2276              
1
 ---
0
TEXT
8
PT_ID
62
3
7
STD
40
0.25
41
1.0
50
0.0
51
0.0
10
-1.6043             
20
-18.6431            
30
0.2276              
1
 SOCKEL05
0
TEXT
8
HEIGHT
62
3
7
STD
40
0.25
41
1.0
50
0.0
51
0.0
10
-1.6043             
20
-18.6431            
30
0.2276              
1
 0.228
0
TEXT
8
CO_ORDS
62
3
7
STD
40
0.25
41
1.0
50
0.0
51
0.0
10
-1.6043             
20
-18.6431            
30
0.2276              
1
 -1.604 -18.643
0
INSERT
8
POINT
62
2
2
CROSS
10
-5.4283             
20
-6.1191             
30
0.2301              
41
0.002
42
0.002
43
0.002
50
0.0
0
TEXT
8
CODE
62
3
7
STD
40
0.25
41
1.0
50
0.0
51
0.0
10
-5.4283             
20
-6.1191             
30
0.2301              
1
 ---
0
TEXT
8
PT_ID
62
3
7
STD
40
0.25
41
1.0
50
0.0
51
0.0
10
-5.4283             
20
-6.1191             
30
0.2301              
1
 SOCKEL06
0
TEXT
8
HEIGHT
62
3
7
STD
40
0.25
41
1.0
50
0.0
51
0.0
10
-5.4283             
20
-6.1191             
30
0.2301              
1
 0.230
0
TEXT
8
CO_ORDS
62
3
7
STD
40
0.25
41
1.0
50
0.0
51
0.0
10
-5.4283             
20
-6.1191             
30
0.2301              
1
 -5.428 -6.119
0
INSERT
8
POINT
62
2
2
CROSS
10
-0.4790             
20
9.1277              
30
0.2364              
41
0.002
42
0.002
43
0.002
50
0.0
0
TEXT
8
CODE
62
3
7
STD
40
0.25
41
1.0
50
0.0
51
0.0
10
-0.4790             
20
9.1277              
30
0.2364              
1
 ---
0
TEXT
8
PT_ID
62
3
7
STD
40
0.25
41
1.0
50
0.0
51
0.0
10
-0.4790             
20
9.1277              
30
0.2364              
1
 SOCKEL07
0
TEXT
8
HEIGHT
62
3
7
STD
40
0.25
41
1.0
50
0.0
51
0.0
10
-0.4790             
20
9.1277              
30
0.2364              
1
 0.236
0
TEXT
8
CO_ORDS
62
3
7
STD
40
0.25
41
1.0
50
0.0
51
0.0
10
-0.4790             
20
9.1277              
30
0.2364              
1
 -0.479 9.128
0
INSERT
8
POINT
62
2
2
CROSS
10
3.9259              
20
10.4795             
30
0.1984              
41
0.002
42
0.002
43
0.002
50
0.0
0
TEXT
8
CODE
62
3
7
STD
40
0.25
41
1.0
50
0.0
51
0.0
10
3.9259              
20
10.4795             
30
0.1984              
1
 ---
0
TEXT
8
PT_ID
62
3
7
STD
40
0.25
41
1.0
50
0.0
51
0.0
10
3.9259              
20
10.4795             
30
0.1984              
1
 SOCKEL08
0
TEXT
8
HEIGHT
62
3
7
STD
40
0.25
41
1.0
50
0.0
51
0.0
10
3.9259              
20
10.4795             
30
0.1984              
1
 0.198
0
TEXT
8
CO_ORDS
62
3
7
STD
40
0.25
41
1.0
50
0.0
51
0.0
10
3.9259              
20
10.4795             
30
0.1984              
1
 3.926 10.479
 0
ENDSEC
 0
EOF
