ISO-10303-21;
HEADER;
FILE_DESCRIPTION(('CATIA V5 STEP Exchange'),'2;1');

FILE_NAME('C:\\Users\\Timo\\Desktop\\KW 24\\2D-Ecke.stp','2018-06-26T07:18:01+00:00',('none'),('none'),'CATIA Version 5 Release 19 SP 3 (IN-10)','CATIA V5 STEP AP203','none');

FILE_SCHEMA(('CONFIG_CONTROL_DESIGN'));

ENDSEC;
/* file written by CATIA V5R19 */
DATA;
#5=PRODUCT('2D-Ecke','','',(#2)) ;
#1=APPLICATION_CONTEXT('configuration controlled 3D design of mechanical parts and assemblies') ;
#14=PRODUCT_DEFINITION('',' ',#6,#3) ;
#16=SECURITY_CLASSIFICATION(' ',' ',#15) ;
#15=SECURITY_CLASSIFICATION_LEVEL('unclassified') ;
#47=CARTESIAN_POINT(' ',(0.,0.,0.)) ;
#52=CARTESIAN_POINT('Axis2P3D Location',(-41.9118522361,-53.0613312964,0.)) ;
#57=CARTESIAN_POINT('Axis2P3D Location',(-17.1631148946,-28.3125939549,0.)) ;
#61=CARTESIAN_POINT('Vertex',(-18.8424934999,-29.9919725602,-2.40026775582E-015)) ;
#63=CARTESIAN_POINT('Vertex',(-15.4837362892,-26.6332153495,4.80053551164E-015)) ;
#66=CARTESIAN_POINT('Axis2P3D Location',(-41.9118522361,-53.0613312964,4.80055472317E-015)) ;
#70=CARTESIAN_POINT('Vertex',(-24.6539978164,-19.9093014064,3.45497962921E-015)) ;
#73=CARTESIAN_POINT('Axis2P3D Location',(-25.7506507729,-22.0159521351,0.)) ;
#77=CARTESIAN_POINT('Vertex',(-26.8473037293,-24.1226028639,8.881784197E-016)) ;
#80=CARTESIAN_POINT('Axis2P3D Location',(-41.9118522361,-53.0613312964,-2.40027736159E-015)) ;
#92=CARTESIAN_POINT('Axis2P3D Location',(-17.1631148946,-28.3125939549,0.)) ;
#97=CARTESIAN_POINT('Axis2P3D Location',(-25.7506507729,-22.0159521351,0.)) ;
#109=CARTESIAN_POINT('Axis2P3D Location',(18.1922241648,-63.6679330142,0.)) ;
#114=CARTESIAN_POINT('Axis2P3D Location',(53.5475632241,-99.0232720735,0.)) ;
#118=CARTESIAN_POINT('Vertex',(51.8681846188,-100.702650679,1.99840144433E-015)) ;
#120=CARTESIAN_POINT('Vertex',(55.2269418294,-97.3438934682,-4.98271535794E-015)) ;
#123=CARTESIAN_POINT('Line Origine',(19.8716027701,-61.9885544089,1.34555588243E-015)) ;
#128=CARTESIAN_POINT('Line Origine',(16.5128455595,-65.3473116195,1.99840144433E-015)) ;
#140=CARTESIAN_POINT('Axis2P3D Location',(53.5475632241,-99.0232720735,0.)) ;
#152=CARTESIAN_POINT('Axis2P3D Location',(76.2854176488,-76.2854176488,0.)) ;
#162=CARTESIAN_POINT('Axis2P3D Location',(-41.9118522361,53.0613312964,0.)) ;
#167=CARTESIAN_POINT('Axis2P3D Location',(-41.9118522361,53.0613312964,5.09140833797E-015)) ;
#171=CARTESIAN_POINT('Vertex',(-26.8473037293,24.1226028639,4.4408920985E-016)) ;
#173=CARTESIAN_POINT('Vertex',(-18.8424934999,29.9919725602,5.09137952067E-015)) ;
#176=CARTESIAN_POINT('Axis2P3D Location',(-25.7506507729,22.0159521351,0.)) ;
#180=CARTESIAN_POINT('Vertex',(-24.6539978164,19.9093014064,3.45497962921E-015)) ;
#183=CARTESIAN_POINT('Axis2P3D Location',(-41.9118522361,53.0613312964,-2.69113097638E-015)) ;
#187=CARTESIAN_POINT('Vertex',(-15.4837362892,26.6332153495,-2.69111176485E-015)) ;
#190=CARTESIAN_POINT('Axis2P3D Location',(-17.1631148946,28.3125939549,0.)) ;
#202=CARTESIAN_POINT('Axis2P3D Location',(-25.7506507729,22.0159521351,0.)) ;
#207=CARTESIAN_POINT('Axis2P3D Location',(-17.1631148946,28.3125939549,0.)) ;
#219=CARTESIAN_POINT('Axis2P3D Location',(18.1922241648,63.6679330142,0.)) ;
#224=CARTESIAN_POINT('Line Origine',(16.5128455595,65.3473116195,1.99840144433E-015)) ;
#228=CARTESIAN_POINT('Vertex',(51.8681846188,100.702650679,1.99840144433E-015)) ;
#231=CARTESIAN_POINT('Line Origine',(19.8716027701,61.9885544089,1.34555588243E-015)) ;
#235=CARTESIAN_POINT('Vertex',(55.2269418294,97.3438934682,-4.98271535794E-015)) ;
#238=CARTESIAN_POINT('Axis2P3D Location',(53.5475632241,99.0232720735,0.)) ;
#250=CARTESIAN_POINT('Axis2P3D Location',(53.5475632241,99.0232720735,0.)) ;
#262=CARTESIAN_POINT('Axis2P3D Location',(76.2854176488,76.2854176488,0.)) ;
#272=CARTESIAN_POINT('Axis2P3D Location',(-29.9639522304,19.8226462223,0.)) ;
#277=CARTESIAN_POINT('Line Origine',(-31.0606051869,21.9292969511,4.4408920985E-016)) ;
#281=CARTESIAN_POINT('Vertex',(-35.2739066445,19.7359910382,2.69111176485E-015)) ;
#284=CARTESIAN_POINT('Axis2P3D Location',(-34.177253688,17.6293403094,0.)) ;
#288=CARTESIAN_POINT('Vertex',(-33.0806007316,15.5226895806,-3.45497962921E-015)) ;
#291=CARTESIAN_POINT('Line Origine',(-28.867299274,17.7159954935,3.45497962921E-015)) ;
#303=CARTESIAN_POINT('Axis2P3D Location',(-34.177253688,17.6293403094,0.)) ;
#315=CARTESIAN_POINT('Axis2P3D Location',(-25.,0.,0.)) ;
#320=CARTESIAN_POINT('Axis2P3D Location',(-25.,0.,2.69113097638E-015)) ;
#324=CARTESIAN_POINT('Vertex',(-35.2739066445,-19.7359910382,5.81688018066E-016)) ;
#327=CARTESIAN_POINT('Axis2P3D Location',(-34.177253688,-17.6293403094,0.)) ;
#331=CARTESIAN_POINT('Vertex',(-33.0806007316,-15.5226895806,2.87329161115E-015)) ;
#334=CARTESIAN_POINT('Axis2P3D Location',(-25.,0.,-3.45498923498E-015)) ;
#346=CARTESIAN_POINT('Axis2P3D Location',(-34.177253688,-17.6293403094,0.)) ;
#358=CARTESIAN_POINT('Axis2P3D Location',(-29.9639522304,-19.8226462223,0.)) ;
#363=CARTESIAN_POINT('Line Origine',(-28.867299274,-17.7159954935,3.45497962921E-015)) ;
#368=CARTESIAN_POINT('Line Origine',(-31.0606051869,-21.9292969511,4.4408920985E-016)) ;
#53=DIRECTION('Axis2P3D Direction',(0.,0.,-1.)) ;
#54=DIRECTION('Axis2P3D XDirection',(0.461748613235,0.887010833178,0.)) ;
#58=DIRECTION('Axis2P3D Direction',(-0.707106781187,0.707106781187,0.)) ;
#67=DIRECTION('Axis2P3D Direction',(0.,0.,-1.)) ;
#74=DIRECTION('Axis2P3D Direction',(-0.887010833178,0.461748613235,0.)) ;
#81=DIRECTION('Axis2P3D Direction',(0.,0.,-1.)) ;
#93=DIRECTION('Axis2P3D Direction',(-0.707106781187,0.707106781187,0.)) ;
#98=DIRECTION('Axis2P3D Direction',(-0.887010833178,0.461748613235,0.)) ;
#110=DIRECTION('Axis2P3D Direction',(-0.707106781187,0.707106781187,0.)) ;
#111=DIRECTION('Axis2P3D XDirection',(-0.707106781187,-0.707106781187,8.41432187084E-016)) ;
#115=DIRECTION('Axis2P3D Direction',(-0.707106781187,0.707106781187,0.)) ;
#124=DIRECTION('Vector Direction',(-0.707106781187,0.707106781187,0.)) ;
#129=DIRECTION('Vector Direction',(-0.707106781187,0.707106781187,0.)) ;
#141=DIRECTION('Axis2P3D Direction',(-0.707106781187,0.707106781187,0.)) ;
#153=DIRECTION('Axis2P3D Direction',(-0.707106781187,0.707106781187,0.)) ;
#154=DIRECTION('Axis2P3D XDirection',(-0.707106781187,-0.707106781187,0.)) ;
#163=DIRECTION('Axis2P3D Direction',(0.,0.,1.)) ;
#164=DIRECTION('Axis2P3D XDirection',(0.461748613235,-0.887010833178,0.)) ;
#168=DIRECTION('Axis2P3D Direction',(0.,0.,1.)) ;
#177=DIRECTION('Axis2P3D Direction',(-0.887010833178,-0.461748613235,0.)) ;
#184=DIRECTION('Axis2P3D Direction',(0.,0.,1.)) ;
#191=DIRECTION('Axis2P3D Direction',(-0.707106781187,-0.707106781187,0.)) ;
#203=DIRECTION('Axis2P3D Direction',(-0.887010833178,-0.461748613235,0.)) ;
#208=DIRECTION('Axis2P3D Direction',(-0.707106781187,-0.707106781187,0.)) ;
#220=DIRECTION('Axis2P3D Direction',(0.707106781187,0.707106781187,-0.)) ;
#221=DIRECTION('Axis2P3D XDirection',(-0.707106781187,0.707106781187,8.41432187084E-016)) ;
#225=DIRECTION('Vector Direction',(0.707106781187,0.707106781187,0.)) ;
#232=DIRECTION('Vector Direction',(0.707106781187,0.707106781187,0.)) ;
#239=DIRECTION('Axis2P3D Direction',(0.707106781187,0.707106781187,-0.)) ;
#251=DIRECTION('Axis2P3D Direction',(0.707106781187,0.707106781187,-0.)) ;
#263=DIRECTION('Axis2P3D Direction',(0.707106781187,0.707106781187,0.)) ;
#264=DIRECTION('Axis2P3D XDirection',(-0.707106781187,0.707106781187,0.)) ;
#273=DIRECTION('Axis2P3D Direction',(0.887010833178,0.461748613235,-0.)) ;
#274=DIRECTION('Axis2P3D XDirection',(-0.461748613235,0.887010833178,1.86984930463E-016)) ;
#278=DIRECTION('Vector Direction',(0.887010833178,0.461748613235,0.)) ;
#285=DIRECTION('Axis2P3D Direction',(0.887010833178,0.461748613235,-0.)) ;
#292=DIRECTION('Vector Direction',(0.887010833178,0.461748613235,0.)) ;
#304=DIRECTION('Axis2P3D Direction',(0.887010833178,0.461748613235,-0.)) ;
#316=DIRECTION('Axis2P3D Direction',(0.,0.,-1.)) ;
#317=DIRECTION('Axis2P3D XDirection',(-0.461748613235,-0.887010833178,0.)) ;
#321=DIRECTION('Axis2P3D Direction',(0.,0.,-1.)) ;
#328=DIRECTION('Axis2P3D Direction',(0.887010833178,-0.461748613235,0.)) ;
#335=DIRECTION('Axis2P3D Direction',(0.,0.,-1.)) ;
#347=DIRECTION('Axis2P3D Direction',(0.887010833178,-0.461748613235,0.)) ;
#359=DIRECTION('Axis2P3D Direction',(-0.887010833178,0.461748613235,0.)) ;
#360=DIRECTION('Axis2P3D XDirection',(-0.461748613235,-0.887010833178,1.86984930463E-016)) ;
#364=DIRECTION('Vector Direction',(-0.887010833178,0.461748613235,0.)) ;
#369=DIRECTION('Vector Direction',(-0.887010833178,0.461748613235,0.)) ;
#48=AXIS2_PLACEMENT_3D(' ',#47,$,$) ;
#55=AXIS2_PLACEMENT_3D('Torus Axis2P3D',#52,#53,#54) ;
#59=AXIS2_PLACEMENT_3D('Circle Axis2P3D',#57,#58,$) ;
#68=AXIS2_PLACEMENT_3D('Circle Axis2P3D',#66,#67,$) ;
#75=AXIS2_PLACEMENT_3D('Circle Axis2P3D',#73,#74,$) ;
#82=AXIS2_PLACEMENT_3D('Circle Axis2P3D',#80,#81,$) ;
#94=AXIS2_PLACEMENT_3D('Circle Axis2P3D',#92,#93,$) ;
#99=AXIS2_PLACEMENT_3D('Circle Axis2P3D',#97,#98,$) ;
#112=AXIS2_PLACEMENT_3D('Cylinder Axis2P3D',#109,#110,#111) ;
#116=AXIS2_PLACEMENT_3D('Circle Axis2P3D',#114,#115,$) ;
#142=AXIS2_PLACEMENT_3D('Circle Axis2P3D',#140,#141,$) ;
#155=AXIS2_PLACEMENT_3D('Plane Axis2P3D',#152,#153,#154) ;
#165=AXIS2_PLACEMENT_3D('Torus Axis2P3D',#162,#163,#164) ;
#169=AXIS2_PLACEMENT_3D('Circle Axis2P3D',#167,#168,$) ;
#178=AXIS2_PLACEMENT_3D('Circle Axis2P3D',#176,#177,$) ;
#185=AXIS2_PLACEMENT_3D('Circle Axis2P3D',#183,#184,$) ;
#192=AXIS2_PLACEMENT_3D('Circle Axis2P3D',#190,#191,$) ;
#204=AXIS2_PLACEMENT_3D('Circle Axis2P3D',#202,#203,$) ;
#209=AXIS2_PLACEMENT_3D('Circle Axis2P3D',#207,#208,$) ;
#222=AXIS2_PLACEMENT_3D('Cylinder Axis2P3D',#219,#220,#221) ;
#240=AXIS2_PLACEMENT_3D('Circle Axis2P3D',#238,#239,$) ;
#252=AXIS2_PLACEMENT_3D('Circle Axis2P3D',#250,#251,$) ;
#265=AXIS2_PLACEMENT_3D('Plane Axis2P3D',#262,#263,#264) ;
#275=AXIS2_PLACEMENT_3D('Cylinder Axis2P3D',#272,#273,#274) ;
#286=AXIS2_PLACEMENT_3D('Circle Axis2P3D',#284,#285,$) ;
#305=AXIS2_PLACEMENT_3D('Circle Axis2P3D',#303,#304,$) ;
#318=AXIS2_PLACEMENT_3D('Torus Axis2P3D',#315,#316,#317) ;
#322=AXIS2_PLACEMENT_3D('Circle Axis2P3D',#320,#321,$) ;
#329=AXIS2_PLACEMENT_3D('Circle Axis2P3D',#327,#328,$) ;
#336=AXIS2_PLACEMENT_3D('Circle Axis2P3D',#334,#335,$) ;
#348=AXIS2_PLACEMENT_3D('Circle Axis2P3D',#346,#347,$) ;
#361=AXIS2_PLACEMENT_3D('Cylinder Axis2P3D',#358,#359,#360) ;
#40=PRODUCT_DEFINITION_SHAPE(' ',' ',#14) ;
#31=APPROVAL_PERSON_ORGANIZATION(#25,#21,#19) ;
#25=PERSON_AND_ORGANIZATION(#22,#23) ;
#22=PERSON(' ',' ',' ',$,$,$) ;
#23=ORGANIZATION(' ',' ',' ') ;
#21=APPROVAL(#20,' ') ;
#20=APPROVAL_STATUS('not_yet_approved') ;
#19=APPROVAL_ROLE('APPROVER') ;
#13=DATE_AND_TIME(#11,#12) ;
#12=LOCAL_TIME(9,18,1.,#10) ;
#10=COORDINATED_UNIVERSAL_TIME_OFFSET(0,0,.AHEAD.) ;
#86=ORIENTED_EDGE('',*,*,#65,.T.) ;
#87=ORIENTED_EDGE('',*,*,#72,.F.) ;
#88=ORIENTED_EDGE('',*,*,#79,.F.) ;
#89=ORIENTED_EDGE('',*,*,#84,.T.) ;
#103=ORIENTED_EDGE('',*,*,#96,.T.) ;
#104=ORIENTED_EDGE('',*,*,#84,.F.) ;
#105=ORIENTED_EDGE('',*,*,#101,.F.) ;
#106=ORIENTED_EDGE('',*,*,#72,.T.) ;
#134=ORIENTED_EDGE('',*,*,#122,.T.) ;
#135=ORIENTED_EDGE('',*,*,#127,.F.) ;
#136=ORIENTED_EDGE('',*,*,#65,.F.) ;
#137=ORIENTED_EDGE('',*,*,#132,.T.) ;
#146=ORIENTED_EDGE('',*,*,#144,.T.) ;
#147=ORIENTED_EDGE('',*,*,#132,.F.) ;
#148=ORIENTED_EDGE('',*,*,#96,.F.) ;
#149=ORIENTED_EDGE('',*,*,#127,.T.) ;
#158=ORIENTED_EDGE('',*,*,#144,.F.) ;
#159=ORIENTED_EDGE('',*,*,#122,.F.) ;
#196=ORIENTED_EDGE('',*,*,#175,.F.) ;
#197=ORIENTED_EDGE('',*,*,#182,.T.) ;
#198=ORIENTED_EDGE('',*,*,#189,.T.) ;
#199=ORIENTED_EDGE('',*,*,#194,.F.) ;
#213=ORIENTED_EDGE('',*,*,#189,.F.) ;
#214=ORIENTED_EDGE('',*,*,#206,.T.) ;
#215=ORIENTED_EDGE('',*,*,#175,.T.) ;
#216=ORIENTED_EDGE('',*,*,#211,.F.) ;
#244=ORIENTED_EDGE('',*,*,#230,.F.) ;
#245=ORIENTED_EDGE('',*,*,#194,.T.) ;
#246=ORIENTED_EDGE('',*,*,#237,.T.) ;
#247=ORIENTED_EDGE('',*,*,#242,.F.) ;
#256=ORIENTED_EDGE('',*,*,#237,.F.) ;
#257=ORIENTED_EDGE('',*,*,#211,.T.) ;
#258=ORIENTED_EDGE('',*,*,#230,.T.) ;
#259=ORIENTED_EDGE('',*,*,#254,.F.) ;
#268=ORIENTED_EDGE('',*,*,#242,.T.) ;
#269=ORIENTED_EDGE('',*,*,#254,.T.) ;
#297=ORIENTED_EDGE('',*,*,#283,.F.) ;
#298=ORIENTED_EDGE('',*,*,#290,.T.) ;
#299=ORIENTED_EDGE('',*,*,#295,.T.) ;
#300=ORIENTED_EDGE('',*,*,#182,.F.) ;
#309=ORIENTED_EDGE('',*,*,#295,.F.) ;
#310=ORIENTED_EDGE('',*,*,#307,.T.) ;
#311=ORIENTED_EDGE('',*,*,#283,.T.) ;
#312=ORIENTED_EDGE('',*,*,#206,.F.) ;
#340=ORIENTED_EDGE('',*,*,#326,.T.) ;
#341=ORIENTED_EDGE('',*,*,#333,.T.) ;
#342=ORIENTED_EDGE('',*,*,#338,.F.) ;
#343=ORIENTED_EDGE('',*,*,#290,.F.) ;
#352=ORIENTED_EDGE('',*,*,#338,.T.) ;
#353=ORIENTED_EDGE('',*,*,#350,.T.) ;
#354=ORIENTED_EDGE('',*,*,#326,.F.) ;
#355=ORIENTED_EDGE('',*,*,#307,.F.) ;
#374=ORIENTED_EDGE('',*,*,#79,.T.) ;
#375=ORIENTED_EDGE('',*,*,#367,.F.) ;
#376=ORIENTED_EDGE('',*,*,#333,.F.) ;
#377=ORIENTED_EDGE('',*,*,#372,.T.) ;
#381=ORIENTED_EDGE('',*,*,#101,.T.) ;
#382=ORIENTED_EDGE('',*,*,#372,.F.) ;
#383=ORIENTED_EDGE('',*,*,#350,.F.) ;
#384=ORIENTED_EDGE('',*,*,#367,.T.) ;
#51=CLOSED_SHELL('Closed Shell',(#91,#108,#139,#151,#161,#201,#218,#249,#261,#271,#302,#314,#345,#357,#379,#386)) ;
#125=VECTOR('Line Direction',#124,1.) ;
#130=VECTOR('Line Direction',#129,1.) ;
#226=VECTOR('Line Direction',#225,1.) ;
#233=VECTOR('Line Direction',#232,1.) ;
#279=VECTOR('Line Direction',#278,1.) ;
#293=VECTOR('Line Direction',#292,1.) ;
#365=VECTOR('Line Direction',#364,1.) ;
#370=VECTOR('Line Direction',#369,1.) ;
#388=ADVANCED_BREP_SHAPE_REPRESENTATION('NONE',(#387),#46) ;
#49=SHAPE_REPRESENTATION(' ',(#48),#46) ;
#91=ADVANCED_FACE('Hauptk\X2\00F6\X0\rper',(#90),#56,.T.) ;
#108=ADVANCED_FACE('Hauptk\X2\00F6\X0\rper',(#107),#56,.T.) ;
#139=ADVANCED_FACE('Hauptk\X2\00F6\X0\rper',(#138),#113,.T.) ;
#151=ADVANCED_FACE('Hauptk\X2\00F6\X0\rper',(#150),#113,.T.) ;
#161=ADVANCED_FACE('Hauptk\X2\00F6\X0\rper',(#160),#156,.F.) ;
#201=ADVANCED_FACE('Hauptk\X2\00F6\X0\rper',(#200),#166,.T.) ;
#218=ADVANCED_FACE('Hauptk\X2\00F6\X0\rper',(#217),#166,.T.) ;
#249=ADVANCED_FACE('Hauptk\X2\00F6\X0\rper',(#248),#223,.T.) ;
#261=ADVANCED_FACE('Hauptk\X2\00F6\X0\rper',(#260),#223,.T.) ;
#271=ADVANCED_FACE('Hauptk\X2\00F6\X0\rper',(#270),#266,.T.) ;
#302=ADVANCED_FACE('Hauptk\X2\00F6\X0\rper',(#301),#276,.T.) ;
#314=ADVANCED_FACE('Hauptk\X2\00F6\X0\rper',(#313),#276,.T.) ;
#345=ADVANCED_FACE('Hauptk\X2\00F6\X0\rper',(#344),#319,.T.) ;
#357=ADVANCED_FACE('Hauptk\X2\00F6\X0\rper',(#356),#319,.T.) ;
#379=ADVANCED_FACE('Hauptk\X2\00F6\X0\rper',(#378),#362,.T.) ;
#386=ADVANCED_FACE('Hauptk\X2\00F6\X0\rper',(#385),#362,.T.) ;
#4=APPLICATION_PROTOCOL_DEFINITION('international standard','config_control_design',1994,#1) ;
#32=APPROVAL_DATE_TIME(#13,#21) ;
#387=MANIFOLD_SOLID_BREP('Hauptk\X2\00F6\X0\rper',#51) ;
#11=CALENDAR_DATE(2018,26,6) ;
#30=CC_DESIGN_APPROVAL(#21,(#16,#6,#14)) ;
#18=CC_DESIGN_DATE_AND_TIME_ASSIGNMENT(#13,#17,(#16)) ;
#29=CC_DESIGN_DATE_AND_TIME_ASSIGNMENT(#13,#28,(#14)) ;
#17=DATE_TIME_ROLE('classification_date') ;
#28=DATE_TIME_ROLE('creation_date') ;
#27=CC_DESIGN_PERSON_AND_ORGANIZATION_ASSIGNMENT(#25,#26,(#16)) ;
#33=CC_DESIGN_PERSON_AND_ORGANIZATION_ASSIGNMENT(#25,#34,(#6)) ;
#35=CC_DESIGN_PERSON_AND_ORGANIZATION_ASSIGNMENT(#25,#36,(#6,#14)) ;
#37=CC_DESIGN_PERSON_AND_ORGANIZATION_ASSIGNMENT(#25,#38,(#5)) ;
#26=PERSON_AND_ORGANIZATION_ROLE('classification_officer') ;
#34=PERSON_AND_ORGANIZATION_ROLE('design_supplier') ;
#36=PERSON_AND_ORGANIZATION_ROLE('creator') ;
#38=PERSON_AND_ORGANIZATION_ROLE('design_owner') ;
#39=CC_DESIGN_SECURITY_CLASSIFICATION(#16,(#6)) ;
#60=CIRCLE('generated circle',#59,2.375) ;
#69=CIRCLE('generated circle',#68,37.375) ;
#76=CIRCLE('generated circle',#75,2.375) ;
#83=CIRCLE('generated circle',#82,32.625) ;
#95=CIRCLE('generated circle',#94,2.375) ;
#100=CIRCLE('generated circle',#99,2.375) ;
#117=CIRCLE('generated circle',#116,2.375) ;
#143=CIRCLE('generated circle',#142,2.375) ;
#170=CIRCLE('generated circle',#169,32.625) ;
#179=CIRCLE('generated circle',#178,2.375) ;
#186=CIRCLE('generated circle',#185,37.375) ;
#193=CIRCLE('generated circle',#192,2.375) ;
#205=CIRCLE('generated circle',#204,2.375) ;
#210=CIRCLE('generated circle',#209,2.375) ;
#241=CIRCLE('generated circle',#240,2.375) ;
#253=CIRCLE('generated circle',#252,2.375) ;
#287=CIRCLE('generated circle',#286,2.375) ;
#306=CIRCLE('generated circle',#305,2.375) ;
#323=CIRCLE('generated circle',#322,22.25) ;
#330=CIRCLE('generated circle',#329,2.375) ;
#337=CIRCLE('generated circle',#336,17.5) ;
#349=CIRCLE('generated circle',#348,2.375) ;
#389=SHAPE_REPRESENTATION_RELATIONSHIP(' ',' ',#49,#388) ;
#113=CYLINDRICAL_SURFACE('generated cylinder',#112,2.375) ;
#223=CYLINDRICAL_SURFACE('generated cylinder',#222,2.375) ;
#276=CYLINDRICAL_SURFACE('generated cylinder',#275,2.375) ;
#362=CYLINDRICAL_SURFACE('generated cylinder',#361,2.375) ;
#56=TOROIDAL_SURFACE('homeo Torus',#55,35.,2.375) ;
#166=TOROIDAL_SURFACE('homeo Torus',#165,35.,2.375) ;
#319=TOROIDAL_SURFACE('homeo Torus',#318,19.875,2.375) ;
#3=DESIGN_CONTEXT(' ',#1,'design') ;
#65=EDGE_CURVE('',#62,#64,#60,.T.) ;
#72=EDGE_CURVE('',#71,#64,#69,.T.) ;
#79=EDGE_CURVE('',#78,#71,#76,.T.) ;
#84=EDGE_CURVE('',#78,#62,#83,.T.) ;
#96=EDGE_CURVE('',#64,#62,#95,.T.) ;
#101=EDGE_CURVE('',#71,#78,#100,.T.) ;
#122=EDGE_CURVE('',#119,#121,#117,.T.) ;
#127=EDGE_CURVE('',#64,#121,#126,.F.) ;
#132=EDGE_CURVE('',#62,#119,#131,.F.) ;
#144=EDGE_CURVE('',#121,#119,#143,.T.) ;
#175=EDGE_CURVE('',#172,#174,#170,.T.) ;
#182=EDGE_CURVE('',#172,#181,#179,.F.) ;
#189=EDGE_CURVE('',#181,#188,#186,.T.) ;
#194=EDGE_CURVE('',#174,#188,#193,.F.) ;
#206=EDGE_CURVE('',#181,#172,#205,.F.) ;
#211=EDGE_CURVE('',#188,#174,#210,.F.) ;
#230=EDGE_CURVE('',#174,#229,#227,.T.) ;
#237=EDGE_CURVE('',#188,#236,#234,.T.) ;
#242=EDGE_CURVE('',#229,#236,#241,.T.) ;
#254=EDGE_CURVE('',#236,#229,#253,.T.) ;
#283=EDGE_CURVE('',#282,#172,#280,.T.) ;
#290=EDGE_CURVE('',#282,#289,#287,.T.) ;
#295=EDGE_CURVE('',#289,#181,#294,.T.) ;
#307=EDGE_CURVE('',#289,#282,#306,.T.) ;
#326=EDGE_CURVE('',#282,#325,#323,.F.) ;
#333=EDGE_CURVE('',#325,#332,#330,.F.) ;
#338=EDGE_CURVE('',#289,#332,#337,.F.) ;
#350=EDGE_CURVE('',#332,#325,#349,.F.) ;
#367=EDGE_CURVE('',#332,#71,#366,.F.) ;
#372=EDGE_CURVE('',#325,#78,#371,.F.) ;
#85=EDGE_LOOP('',(#86,#87,#88,#89)) ;
#102=EDGE_LOOP('',(#103,#104,#105,#106)) ;
#133=EDGE_LOOP('',(#134,#135,#136,#137)) ;
#145=EDGE_LOOP('',(#146,#147,#148,#149)) ;
#157=EDGE_LOOP('',(#158,#159)) ;
#195=EDGE_LOOP('',(#196,#197,#198,#199)) ;
#212=EDGE_LOOP('',(#213,#214,#215,#216)) ;
#243=EDGE_LOOP('',(#244,#245,#246,#247)) ;
#255=EDGE_LOOP('',(#256,#257,#258,#259)) ;
#267=EDGE_LOOP('',(#268,#269)) ;
#296=EDGE_LOOP('',(#297,#298,#299,#300)) ;
#308=EDGE_LOOP('',(#309,#310,#311,#312)) ;
#339=EDGE_LOOP('',(#340,#341,#342,#343)) ;
#351=EDGE_LOOP('',(#352,#353,#354,#355)) ;
#373=EDGE_LOOP('',(#374,#375,#376,#377)) ;
#380=EDGE_LOOP('',(#381,#382,#383,#384)) ;
#90=FACE_OUTER_BOUND('',#85,.T.) ;
#107=FACE_OUTER_BOUND('',#102,.T.) ;
#138=FACE_OUTER_BOUND('',#133,.T.) ;
#150=FACE_OUTER_BOUND('',#145,.T.) ;
#160=FACE_OUTER_BOUND('',#157,.T.) ;
#200=FACE_OUTER_BOUND('',#195,.T.) ;
#217=FACE_OUTER_BOUND('',#212,.T.) ;
#248=FACE_OUTER_BOUND('',#243,.T.) ;
#260=FACE_OUTER_BOUND('',#255,.T.) ;
#270=FACE_OUTER_BOUND('',#267,.T.) ;
#301=FACE_OUTER_BOUND('',#296,.T.) ;
#313=FACE_OUTER_BOUND('',#308,.T.) ;
#344=FACE_OUTER_BOUND('',#339,.T.) ;
#356=FACE_OUTER_BOUND('',#351,.T.) ;
#378=FACE_OUTER_BOUND('',#373,.T.) ;
#385=FACE_OUTER_BOUND('',#380,.T.) ;
#45=UNCERTAINTY_MEASURE_WITH_UNIT(LENGTH_MEASURE(0.005),#41,'distance_accuracy_value','CONFUSED CURVE UNCERTAINTY') ;
#126=LINE('Line',#123,#125) ;
#131=LINE('Line',#128,#130) ;
#227=LINE('Line',#224,#226) ;
#234=LINE('Line',#231,#233) ;
#280=LINE('Line',#277,#279) ;
#294=LINE('Line',#291,#293) ;
#366=LINE('Line',#363,#365) ;
#371=LINE('Line',#368,#370) ;
#2=MECHANICAL_CONTEXT(' ',#1,'mechanical') ;
#24=PERSONAL_ADDRESS(' ',' ',' ',' ',' ',' ',' ',' ',' ',' ',' ',' ',(#22),' ') ;
#156=PLANE('Plane',#155) ;
#266=PLANE('Plane',#265) ;
#43=PLANE_ANGLE_MEASURE_WITH_UNIT(PLANE_ANGLE_MEASURE(0.0174532925199),#42) ;
#7=PRODUCT_CATEGORY('part',$) ;
#9=PRODUCT_CATEGORY_RELATIONSHIP(' ',' ',#7,#8) ;
#6=PRODUCT_DEFINITION_FORMATION_WITH_SPECIFIED_SOURCE('',' ',#5,.NOT_KNOWN.) ;
#8=PRODUCT_RELATED_PRODUCT_CATEGORY('detail',$,(#5)) ;
#50=SHAPE_DEFINITION_REPRESENTATION(#40,#49) ;
#62=VERTEX_POINT('',#61) ;
#64=VERTEX_POINT('',#63) ;
#71=VERTEX_POINT('',#70) ;
#78=VERTEX_POINT('',#77) ;
#119=VERTEX_POINT('',#118) ;
#121=VERTEX_POINT('',#120) ;
#172=VERTEX_POINT('',#171) ;
#174=VERTEX_POINT('',#173) ;
#181=VERTEX_POINT('',#180) ;
#188=VERTEX_POINT('',#187) ;
#229=VERTEX_POINT('',#228) ;
#236=VERTEX_POINT('',#235) ;
#282=VERTEX_POINT('',#281) ;
#289=VERTEX_POINT('',#288) ;
#325=VERTEX_POINT('',#324) ;
#332=VERTEX_POINT('',#331) ;
#41=(LENGTH_UNIT()NAMED_UNIT(*)SI_UNIT(.MILLI.,.METRE.)) ;
#42=(NAMED_UNIT(*)PLANE_ANGLE_UNIT()SI_UNIT($,.RADIAN.)) ;
#44=(NAMED_UNIT(*)SI_UNIT($,.STERADIAN.)SOLID_ANGLE_UNIT()) ;
#46=(GEOMETRIC_REPRESENTATION_CONTEXT(3)GLOBAL_UNCERTAINTY_ASSIGNED_CONTEXT((#45))GLOBAL_UNIT_ASSIGNED_CONTEXT((#41,#42,#44))REPRESENTATION_CONTEXT(' ',' ')) ;
ENDSEC;
END-ISO-10303-21;
